0
SECTION
2
HEADER
9
$INSUNITS
70
4
9
$ACADVER
1
AC1014
9
$HANDSEED
5
FFFF
0
ENDSEC
0
SECTION
2
TABLES
0
TABLE
2
VPORT
5
8
100
AcDbSymbolTable
0
ENDTAB
0
TABLE
2
LTYPE
5
5
100
AcDbSymbolTable
0
LTYPE
5
14
100
AcDbSymbolTableRecord
100
AcDbLinetypeTableRecord
2
BYBLOCK
70
0
0
LTYPE
5
15
100
AcDbSymbolTableRecord
100
AcDbLinetypeTableRecord
2
BYLAYER
70
0
0
ENDTAB
0
TABLE
2
LAYER
5
2
100
AcDbSymbolTable
70
2
0
LAYER
5
50
100
AcDbSymbolTableRecord
100
AcDbLayerTableRecord
2
0
70
0
6
CONTINUOUS
0
ENDTAB
0
TABLE
2
STYLE
5
3
100
AcDbSymbolTable
70
1
0
STYLE
5
11
100
AcDbSymbolTableRecord
100
AcDbTextStyleTableRecord
2
STANDARD
70
0
0
ENDTAB
0
TABLE
2
VIEW
5
6
100
AcDbSymbolTable
70
0
0
ENDTAB
0
TABLE
2
UCS
5
7
100
AcDbSymbolTable
70
0
0
ENDTAB
0
TABLE
2
APPID
5
9
100
AcDbSymbolTable
70
2
0
APPID
5
12
100
AcDbSymbolTableRecord
100
AcDbRegAppTableRecord
2
ACAD
70
0
0
ENDTAB
0
TABLE
2
DIMSTYLE
5
A
100
AcDbSymbolTable
70
1
0
ENDTAB
0
TABLE
2
BLOCK_RECORD
5
1
100
AcDbSymbolTable
70
1
0
BLOCK_RECORD
5
1F
100
AcDbSymbolTableRecord
100
AcDbBlockTableRecord
2
*MODEL_SPACE
0
BLOCK_RECORD
5
1B
100
AcDbSymbolTableRecord
100
AcDbBlockTableRecord
2
*PAPER_SPACE
0
ENDTAB
0
ENDSEC
0
SECTION
2
BLOCKS
0
BLOCK
5
20
100
AcDbEntity
100
AcDbBlockBegin
2
*MODEL_SPACE
0
ENDBLK
5
21
100
AcDbEntity
100
AcDbBlockEnd
0
BLOCK
5
1C
100
AcDbEntity
100
AcDbBlockBegin
2
*PAPER_SPACE
0
ENDBLK
5
1D
100
AcDbEntity
100
AcDbBlockEnd
0
ENDSEC
0
SECTION
2
ENTITIES
0
CIRCLE
5
100
100
AcDbEntity
8
0
100
AcDbCircle
10
-304.00023907761386
20
-0.00023913285726860113
30
0
40
2.5
0
LWPOLYLINE
5
101
100
AcDbEntity
8
0
100
AcDbPolyline
90
10
70
1
43
0.0
10
-310
20
6.9999999264263995
42
-0.41421356230270073
10
-307.000000000721
20
9.9999999264263995
10
-300
20
9.9999999257053762
10
300
20
9.9999999257053762
10
306.999999999279
20
10.00000007399597
42
-0.41421356244348922
10
310
20
7.0000000739959649
10
310.00000000000006
20
-7.0000000742946238
42
-0.41421356237309503
10
307
20
-10.000000074294624
10
-307
20
-10.000000074294595
42
-0.41421356237309503
10
-310
20
-7.0000000742946238
0
LWPOLYLINE
5
102
100
AcDbEntity
8
0
100
AcDbPolyline
90
4
70
1
43
0.0
10
-300.00000000000006
20
5.9995941224574656
10
-300.00000000000006
20
-6.0003911646754338
10
-297.00000000000011
20
-6.0003911646754329
10
-297.00000000000006
20
5.9995941224574665
0
ARC
5
103
100
AcDbEntity
8
0
100
AcDbCircle
10
0
20
-7.4294623786386182e-08
30
0
40
2.5
100
AcDbArc
50
90.000000000000014
51
270.00000061049286
0
LINE
5
104
100
AcDbEntity
8
0
100
AcDbLine
10
-1.014354065488404e-15
20
2.4999999257053758
30
0
11
297
21
2.4999999257053935
31
0
0
LINE
5
105
100
AcDbEntity
8
0
100
AcDbLine
10
297
20
2.4999999257053935
30
0
11
297
21
5.9995941224574665
31
0
0
LINE
5
106
100
AcDbEntity
8
0
100
AcDbLine
10
297
20
5.9995941224574665
30
0
11
299.99999999999994
21
5.9995941224574656
31
0
0
LINE
5
107
100
AcDbEntity
8
0
100
AcDbLine
10
299.99999999999994
20
5.9995941224574656
30
0
11
300
21
-6.0003911646754338
31
0
0
LINE
5
108
100
AcDbEntity
8
0
100
AcDbLine
10
300
20
-6.0003911646754338
30
0
11
296.99999999999994
21
-6.0003911646754329
31
0
0
LINE
5
109
100
AcDbEntity
8
0
100
AcDbLine
10
296.99999999999994
20
-6.0003911646754329
30
0
11
296.99999999999994
21
-2.5000000742946127
31
0
0
LINE
5
110
100
AcDbEntity
8
0
100
AcDbLine
10
296.99999999999994
20
-2.5000000742946127
30
0
11
2.6637777137276077e-08
21
-2.5000000742946238
31
0
0
CIRCLE
5
111
100
AcDbEntity
8
0
100
AcDbCircle
10
-19.808688457449495
20
-7.4294623786386182e-08
30
0
40
2.0472756898480693
0
CIRCLE
5
112
100
AcDbEntity
8
0
100
AcDbCircle
10
304.00023907761386
20
-0.00023913285726860113
30
0
40
2.5
0
ENDSEC
0
SECTION
2
OBJECTS
0
DICTIONARY
5
C
100
AcDbDictionary
3
ACAD_GROUP
350
D
3
ACAD_MLINESTYLE
350
17
0
DICTIONARY
5
D
100
AcDbDictionary
0
DICTIONARY
5
1A
330
C
100
AcDbDictionary
0
DICTIONARY
5
17
100
AcDbDictionary
0
ENDSEC
0
EOF
