  0
SECTION
  2
HEADER
  9
$ACADVER
  1
AC1015
  9
$ACADMAINTVER
 70
     6
  9
$DWGCODEPAGE
  3
ANSI_1252
  9
$INSBASE
 10
0.0
 20
0.0
 30
0.0
  9
$EXTMIN
 10
-40.0
 20
-25.3254858468
 30
0.0
  9
$EXTMAX
 10
532.0
 20
204.6745141532
 30
0.0
  9
$LIMMIN
 10
0.0
 20
0.0
  9
$LIMMAX
 10
420.0
 20
297.0
  9
$ORTHOMODE
 70
     0
  9
$REGENMODE
 70
     1
  9
$FILLMODE
 70
     1
  9
$QTEXTMODE
 70
     0
  9
$MIRRTEXT
 70
     1
  9
$LTSCALE
 40
1.0
  9
$ATTMODE
 70
     1
  9
$TEXTSIZE
 40
3.5
  9
$TRACEWID
 40
1.0
  9
$TEXTSTYLE
  7
Standard
  9
$CLAYER
  8
0
  9
$CELTYPE
  6
ByLayer
  9
$CECOLOR
 62
   256
  9
$CELTSCALE
 40
1.0
  9
$DISPSILH
 70
     0
  9
$DIMSCALE
 40
1.0
  9
$DIMASZ
 40
3.302
  9
$DIMEXO
 40
1.0
  9
$DIMDLI
 40
3.75
  9
$DIMRND
 40
0.0
  9
$DIMDLE
 40
0.0
  9
$DIMEXE
 40
1.0
  9
$DIMTP
 40
0.0
  9
$DIMTM
 40
0.0
  9
$DIMTXT
 40
3.5
  9
$DIMCEN
 40
2.5
  9
$DIMTSZ
 40
0.0
  9
$DIMTOL
 70
     0
  9
$DIMLIM
 70
     0
  9
$DIMTIH
 70
     1
  9
$DIMTOH
 70
     1
  9
$DIMSE1
 70
     0
  9
$DIMSE2
 70
     0
  9
$DIMTAD
 70
     1
  9
$DIMZIN
 70
     1
  9
$DIMBLK
  1

  9
$DIMASO
 70
     1
  9
$DIMSHO
 70
     1
  9
$DIMPOST
  1

  9
$DIMAPOST
  1

  9
$DIMALT
 70
     0
  9
$DIMALTD
 70
     3
  9
$DIMALTF
 40
0.0393700787
  9
$DIMLFAC
 40
1.0
  9
$DIMTOFL
 70
     1
  9
$DIMTVP
 40
0.0
  9
$DIMTIX
 70
     0
  9
$DIMSOXD
 70
     0
  9
$DIMSAH
 70
     0
  9
$DIMBLK1
  1

  9
$DIMBLK2
  1

  9
$DIMSTYLE
  2
ISO-25
  9
$DIMCLRD
 70
     0
  9
$DIMCLRE
 70
     0
  9
$DIMCLRT
 70
     0
  9
$DIMTFAC
 40
1.0
  9
$DIMGAP
 40
1.524
  9
$DIMJUST
 70
     0
  9
$DIMSD1
 70
     0
  9
$DIMSD2
 70
     0
  9
$DIMTOLJ
 70
     0
  9
$DIMTZIN
 70
     1
  9
$DIMALTZ
 70
     0
  9
$DIMALTTZ
 70
     0
  9
$DIMUPT
 70
     0
  9
$DIMDEC
 70
     2
  9
$DIMTDEC
 70
     2
  9
$DIMALTU
 70
     2
  9
$DIMALTTD
 70
     3
  9
$DIMTXSTY
  7
Standard
  9
$DIMAUNIT
 70
     0
  9
$DIMADEC
 70
     2
  9
$DIMALTRND
 40
0.0
  9
$DIMAZIN
 70
     0
  9
$DIMDSEP
 70
    44
  9
$DIMATFIT
 70
     3
  9
$DIMFRAC
 70
     0
  9
$DIMLDRBLK
  1

  9
$DIMLUNIT
 70
     2
  9
$DIMLWD
 70
    -2
  9
$DIMLWE
 70
    -2
  9
$DIMTMOVE
 70
     0
  9
$LUNITS
 70
     2
  9
$LUPREC
 70
     2
  9
$SKETCHINC
 40
1.0
  9
$FILLETRAD
 40
10.0
  9
$AUNITS
 70
     0
  9
$AUPREC
 70
     2
  9
$MENU
  1
.
  9
$ELEVATION
 40
0.0
  9
$PELEVATION
 40
0.0
  9
$THICKNESS
 40
0.0
  9
$LIMCHECK
 70
     0
  9
$CHAMFERA
 40
0.0
  9
$CHAMFERB
 40
0.0
  9
$CHAMFERC
 40
0.0
  9
$CHAMFERD
 40
0.0
  9
$SKPOLY
 70
     0
  9
$TDCREATE
 40
2458848.233122257
  9
$TDUCREATE
 40
2458848.19145559
  9
$TDUPDATE
 40
2458848.233189607
  9
$TDUUPDATE
 40
2458848.19152294
  9
$TDINDWG
 40
0.0000000116
  9
$TDUSRTIMER
 40
0.0000000116
  9
$USRTIMER
 70
     1
  9
$ANGBASE
 50
0.0
  9
$ANGDIR
 70
     0
  9
$PDMODE
 70
     0
  9
$PDSIZE
 40
-1.0
  9
$PLINEWID
 40
0.0
  9
$SPLFRAME
 70
     0
  9
$SPLINETYPE
 70
     6
  9
$SPLINESEGS
 70
     8
  9
$HANDSEED
  5
A1
  9
$SURFTAB1
 70
     6
  9
$SURFTAB2
 70
     6
  9
$SURFTYPE
 70
     6
  9
$SURFU
 70
     6
  9
$SURFV
 70
     6
  9
$UCSBASE
  2

  9
$UCSNAME
  2

  9
$UCSORG
 10
0.0
 20
0.0
 30
0.0
  9
$UCSXDIR
 10
1.0
 20
0.0
 30
0.0
  9
$UCSYDIR
 10
0.0
 20
1.0
 30
0.0
  9
$UCSORTHOREF
  2

  9
$UCSORTHOVIEW
 70
     0
  9
$UCSORGTOP
 10
0.0
 20
0.0
 30
0.0
  9
$UCSORGBOTTOM
 10
0.0
 20
0.0
 30
0.0
  9
$UCSORGLEFT
 10
0.0
 20
0.0
 30
0.0
  9
$UCSORGRIGHT
 10
0.0
 20
0.0
 30
0.0
  9
$UCSORGFRONT
 10
0.0
 20
0.0
 30
0.0
  9
$UCSORGBACK
 10
0.0
 20
0.0
 30
0.0
  9
$PUCSBASE
  2

  9
$PUCSNAME
  2

  9
$PUCSORG
 10
0.0
 20
0.0
 30
0.0
  9
$PUCSXDIR
 10
1.0
 20
0.0
 30
0.0
  9
$PUCSYDIR
 10
0.0
 20
1.0
 30
0.0
  9
$PUCSORTHOREF
  2

  9
$PUCSORTHOVIEW
 70
     0
  9
$PUCSORGTOP
 10
0.0
 20
0.0
 30
0.0
  9
$PUCSORGBOTTOM
 10
0.0
 20
0.0
 30
0.0
  9
$PUCSORGLEFT
 10
0.0
 20
0.0
 30
0.0
  9
$PUCSORGRIGHT
 10
0.0
 20
0.0
 30
0.0
  9
$PUCSORGFRONT
 10
0.0
 20
0.0
 30
0.0
  9
$PUCSORGBACK
 10
0.0
 20
0.0
 30
0.0
  9
$USERI1
 70
     0
  9
$USERI2
 70
     0
  9
$USERI3
 70
     0
  9
$USERI4
 70
     0
  9
$USERI5
 70
     0
  9
$USERR1
 40
0.0
  9
$USERR2
 40
0.0
  9
$USERR3
 40
0.0
  9
$USERR4
 40
0.0
  9
$USERR5
 40
0.0
  9
$WORLDVIEW
 70
     1
  9
$SHADEDGE
 70
     3
  9
$SHADEDIF
 70
    70
  9
$TILEMODE
 70
     1
  9
$MAXACTVP
 70
    64
  9
$PINSBASE
 10
0.0
 20
0.0
 30
0.0
  9
$PLIMCHECK
 70
     0
  9
$PEXTMIN
 10
1.0000000000E+20
 20
1.0000000000E+20
 30
1.0000000000E+20
  9
$PEXTMAX
 10
-1.0000000000E+20
 20
-1.0000000000E+20
 30
-1.0000000000E+20
  9
$PLIMMIN
 10
0.0
 20
0.0
  9
$PLIMMAX
 10
420.0
 20
297.0
  9
$UNITMODE
 70
     0
  9
$VISRETAIN
 70
     1
  9
$PLINEGEN
 70
     0
  9
$PSLTSCALE
 70
     1
  9
$TREEDEPTH
 70
  3020
  9
$CMLSTYLE
  2
Standard
  9
$CMLJUST
 70
     0
  9
$CMLSCALE
 40
20.0
  9
$PROXYGRAPHICS
 70
     1
  9
$MEASUREMENT
 70
     1
  9
$CELWEIGHT
370
    -1
  9
$ENDCAPS
280
     0
  9
$JOINSTYLE
280
     0
  9
$LWDISPLAY
290
     1
  9
$INSUNITS
 70
     4
  9
$HYPERLINKBASE
  1

  9
$STYLESHEET
  1

  9
$XEDIT
290
     1
  9
$CEPSNTYPE
380
     0
  9
$PSTYLEMODE
290
     1
  9
$FINGERPRINTGUID
  2
{27172847-5EF9-4B34-A501-08D9791447C8}
  9
$VERSIONGUID
  2
{FAEB1C32-E019-11D5-929B-00C0DF256EC4}
  9
$EXTNAMES
290
     1
  9
$PSVPSCALE
 40
0.0
  9
$OLESTARTUP
290
     0
  0
ENDSEC
  0
SECTION
  2
CLASSES
  0
CLASS
  1
ACDBDICTIONARYWDFLT
  2
AcDbDictionaryWithDefault
  3
ObjectDBX Classes
 90
        0
280
     0
281
     0
  0
CLASS
  1
VISUALSTYLE
  2
AcDbVisualStyle
  3
ObjectDBX Classes
 90
     4095
280
     0
281
     0
  0
CLASS
  1
MATERIAL
  2
AcDbMaterial
  3
ObjectDBX Classes
 90
     1153
280
     0
281
     0
  0
CLASS
  1
SCALE
  2
AcDbScale
  3
ObjectDBX Classes
 90
     1153
280
     0
281
     0
  0
CLASS
  1
TABLESTYLE
  2
AcDbTableStyle
  3
ObjectDBX Classes
 90
     4095
280
     0
281
     0
  0
CLASS
  1
MLEADERSTYLE
  2
AcDbMLeaderStyle
  3
ACDB_MLEADERSTYLE_CLASS
 90
     4095
280
     0
281
     0
  0
CLASS
  1
SUN
  2
AcDbSun
  3
SCENEOE
 90
     1153
280
     0
281
     0
  0
CLASS
  1
ACDBPLACEHOLDER
  2
AcDbPlaceHolder
  3
ObjectDBX Classes
 90
        0
280
     0
281
     0
  0
CLASS
  1
LAYOUT
  2
AcDbLayout
  3
ObjectDBX Classes
 90
        0
280
     0
281
     0
  0
ENDSEC
  0
SECTION
  2
TABLES
  0
TABLE
  2
VPORT
  5
8
330
0
100
AcDbSymbolTable
 70
     1
  0
VPORT
  5
29
330
8
100
AcDbSymbolTableRecord
100
AcDbViewportTableRecord
  2
*Active
 70
     0
 10
0.0
 20
0.0
 11
1.0
 21
1.0
 12
246.0
 22
89.6745141532
 13
0.0
 23
0.0
 14
10.0
 24
10.0
 15
10.0
 25
10.0
 16
0.0
 26
0.0
 36
1.0
 17
0.0
 27
0.0
 37
0.0
 40
234.6
 41
2.4869565217
 42
50.0
 43
0.0
 44
0.0
 50
0.0
 51
0.0
 71
     0
 72
   100
 73
     1
 74
     3
 75
     0
 76
     0
 77
     0
 78
     0
281
     0
 65
     1
110
0.0
120
0.0
130
0.0
111
1.0
121
0.0
131
0.0
112
0.0
122
1.0
132
0.0
 79
     0
146
0.0
  0
ENDTAB
  0
TABLE
  2
LTYPE
  5
5
330
0
100
AcDbSymbolTable
 70
     6
  0
LTYPE
  5
14
330
5
100
AcDbSymbolTableRecord
100
AcDbLinetypeTableRecord
  2
ByBlock
 70
     0
  3

 72
    65
 73
     0
 40
0.0
  0
LTYPE
  5
15
330
5
100
AcDbSymbolTableRecord
100
AcDbLinetypeTableRecord
  2
ByLayer
 70
     0
  3

 72
    65
 73
     0
 40
0.0
  0
LTYPE
  5
16
330
5
100
AcDbSymbolTableRecord
100
AcDbLinetypeTableRecord
  2
Continuous
 70
     0
  3
Solid line
 72
    65
 73
     0
 40
0.0
  0
LTYPE
  5
6E
330
5
100
AcDbSymbolTableRecord
100
AcDbLinetypeTableRecord
  2
HIDDEN
 70
     0
  3
Hidden __ __ __ __ __ __ __ __ __ __ __ __ __ __
 72
    65
 73
     2
 40
1.905
 49
1.27
 74
     0
 49
-0.635
 74
     0
  0
LTYPE
  5
6F
330
5
100
AcDbSymbolTableRecord
100
AcDbLinetypeTableRecord
  2
PHANTOM
 70
     0
  3
Phantom ______  __  __  ______  __  __  ______
 72
    65
 73
     6
 40
12.7
 49
6.35
 74
     0
 49
-1.27
 74
     0
 49
1.27
 74
     0
 49
-1.27
 74
     0
 49
1.27
 74
     0
 49
-1.27
 74
     0
  0
LTYPE
  5
70
330
5
100
AcDbSymbolTableRecord
100
AcDbLinetypeTableRecord
  2
CENTER
 70
     0
  3
Center ____ _ ____ _ ____ _ ____ _ ____ _ ____
 72
    65
 73
     4
 40
10.16
 49
6.35
 74
     0
 49
-1.27
 74
     0
 49
1.27
 74
     0
 49
-1.27
 74
     0
  0
LTYPE
  5
71
330
5
100
AcDbSymbolTableRecord
100
AcDbLinetypeTableRecord
  2
CENTERX2
 70
     0
  3
Center (2x) ________  __  ________  __  _____
 72
    65
 73
     4
 40
20.32
 49
12.7
 74
     0
 49
-2.54
 74
     0
 49
2.54
 74
     0
 49
-2.54
 74
     0
  0
LTYPE
  5
72
330
5
100
AcDbSymbolTableRecord
100
AcDbLinetypeTableRecord
  2
DOT2
 70
     0
  3
Dot (.5x) ........................................
 72
    65
 73
     2
 40
0.635
 49
0.0
 74
     0
 49
-0.635
 74
     0
  0
ENDTAB
  0
TABLE
  2
LAYER
  5
2
330
0
100
AcDbSymbolTable
 70
     1
  0
LAYER
  5
10
330
2
100
AcDbSymbolTableRecord
100
AcDbLayerTableRecord
  2
0
 70
     0
 62
     7
  6
Continuous
370
    -3
390
F
  0
ENDTAB
  0
TABLE
  2
STYLE
  5
3
330
0
100
AcDbSymbolTable
 70
     2
  0
STYLE
  5
11
330
3
100
AcDbSymbolTableRecord
100
AcDbTextStyleTableRecord
  2
Standard
 70
     0
 40
0.0
 41
1.0
 50
0.0
 71
     0
 42
3.5
  3
txt
  4

  0
STYLE
  5
9F
330
3
100
AcDbSymbolTableRecord
100
AcDbTextStyleTableRecord
  2
SLDTEXTSTYLE0
 70
     0
 40
0.0
 41
0.7
 50
0.0
 71
     0
 42
3.5
  3
TXT
  4
bigfont
  0
ENDTAB
  0
TABLE
  2
VIEW
  5
6
330
0
100
AcDbSymbolTable
 70
     0
  0
ENDTAB
  0
TABLE
  2
UCS
  5
7
330
0
100
AcDbSymbolTable
 70
     0
  0
ENDTAB
  0
TABLE
  2
APPID
  5
9
330
0
100
AcDbSymbolTable
 70
     1
  0
APPID
  5
12
330
9
100
AcDbSymbolTableRecord
100
AcDbRegAppTableRecord
  2
ACAD
 70
     0
  0
ENDTAB
  0
TABLE
  2
DIMSTYLE
  5
A
330
0
100
AcDbSymbolTable
 70
     1
100
AcDbDimStyleTable
  0
DIMSTYLE
105
27
330
A
100
AcDbSymbolTableRecord
100
AcDbDimStyleTableRecord
  2
ISO-25
 70
     0
 41
2.5
 42
0.625
 43
3.75
 44
1.25
 73
     0
 74
     0
 77
     1
 78
     8
140
2.5
141
2.5
143
0.0393700787
147
0.625
171
     3
172
     1
178
     0
271
     2
272
     2
274
     3
278
    44
283
     0
284
     8
340
11
  0
ENDTAB
  0
TABLE
  2
BLOCK_RECORD
  5
1
330
0
100
AcDbSymbolTable
 70
     1
  0
BLOCK_RECORD
  5
1F
330
1
100
AcDbSymbolTableRecord
100
AcDbBlockTableRecord
  2
*Model_Space
340
22
  0
BLOCK_RECORD
  5
1B
330
1
100
AcDbSymbolTableRecord
100
AcDbBlockTableRecord
  2
*Paper_Space
340
1E
  0
BLOCK_RECORD
  5
23
330
1
100
AcDbSymbolTableRecord
100
AcDbBlockTableRecord
  2
*Paper_Space0
340
26
  0
ENDTAB
  0
ENDSEC
  0
SECTION
  2
BLOCKS
  0
BLOCK
  5
20
330
1F
100
AcDbEntity
  8
0
100
AcDbBlockBegin
  2
*Model_Space
 70
     0
 10
0.0
 20
0.0
 30
0.0
  3
*Model_Space
  1

  0
ENDBLK
  5
21
330
1F
100
AcDbEntity
  8
0
100
AcDbBlockEnd
  0
BLOCK
  5
1C
330
1B
100
AcDbEntity
 67
     1
  8
0
100
AcDbBlockBegin
  2
*Paper_Space
 70
     0
 10
0.0
 20
0.0
 30
0.0
  3
*Paper_Space
  1

  0
ENDBLK
  5
1D
330
1B
100
AcDbEntity
 67
     1
  8
0
100
AcDbBlockEnd
  0
BLOCK
  5
24
330
23
100
AcDbEntity
  8
0
100
AcDbBlockBegin
  2
*Paper_Space0
 70
     0
 10
0.0
 20
0.0
 30
0.0
  3
*Paper_Space0
  1

  0
ENDBLK
  5
25
330
23
100
AcDbEntity
  8
0
100
AcDbBlockEnd
  0
ENDSEC
  0
SECTION
  2
ENTITIES
  0
SPLINE
  5
73
330
1F
100
AcDbEntity
  8
0
  6
Continuous
 62
     7
370
    25
100
AcDbSpline
210
0.0
220
0.0
230
1.0
 70
     8
 71
     3
 72
    53
 73
    49
 74
     0
 42
0.000000001
 43
0.00000001
 40
0.0
 40
0.0
 40
0.0
 40
0.0
 40
0.0115773804953334
 40
0.0231233306865654
 40
0.0346397547619954
 40
0.0461285715911523
 40
0.0575917139074975
 40
0.0690311274579233
 40
0.0804487701206022
 40
0.0918466109928742
 40
0.1032266294510615
 40
0.1145908141842407
 40
0.1259411622041466
 40
0.1372796778335495
 40
0.1486083716755377
 40
0.159929259566283
 40
0.1712443615139554
 40
0.1825557006265314
 40
0.1938653020313192
 40
0.2051751917890824
 40
0.2164873958056452
 40
0.2278039387439294
 40
0.2391268429393094
 40
0.2504581273212106
 40
0.3145023198353418
 40
0.3771014950654829
 40
0.4386746287913784
 40
0.4996618468521043
 40
0.5645940621248916
 40
0.6274267315397468
 40
0.688838842713766
 40
0.7495570585916436
 40
0.7658729854289222
 40
0.7820230606819426
 40
0.7980227676375677
 40
0.8138880298327646
 40
0.8296351786619226
 40
0.8452809153924743
 40
0.8608422678177843
 40
0.8763365419420037
 40
0.8917812692570799
 40
0.9071941503280052
 40
0.9225929955394071
 40
0.9379956639657475
 40
0.9534200014013615
 40
0.9688837786201525
 40
0.9844046309255496
 40
1.0
 40
1.0
 40
1.0
 40
1.0
 10
481.9999999999994
 20
-25.32548584678947
 30
0.0
 10
482.2736067767282
 20
-25.32448144682785
 30
0.0
 10
482.8200775417629
 20
-25.32247537365238
 30
0.0
 10
483.6385810069746
 20
-25.30619512462075
 30
0.0
 10
484.4547227932567
 20
-25.28019007943698
 30
0.0
 10
485.2685028706551
 20
-25.2435148807683
 30
0.0
 10
486.0799211665909
 20
-25.19642184130572
 30
0.0
 10
486.8889776169503
 20
-25.13884355190322
 30
0.0
 10
487.6956721526767
 20
-25.07079798004329
 30
0.0
 10
488.5000047035979
 20
-24.99228029454238
 30
0.0
 10
489.3019751976761
 20
-24.90329175947342
 30
0.0
 10
490.1015835614849
 20
-24.80383201481373
 30
0.0
 10
490.8988297204133
 20
-24.69390113947236
 30
0.0
 10
491.6937135988149
 20
-24.57349909998924
 30
0.0
 10
492.4862351207058
 20
-24.4426258979399
 30
0.0
 10
493.2763942083875
 20
-24.30128153096508
 30
0.0
 10
494.0641907888399
 20
-24.14946600184574
 30
0.0
 10
494.8496247711742
 20
-23.98717932131872
 30
0.0
 10
495.6326961320382
 20
-23.81442148783811
 30
0.0
 10
496.4134045982325
 20
-23.6311925656468
 30
0.0
 10
497.1917508326285
 20
-23.43749239250927
 30
0.0
 10
497.9677320078787
 20
-23.23332167078977
 30
0.0
 10
498.7413583374289
 20
-23.01867789245308
 30
0.0
 10
500.7082047888848
 20
-22.44459513988344
 30
0.0
 10
503.7984460249788
 20
-21.39223636174628
 30
0.0
 10
507.8848690488974
 20
-19.62328437736783
 30
0.0
 10
511.7462220997435
 20
-17.55332772467079
 30
0.0
 10
515.4618193226029
 20
-15.12958618494437
 30
0.0
 10
518.9708139369051
 20
-12.3641224797566
 30
0.0
 10
522.1907434802621
 20
-9.250740032932747
 30
0.0
 10
524.995522129077
 20
-5.887096053826396
 30
0.0
 10
526.8035001717574
 20
-3.150896663155212
 30
0.0
 10
527.8841950203785
 20
-1.231903751245295
 30
0.0
 10
528.4155340863788
 20
-0.2169971504388107
 30
0.0
 10
528.9102065765873
 20
0.8044313280598375
 30
0.0
 10
529.3682513204477
 20
1.832398219487261
 30
0.0
 10
529.7896535346066
 20
2.866897261149068
 30
0.0
 10
530.1744127321211
 20
3.907927576518339
 30
0.0
 10
530.5225250040521
 20
4.955486231118425
 30
0.0
 10
530.8339873348968
 20
6.009570236999523
 30
0.0
 10
531.1087983766428
 20
7.070176077265053
 30
0.0
 10
531.3469516023285
 20
8.137299909157528
 30
0.0
 10
531.5484622801876
 20
9.21093761193248
 30
0.0
 10
531.7132668557011
 20
10.29108487049375
 30
0.0
 10
531.841599032733
 20
11.37773733861001
 30
0.0
 10
531.9325827213828
 20
12.47089049106379
 30
0.0
 10
531.9895056067872
 20
13.57054066023158
 30
0.0
 10
531.9964962885273
 20
14.30593595015701
 30
0.0
 10
531.9999999999995
 20
14.67451415321054
 30
0.0
  0
SPLINE
  5
74
330
1F
100
AcDbEntity
  8
0
  6
Continuous
 62
     7
370
    25
100
AcDbSpline
210
0.0
220
0.0
230
1.0
 70
     8
 71
     3
 72
    58
 73
    54
 74
     0
 42
0.000000001
 43
0.00000001
 40
0.0
 40
0.0
 40
0.0
 40
0.0
 40
0.0080476706940594
 40
0.0160734191219467
 40
0.0240796105660963
 40
0.0320686276794799
 40
0.0400428685098302
 40
0.0480047444563544
 40
0.0559566781671053
 40
0.0639011013857815
 40
0.0718404527572495
 40
0.0797771756015187
 40
0.0877137156662311
 40
0.0956525188679579
 40
0.1035960290327175
 40
0.1115466856461334
 40
0.1195069216235523
 40
0.1274791611102247
 40
0.1354658173213339
 40
0.1434692904312385
 40
0.1514919655207835
 40
0.1595362105909422
 40
0.1676043746503836
 40
0.1756987858838385
 40
0.1838217499073598
 40
0.1919755481157709
 40
0.2001624361267602
 40
0.2083846423252447
 40
0.2166443665107874
 40
0.22494377865003
 40
0.2332850177353037
 40
0.2416701907498167
 40
0.2501013717390886
 40
0.3108914987682601
 40
0.3723841200492156
 40
0.4353094928321222
 40
0.5003496323447113
 40
0.5614698045426565
 40
0.623185165230266
 40
0.6859389739863241
 40
0.7501529892421618
 40
0.7708678501030053
 40
0.7915608114135531
 40
0.812244250522594
 40
0.8329305618713297
 40
0.8536321347419623
 40
0.8743613310525106
 40
0.8951304633961169
 40
0.9159517735180348
 40
0.9368374114144884
 40
0.95779941522501
 40
0.9788496920741332
 40
1.0
 40
1.0
 40
1.0
 40
1.0
 10
-40.00000000000006
 20
14.6745141532105
 30
0.0
 10
-39.99906678969226
 20
14.48432304739059
 30
0.0
 10
-39.99720291118927
 20
14.10445892604094
 30
0.0
 10
-39.9820745789973
 20
13.53554982168094
 30
0.0
 10
-39.95790894750331
 20
12.96836066840565
 30
0.0
 10
-39.92382756811633
 20
12.4028915701684
 30
0.0
 10
-39.8800649359036
 20
11.83914268788103
 30
0.0
 10
-39.82655836578328
 20
11.27711417229924
 30
0.0
 10
-39.76332457810913
 20
10.71680618084526
 30
0.0
 10
-39.69035908426336
 20
10.15821887195449
 30
0.0
 10
-39.60766308077543
 20
9.601352405383428
 30
0.0
 10
-39.51523625752021
 20
9.046206940894766
 30
0.0
 10
-39.41307872182217
 20
8.492782637362668
 30
0.0
 10
-39.30119048333072
 20
7.941079651768004
 30
0.0
 10
-39.17957159171762
 20
7.391098138241348
 30
0.0
 10
-39.04822209941386
 20
6.842838247127295
 30
0.0
 10
-38.9071420711036
 20
6.296300124092408
 30
0.0
 10
-38.75633158056976
 20
5.751483909284982
 30
0.0
 10
-38.59579071082788
 20
5.208389736557531
 30
0.0
 10
-38.42551955328097
 20
4.667017732759071
 30
0.0
 10
-38.24551820706743
 20
4.127368017110874
 30
0.0
 10
-38.05578677824276
 20
3.589440700647206
 30
0.0
 10
-37.85632537912589
 20
3.053235885816671
 30
0.0
 10
-37.64713412690782
 20
2.518753665903275
 30
0.0
 10
-37.42821314488451
 20
1.985994125557083
 30
0.0
 10
-37.19956255377657
 20
1.454957337597929
 30
0.0
 10
-36.96118250023453
 20
0.9256433742398096
 30
0.0
 10
-36.71307304575031
 20
0.3980522645893048
 30
0.0
 10
-36.45523457999869
 20
-0.1278158456414213
 30
0.0
 10
-36.18766626366113
 20
-0.6519612938970382
 30
0.0
 10
-35.91037187865167
 20
-1.174382645291669
 30
0.0
 10
-35.62333782410479
 20
-1.695085173538308
 30
0.0
 10
-34.71299925090368
 20
-3.287258497902165
 30
0.0
 10
-33.0074055357458
 20
-5.871804420361393
 30
0.0
 10
-30.20023566751725
 20
-9.240985567831276
 30
0.0
 10
-26.97611661098468
 20
-12.35968527193586
 30
0.0
 10
-23.46115274883595
 20
-15.13036675656314
 30
0.0
 10
-19.73775707670136
 20
-17.55882204515245
 30
0.0
 10
-15.86677921579097
 20
-19.6324132418622
 30
0.0
 10
-11.76929117975553
 20
-21.40375567810766
 30
0.0
 10
-8.460975295755096
 20
-22.52803254934208
 30
0.0
 10
-6.060398912601045
 20
-23.21256456816721
 30
0.0
 10
-4.639684067912181
 20
-23.58037256410997
 30
0.0
 10
-3.211072578970686
 20
-23.91314025787951
 30
0.0
 10
-1.774535924449538
 20
-24.21086981211411
 30
0.0
 10
-0.3300837146156255
 20
-24.47356136148223
 30
0.0
 10
1.122284635885346
 20
-24.70121077963425
 30
0.0
 10
2.582566985491169
 20
-24.89383397823151
 30
0.0
 10
4.050761944765391
 20
-25.05137165951167
 30
0.0
 10
5.526868002329211
 20
-25.17404733092878
 30
0.0
 10
7.010883640349546
 20
-25.26102435731174
 30
0.0
 10
8.502807848752042
 20
-25.31544650802901
 30
0.0
 10
9.500147927313101
 20
-25.32213411649646
 30
0.0
 10
9.999999999999954
 20
-25.32548584678949
 30
0.0
  0
SPLINE
  5
75
330
1F
100
AcDbEntity
  8
0
  6
Continuous
 62
     7
370
    25
100
AcDbSpline
210
0.0
220
0.0
230
1.0
 70
     8
 71
     3
 72
    53
 73
    49
 74
     0
 42
0.000000001
 43
0.00000001
 40
0.0
 40
0.0
 40
0.0
 40
0.0
 40
0.0115773804951962
 40
0.023123330686304
 40
0.0346397547616229
 40
0.0461285715906826
 40
0.0575917139069426
 40
0.0690311274572973
 40
0.0804487701199179
 40
0.0918466109921449
 40
0.1032266294503008
 40
0.1145908141834608
 40
0.1259411622033611
 40
0.1372796778327714
 40
0.1486083716747797
 40
0.1599292595655588
 40
0.1712443615132775
 40
0.1825557006259116
 40
0.193865302030771
 40
0.2051751917886174
 40
0.2164873958052774
 40
0.2278039387436701
 40
0.2391268429391709
 40
0.2504581273212056
 40
0.3145023198383357
 40
0.3771014950694683
 40
0.4386746287943996
 40
0.4996618468522994
 40
0.5645940621279298
 40
0.627426731543768
 40
0.6888388427167896
 40
0.749557058591627
 40
0.765872985428908
 40
0.782023060681931
 40
0.7980227676375582
 40
0.8138880298327572
 40
0.829635178661916
 40
0.8452809153924704
 40
0.8608422678177813
 40
0.8763365419420022
 40
0.8917812692570791
 40
0.9071941503280044
 40
0.9225929955394074
 40
0.937995663965748
 40
0.9534200014013617
 40
0.9688837786201533
 40
0.9844046309255502
 40
0.9999999999999999
 40
0.9999999999999999
 40
0.9999999999999999
 40
0.9999999999999999
 10
9.999999999999954
 20
204.6745141532105
 30
0.0
 10
9.726393223274538
 20
204.6735097532489
 30
0.0
 10
9.17992245824606
 20
204.6715036800734
 30
0.0
 10
8.36141899304299
 20
204.6552234310418
 30
0.0
 10
7.545277206768953
 20
204.629218385858
 30
0.0
 10
6.731497129377456
 20
204.5925431871892
 30
0.0
 10
5.92007883344789
 20
204.5454501477268
 30
0.0
 10
5.111022383093411
 20
204.4878718583243
 30
0.0
 10
4.304327847371364
 20
204.4198262864643
 30
0.0
 10
3.499995296453312
 20
204.3413086009634
 30
0.0
 10
2.698024802377436
 20
204.2523200658944
 30
0.0
 10
1.89841643857
 20
204.1528603212347
 30
0.0
 10
1.101170279642322
 20
204.0429294458933
 30
0.0
 10
0.3062864012400024
 20
203.9225274064102
 30
0.0
 10
-0.4862351206521009
 20
203.7916542043609
 30
0.0
 10
-1.276394208336251
 20
203.6503098373859
 30
0.0
 10
-2.064190788792081
 20
203.4984943082667
 30
0.0
 10
-2.849624771130432
 20
203.3362076277398
 30
0.0
 10
-3.632696131999624
 20
203.163449794259
 30
0.0
 10
-4.413404598199805
 20
202.9802208720678
 30
0.0
 10
-5.191750832602954
 20
202.7865206989301
 30
0.0
 10
-5.967732007860854
 20
202.5823499772107
 30
0.0
 10
-6.741358337419983
 20
202.3677061988739
 30
0.0
 10
-8.708204788951429
 20
201.7936234462894
 30
0.0
 10
-11.7984460251436
 20
200.7412646681384
 30
0.0
 10
-15.88486904913469
 20
198.9723126837474
 30
0.0
 10
-19.74622209992069
 20
196.9023560310751
 30
0.0
 10
-23.46181932271321
 20
194.4786144912852
 30
0.0
 10
-26.97081393697473
 20
191.7131507860105
 30
0.0
 10
-30.19074348037257
 20
188.5997683391365
 30
0.0
 10
-32.9955221291556
 20
185.2361243600985
 30
0.0
 10
-34.80350017179482
 20
182.4999249695142
 30
0.0
 10
-35.88419502037895
 20
180.5809320576662
 30
0.0
 10
-36.41553408637935
 20
179.5660254568596
 30
0.0
 10
-36.91020657658825
 20
178.5445969783609
 30
0.0
 10
-37.36825132044827
 20
177.5166300869335
 30
0.0
 10
-37.78965353460725
 20
176.4821310452715
 30
0.0
 10
-38.17441273212194
 20
175.4411007299024
 30
0.0
 10
-38.52252500405282
 20
174.3935420753022
 30
0.0
 10
-38.83398733489771
 20
173.3394580694211
 30
0.0
 10
-39.10879837664341
 20
172.2788522291555
 30
0.0
 10
-39.34695160232918
 20
171.211728397263
 30
0.0
 10
-39.54846228018818
 20
170.1380906944882
 30
0.0
 10
-39.71326685570168
 20
169.0579434359269
 30
0.0
 10
-39.84159903273357
 20
167.9712909678108
 30
0.0
 10
-39.93258272138348
 20
166.878137815357
 30
0.0
 10
-39.98950560678763
 20
165.7784876461894
 30
0.0
 10
-39.99649628852783
 20
165.043092356264
 30
0.0
 10
-40.00000000000006
 20
164.6745141532105
 30
0.0
  0
SPLINE
  5
76
330
1F
100
AcDbEntity
  8
0
  6
Continuous
 62
     7
370
    25
100
AcDbSpline
210
0.0
220
0.0
230
1.0
 70
     8
 71
     3
 72
    58
 73
    54
 74
     0
 42
0.000000001
 43
0.00000001
 40
0.0
 40
0.0
 40
0.0
 40
0.0
 40
0.0080476706942048
 40
0.0160734191222279
 40
0.0240796105665029
 40
0.0320686276800031
 40
0.0400428685104603
 40
0.0480047444570812
 40
0.0559566781679193
 40
0.0639011013866735
 40
0.0718404527582093
 40
0.0797771756025364
 40
0.0877137156672975
 40
0.0956525188690635
 40
0.1035960290338526
 40
0.1115466856472884
 40
0.1195069216247181
 40
0.1274791611113928
 40
0.1354658173224945
 40
0.1434692904323824
 40
0.1514919655219015
 40
0.1595362105920259
 40
0.167604374651424
 40
0.1756987858848271
 40
0.1838217499082883
 40
0.19197554811663
 40
0.2001624361275425
 40
0.2083846423259419
 40
0.2166443665113923
 40
0.2249437786505332
 40
0.2332850177356996
 40
0.241670190750096
 40
0.2501013717392453
 40
0.310891498759279
 40
0.3723841200372499
 40
0.4353094928230809
 40
0.500349632344086
 40
0.5614698045300774
 40
0.6231851652136321
 40
0.6859389739738199
 40
0.7501529892420791
 40
0.7708678501025986
 40
0.7915608114128786
 40
0.8122442505217116
 40
0.8329305618703001
 40
0.853632134740844
 40
0.874361331051367
 40
0.8951304633950078
 40
0.9159517735170228
 40
0.9368374114136354
 40
0.9577994152243802
 40
0.9788496920737874
 40
1.0
 40
1.0
 40
1.0
 40
1.0
 10
531.9999999999993
 20
164.6745141532105
 30
0.0
 10
531.9990667896916
 20
164.8647052590339
 30
0.0
 10
531.9972029111884
 20
165.24456938039
 30
0.0
 10
531.9820745789968
 20
165.8134784847596
 30
0.0
 10
531.9579089475028
 20
166.3806676380437
 30
0.0
 10
531.9238275681155
 20
166.946136736289
 30
0.0
 10
531.8800649359031
 20
167.509885618584
 30
0.0
 10
531.8265583657825
 20
168.0719141341724
 30
0.0
 10
531.7633245781085
 20
168.6322221256326
 30
0.0
 10
531.6903590842627
 20
169.1908094345288
 30
0.0
 10
531.6076630807745
 20
169.7476759011045
 30
0.0
 10
531.5152362575201
 20
170.3028213655975
 30
0.0
 10
531.4130787218213
 20
170.8562456691328
 30
0.0
 10
531.3011904833303
 20
171.4079486547302
 30
0.0
 10
531.1795715917169
 20
171.9579301682589
 30
0.0
 10
531.0482220994132
 20
172.5061900593743
 30
0.0
 10
530.9071420711031
 20
173.0527281824099
 30
0.0
 10
530.7563315805692
 20
173.5975443972173
 30
0.0
 10
530.5957907108273
 20
174.1406385699441
 30
0.0
 10
530.4255195532803
 20
174.6820105737412
 30
0.0
 10
530.245518207067
 20
175.2216602893874
 30
0.0
 10
530.055786778242
 20
175.7595876058483
 30
0.0
 10
529.8563253791253
 20
176.2957924206755
 30
0.0
 10
529.6471341269073
 20
176.8302746405848
 30
0.0
 10
529.4282131448838
 20
177.3630341809261
 30
0.0
 10
529.199562553776
 20
177.89407096888
 30
0.0
 10
528.9611825002339
 20
178.4233849322319
 30
0.0
 10
528.7130730457496
 20
178.9509760418757
 30
0.0
 10
528.455234579998
 20
179.4768441520989
 30
0.0
 10
528.1876662636607
 20
180.0009896003465
 30
0.0
 10
527.910371878651
 20
180.5234109517321
 30
0.0
 10
527.6233378241042
 20
181.0441134799694
 30
0.0
 10
526.7129992510007
 20
182.6362868041335
 30
0.0
 10
525.0074055359506
 20
185.220832726316
 30
0.0
 10
522.2002356678128
 20
188.5900138735751
 30
0.0
 10
518.9761166111655
 20
191.7087135778324
 30
0.0
 10
515.4611527492301
 20
194.4793950626976
 30
0.0
 10
511.7377570773991
 20
196.9078503514314
 30
0.0
 10
507.8667792167362
 20
198.9814415480187
 30
0.0
 10
503.7692911804106
 20
200.7527839843343
 30
0.0
 10
500.4609752960411
 20
201.8770608556712
 30
0.0
 10
498.0603989126237
 20
202.5615928745895
 30
0.0
 10
496.6396840679542
 20
202.9294008705313
 30
0.0
 10
495.2110725790282
 20
203.2621685643011
 30
0.0
 10
493.7745359245182
 20
203.5598981185356
 30
0.0
 10
492.3300837146905
 20
203.8225896679035
 30
0.0
 10
490.8777153641918
 20
204.0502390860556
 30
0.0
 10
489.4174330145837
 20
204.2428622846527
 30
0.0
 10
487.9492380553031
 20
204.4003999659329
 30
0.0
 10
486.473131997728
 20
204.52307563735
 30
0.0
 10
484.9891163596924
 20
204.6100526637329
 30
0.0
 10
483.4971921512699
 20
204.6644748144501
 30
0.0
 10
482.4998520726941
 20
204.6711624229175
 30
0.0
 10
481.9999999999993
 20
204.6745141532105
 30
0.0
  0
LINE
  5
8B
330
1F
100
AcDbEntity
  8
0
  6
Continuous
 62
     7
370
    25
100
AcDbLine
 10
116.0
 20
69.6745141532
 30
0.0
 11
116.0
 21
72.6745141532
 31
0.0
  0
LINE
  5
8C
330
1F
100
AcDbEntity
  8
0
  6
Continuous
 62
     7
370
    25
100
AcDbLine
 10
116.0
 20
72.6745141532
 30
0.0
 11
6.0
 21
72.6745141532
 31
0.0
  0
LINE
  5
8D
330
1F
100
AcDbEntity
  8
0
  6
Continuous
 62
     7
370
    25
100
AcDbLine
 10
6.0
 20
72.6745141532
 30
0.0
 11
6.0
 21
174.6745141532
 31
0.0
  0
LINE
  5
8E
330
1F
100
AcDbEntity
  8
0
  6
Continuous
 62
     7
370
    25
100
AcDbLine
 10
6.0
 20
174.6745141532
 30
0.0
 11
0.0
 21
174.6745141532
 31
0.0
  0
LINE
  5
8F
330
1F
100
AcDbEntity
  8
0
  6
Continuous
 62
     7
370
    25
100
AcDbLine
 10
0.0
 20
174.6745141532
 30
0.0
 11
0.0
 21
54.6745141532
 31
0.0
  0
LINE
  5
90
330
1F
100
AcDbEntity
  8
0
  6
Continuous
 62
     7
370
    25
100
AcDbLine
 10
0.0
 20
54.6745141532
 30
0.0
 11
6.0
 21
54.6745141532
 31
0.0
  0
LINE
  5
91
330
1F
100
AcDbEntity
  8
0
  6
Continuous
 62
     7
370
    25
100
AcDbLine
 10
6.0
 20
54.6745141532
 30
0.0
 11
6.0
 21
69.6745141532
 31
0.0
  0
LINE
  5
92
330
1F
100
AcDbEntity
  8
0
  6
Continuous
 62
     7
370
    25
100
AcDbLine
 10
6.0
 20
69.6745141532
 30
0.0
 11
116.0
 21
69.6745141532
 31
0.0
  0
LINE
  5
93
330
1F
100
AcDbEntity
  8
0
  6
Continuous
 62
     7
370
    25
100
AcDbLine
 10
492.0
 20
54.6745141532
 30
0.0
 11
492.0
 21
174.6745141532
 31
0.0
  0
LINE
  5
94
330
1F
100
AcDbEntity
  8
0
  6
Continuous
 62
     7
370
    25
100
AcDbLine
 10
492.0
 20
174.6745141532
 30
0.0
 11
486.0
 21
174.6745141532
 31
0.0
  0
LINE
  5
95
330
1F
100
AcDbEntity
  8
0
  6
Continuous
 62
     7
370
    25
100
AcDbLine
 10
486.0
 20
174.6745141532
 30
0.0
 11
486.0
 21
72.6745141532
 31
0.0
  0
LINE
  5
96
330
1F
100
AcDbEntity
  8
0
  6
Continuous
 62
     7
370
    25
100
AcDbLine
 10
486.0
 20
72.6745141532
 30
0.0
 11
376.0904726961
 21
72.6745141532
 31
0.0
  0
LINE
  5
97
330
1F
100
AcDbEntity
  8
0
  6
Continuous
 62
     7
370
    25
100
AcDbLine
 10
376.0904726961
 20
72.6745141532
 30
0.0
 11
376.0904726961
 21
69.6745141532
 31
0.0
  0
LINE
  5
98
330
1F
100
AcDbEntity
  8
0
  6
Continuous
 62
     7
370
    25
100
AcDbLine
 10
376.0904726961
 20
69.6745141532
 30
0.0
 11
486.0
 21
69.6745141532
 31
0.0
  0
LINE
  5
99
330
1F
100
AcDbEntity
  8
0
  6
Continuous
 62
     7
370
    25
100
AcDbLine
 10
486.0
 20
69.6745141532
 30
0.0
 11
486.0
 21
54.6745141532
 31
0.0
  0
LINE
  5
9A
330
1F
100
AcDbEntity
  8
0
  6
Continuous
 62
     7
370
    25
100
AcDbLine
 10
486.0
 20
54.6745141532
 30
0.0
 11
492.0
 21
54.6745141532
 31
0.0
  0
LINE
  5
9B
330
1F
100
AcDbEntity
  8
0
  6
Continuous
 62
     7
370
    25
100
AcDbLine
 10
532.0
 20
14.6745141532
 30
0.0
 11
532.0
 21
164.6745141532
 31
0.0
  0
LINE
  5
9C
330
1F
100
AcDbEntity
  8
0
  6
Continuous
 62
     7
370
    25
100
AcDbLine
 10
482.0
 20
204.6745141532
 30
0.0
 11
10.0
 21
204.6745141532
 31
0.0
  0
LINE
  5
9D
330
1F
100
AcDbEntity
  8
0
  6
Continuous
 62
     7
370
    25
100
AcDbLine
 10
-40.0
 20
164.6745141532
 30
0.0
 11
-40.0
 21
14.6745141532
 31
0.0
  0
LINE
  5
9E
330
1F
100
AcDbEntity
  8
0
  6
Continuous
 62
     7
370
    25
100
AcDbLine
 10
10.0
 20
-25.3254858468
 30
0.0
 11
482.0
 21
-25.3254858468
 31
0.0
  0
MTEXT
  5
A0
330
1F
100
AcDbEntity
  8
0
  6
Continuous
 62
     7
100
AcDbMText
 10
-40.0
 20
-26.3450522385
 30
0.0
 40
4.83362
 41
0.0
 71
     1
 72
     1
  1
Produit d'éducation SOLIDWORKS – A titre éducatif uniquement.
  7
SLDTEXTSTYLE0
 73
     1
 44
1.0
  0
ENDSEC
  0
SECTION
  2
OBJECTS
  0
DICTIONARY
  5
C
330
0
100
AcDbDictionary
281
     1
  3
ACAD_GROUP
350
D
  3
ACAD_LAYOUT
350
1A
  3
ACAD_MLINESTYLE
350
17
  3
ACAD_PLOTSETTINGS
350
19
  3
ACAD_PLOTSTYLENAME
350
E
  3
ACAD_SCALELIST
350
47
  0
DICTIONARY
  5
D
102
{ACAD_REACTORS
330
C
102
}
330
C
100
AcDbDictionary
281
     1
  0
DICTIONARY
  5
1A
102
{ACAD_REACTORS
330
C
102
}
330
C
100
AcDbDictionary
281
     1
  3
Layout1
350
1E
  3
Layout2
350
26
  3
Model
350
22
  0
DICTIONARY
  5
17
102
{ACAD_REACTORS
330
C
102
}
330
C
100
AcDbDictionary
281
     1
  3
Standard
350
18
  0
DICTIONARY
  5
19
102
{ACAD_REACTORS
330
C
102
}
330
C
100
AcDbDictionary
281
     1
  0
ACDBDICTIONARYWDFLT
  5
E
102
{ACAD_REACTORS
330
C
102
}
330
C
100
AcDbDictionary
281
     1
  3
Normal
350
F
100
AcDbDictionaryWithDefault
340
F
  0
DICTIONARY
  5
47
102
{ACAD_REACTORS
330
C
102
}
330
C
100
AcDbDictionary
281
     1
  3
A0
350
48
  3
A1
350
49
  3
A2
350
4A
  3
A3
350
4B
  3
A4
350
4C
  3
A5
350
4D
  3
A6
350
4E
  3
A7
350
4F
  3
A8
350
50
  3
A9
350
51
  3
B0
350
52
  3
B1
350
53
  3
B2
350
54
  3
B3
350
55
  3
B4
350
56
  3
B5
350
57
  3
B6
350
58
  3
B7
350
59
  3
B8
350
5A
  3
B9
350
5B
  3
C0
350
5C
  3
C1
350
5D
  3
C2
350
5E
  3
C3
350
5F
  3
C4
350
60
  3
C5
350
61
  3
C6
350
62
  3
C7
350
63
  3
C8
350
64
  3
C9
350
65
  3
D0
350
66
  3
D1
350
67
  3
D2
350
68
  0
LAYOUT
  5
1E
102
{ACAD_REACTORS
330
1A
102
}
330
1A
100
AcDbPlotSettings
  1

  2
none_device
  4

  6

 40
0.0
 41
0.0
 42
0.0
 43
0.0
 44
0.0
 45
0.0
 46
0.0
 47
0.0
 48
0.0
 49
0.0
140
0.0
141
0.0
142
1.0
143
1.0
 70
   688
 72
     1
 73
     0
 74
     5
  7

 75
    16
147
1.0
148
0.0
149
0.0
100
AcDbLayout
  1
Layout1
 70
     1
 71
     1
 10
0.0
 20
0.0
 11
420.0
 21
297.0
 12
0.0
 22
0.0
 32
0.0
 14
1.0000000000E+20
 24
1.0000000000E+20
 34
1.0000000000E+20
 15
-1.0000000000E+20
 25
-1.0000000000E+20
 35
-1.0000000000E+20
146
0.0
 13
0.0
 23
0.0
 33
0.0
 16
1.0
 26
0.0
 36
0.0
 17
0.0
 27
1.0
 37
0.0
 76
     0
330
1B
  0
LAYOUT
  5
26
102
{ACAD_REACTORS
330
1A
102
}
330
1A
100
AcDbPlotSettings
  1

  2
none_device
  4

  6

 40
0.0
 41
0.0
 42
0.0
 43
0.0
 44
0.0
 45
0.0
 46
0.0
 47
0.0
 48
0.0
 49
0.0
140
0.0
141
0.0
142
1.0
143
1.0
 70
   688
 72
     1
 73
     0
 74
     5
  7

 75
    16
147
1.0
148
0.0
149
0.0
100
AcDbLayout
  1
Layout2
 70
     1
 71
     2
 10
0.0
 20
0.0
 11
0.0
 21
0.0
 12
0.0
 22
0.0
 32
0.0
 14
0.0
 24
0.0
 34
0.0
 15
0.0
 25
0.0
 35
0.0
146
0.0
 13
0.0
 23
0.0
 33
0.0
 16
1.0
 26
0.0
 36
0.0
 17
0.0
 27
1.0
 37
0.0
 76
     0
330
23
  0
LAYOUT
  5
22
102
{ACAD_REACTORS
330
1A
102
}
330
1A
100
AcDbPlotSettings
  1

  2
none_device
  4
ANSI_A_(11.00_x_8.50_Inches)
  6

 40
6.35
 41
19.05
 42
6.35000508
 43
19.05000254
 44
279.4
 45
215.9
 46
14.3900743831
 47
45.5354730974
 48
0.0
 49
0.0
140
0.0
141
0.0
142
0.0190384615
143
1.0
 70
  1696
 72
     0
 73
     0
 74
     0
  7

 75
     0
147
0.0179189148
148
-1300.4909072572
149
0.0
100
AcDbLayout
  1
Model
 70
     1
 71
     0
 10
0.0
 20
0.0
 11
420.0
 21
297.0
 12
0.0
 22
0.0
 32
0.0
 14
-40.0
 24
-25.3254858468
 34
0.0
 15
532.0
 25
204.6745141532
 35
0.0
146
0.0
 13
0.0
 23
0.0
 33
0.0
 16
1.0
 26
0.0
 36
0.0
 17
0.0
 27
1.0
 37
0.0
 76
     0
330
1F
331
29
  0
MLINESTYLE
  5
18
102
{ACAD_REACTORS
330
17
102
}
330
17
100
AcDbMlineStyle
  2
Standard
 70
     0
  3

 62
   256
 51
90.0
 52
90.0
 71
     2
 49
0.5
 62
   256
  6
BYLAYER
 49
-0.5
 62
   256
  6
BYLAYER
  0
ACDBPLACEHOLDER
  5
F
102
{ACAD_REACTORS
330
E
102
}
330
E
  0
SCALE
  5
48
102
{ACAD_REACTORS
330
47
102
}
330
47
100
AcDbScale
 70
     0
300
1:1
140
1.0
141
1.0
290
     1
  0
SCALE
  5
49
102
{ACAD_REACTORS
330
47
102
}
330
47
100
AcDbScale
 70
     0
300
1:2
140
1.0
141
2.0
290
     0
  0
SCALE
  5
4A
102
{ACAD_REACTORS
330
47
102
}
330
47
100
AcDbScale
 70
     0
300
1:4
140
1.0
141
4.0
290
     0
  0
SCALE
  5
4B
102
{ACAD_REACTORS
330
47
102
}
330
47
100
AcDbScale
 70
     0
300
1:5
140
1.0
141
5.0
290
     0
  0
SCALE
  5
4C
102
{ACAD_REACTORS
330
47
102
}
330
47
100
AcDbScale
 70
     0
300
1:8
140
1.0
141
8.0
290
     0
  0
SCALE
  5
4D
102
{ACAD_REACTORS
330
47
102
}
330
47
100
AcDbScale
 70
     0
300
1:10
140
1.0
141
10.0
290
     0
  0
SCALE
  5
4E
102
{ACAD_REACTORS
330
47
102
}
330
47
100
AcDbScale
 70
     0
300
1:16
140
1.0
141
16.0
290
     0
  0
SCALE
  5
4F
102
{ACAD_REACTORS
330
47
102
}
330
47
100
AcDbScale
 70
     0
300
1:20
140
1.0
141
20.0
290
     0
  0
SCALE
  5
50
102
{ACAD_REACTORS
330
47
102
}
330
47
100
AcDbScale
 70
     0
300
1:30
140
1.0
141
30.0
290
     0
  0
SCALE
  5
51
102
{ACAD_REACTORS
330
47
102
}
330
47
100
AcDbScale
 70
     0
300
1:40
140
1.0
141
40.0
290
     0
  0
SCALE
  5
52
102
{ACAD_REACTORS
330
47
102
}
330
47
100
AcDbScale
 70
     0
300
1:50
140
1.0
141
50.0
290
     0
  0
SCALE
  5
53
102
{ACAD_REACTORS
330
47
102
}
330
47
100
AcDbScale
 70
     0
300
1:100
140
1.0
141
100.0
290
     0
  0
SCALE
  5
54
102
{ACAD_REACTORS
330
47
102
}
330
47
100
AcDbScale
 70
     0
300
2:1
140
2.0
141
1.0
290
     0
  0
SCALE
  5
55
102
{ACAD_REACTORS
330
47
102
}
330
47
100
AcDbScale
 70
     0
300
4:1
140
4.0
141
1.0
290
     0
  0
SCALE
  5
56
102
{ACAD_REACTORS
330
47
102
}
330
47
100
AcDbScale
 70
     0
300
8:1
140
8.0
141
1.0
290
     0
  0
SCALE
  5
57
102
{ACAD_REACTORS
330
47
102
}
330
47
100
AcDbScale
 70
     0
300
10:1
140
10.0
141
1.0
290
     0
  0
SCALE
  5
58
102
{ACAD_REACTORS
330
47
102
}
330
47
100
AcDbScale
 70
     0
300
100:1
140
100.0
141
1.0
290
     0
  0
SCALE
  5
59
102
{ACAD_REACTORS
330
47
102
}
330
47
100
AcDbScale
 70
     0
300
1/128" = 1'-0"
140
0.0078125
141
12.0
290
     0
  0
SCALE
  5
5A
102
{ACAD_REACTORS
330
47
102
}
330
47
100
AcDbScale
 70
     0
300
1/64" = 1'-0"
140
0.015625
141
12.0
290
     0
  0
SCALE
  5
5B
102
{ACAD_REACTORS
330
47
102
}
330
47
100
AcDbScale
 70
     0
300
1/32" = 1'-0"
140
0.03125
141
12.0
290
     0
  0
SCALE
  5
5C
102
{ACAD_REACTORS
330
47
102
}
330
47
100
AcDbScale
 70
     0
300
1/16" = 1'-0"
140
0.0625
141
12.0
290
     0
  0
SCALE
  5
5D
102
{ACAD_REACTORS
330
47
102
}
330
47
100
AcDbScale
 70
     0
300
3/32" = 1'-0"
140
0.09375
141
12.0
290
     0
  0
SCALE
  5
5E
102
{ACAD_REACTORS
330
47
102
}
330
47
100
AcDbScale
 70
     0
300
1/8" = 1'-0"
140
0.125
141
12.0
290
     0
  0
SCALE
  5
5F
102
{ACAD_REACTORS
330
47
102
}
330
47
100
AcDbScale
 70
     0
300
3/16" = 1'-0"
140
0.1875
141
12.0
290
     0
  0
SCALE
  5
60
102
{ACAD_REACTORS
330
47
102
}
330
47
100
AcDbScale
 70
     0
300
1/4" = 1'-0"
140
0.25
141
12.0
290
     0
  0
SCALE
  5
61
102
{ACAD_REACTORS
330
47
102
}
330
47
100
AcDbScale
 70
     0
300
3/8" = 1'-0"
140
0.375
141
12.0
290
     0
  0
SCALE
  5
62
102
{ACAD_REACTORS
330
47
102
}
330
47
100
AcDbScale
 70
     0
300
1/2" = 1'-0"
140
0.5
141
12.0
290
     0
  0
SCALE
  5
63
102
{ACAD_REACTORS
330
47
102
}
330
47
100
AcDbScale
 70
     0
300
3/4" = 1'-0"
140
0.75
141
12.0
290
     0
  0
SCALE
  5
64
102
{ACAD_REACTORS
330
47
102
}
330
47
100
AcDbScale
 70
     0
300
1" = 1'-0"
140
1.0
141
12.0
290
     0
  0
SCALE
  5
65
102
{ACAD_REACTORS
330
47
102
}
330
47
100
AcDbScale
 70
     0
300
1-1/2" = 1'-0"
140
1.5
141
12.0
290
     0
  0
SCALE
  5
66
102
{ACAD_REACTORS
330
47
102
}
330
47
100
AcDbScale
 70
     0
300
3" = 1'-0"
140
3.0
141
12.0
290
     0
  0
SCALE
  5
67
102
{ACAD_REACTORS
330
47
102
}
330
47
100
AcDbScale
 70
     0
300
6" = 1'-0"
140
6.0
141
12.0
290
     0
  0
SCALE
  5
68
102
{ACAD_REACTORS
330
47
102
}
330
47
100
AcDbScale
 70
     0
300
1'-0" = 1'-0"
140
12.0
141
12.0
290
     0
  0
ENDSEC
  0
EOF
