  0
SECTION
  2
HEADER
  9
$ACADVER
  1
AC1014
  9
$HANDSEED
  5
FFFF
  9
$MEASUREMENT
 70
     1
  0
ENDSEC
  0
SECTION
  2
TABLES
  0
TABLE
  2
VPORT
  5
8
330
0
100
AcDbSymbolTable
 70
     4
  0
VPORT
  5
2E
330
8
100
AcDbSymbolTableRecord
100
AcDbViewportTableRecord
  2
*ACTIVE
 70
     0
 10
0.0
 20
0.0
 11
1.0
 21
1.0
 12
210.0
 22
148.5
 13
0.0
 23
0.0
 14
10.0
 24
10.0
 15
10.0
 25
10.0
 16
0.0
 26
0.0
 36
1.0
 17
0.0
 27
0.0
 37
0.0
 40
341.0
 41
1.24
 42
50.0
 43
0.0
 44
0.0
 50
0.0
 51
0.0
 71
     0
 72
   100
 73
     1
 74
     3
 75
     0
 76
     0
 77
     0
 78
     0
  0
ENDTAB
  0
TABLE
  2
LTYPE
  5
5
330
0
100
AcDbSymbolTable
 70
     1
  0
LTYPE
  5
14
330
5
100
AcDbSymbolTableRecord
100
AcDbLinetypeTableRecord
  2
BYBLOCK
 70
     0
  3

 72
    65
 73
     0
 40
0.0
  0
LTYPE
  5
15
330
5
100
AcDbSymbolTableRecord
100
AcDbLinetypeTableRecord
  2
BYLAYER
 70
     0
  3

 72
    65
 73
     0
 40
0.0
  0
LTYPE
  5
16
330
5
100
AcDbSymbolTableRecord
100
AcDbLinetypeTableRecord
  2
CONTINUOUS
 70
     0
  3
Solid line
 72
    65
 73
     0
 40
0.0
  0
ENDTAB
  0
TABLE
  2
LAYER
  5
2
100
AcDbSymbolTable
 70
2
  0
LAYER
  5
50
100
AcDbSymbolTableRecord
100
AcDbLayerTableRecord
  2
0
 70
0
  6
CONTINUOUS
  0
LAYER
  5
51
100
AcDbSymbolTableRecord
100
AcDbLayerTableRecord
  2
Layer_1
 70
0
  6
CONTINUOUS
  0
ENDTAB
  0
TABLE
  2
STYLE
  5
3
330
0
100
AcDbSymbolTable
 70
     1
  0
STYLE
  5
11
330
3
100
AcDbSymbolTableRecord
100
AcDbTextStyleTableRecord
  2
STANDARD
 70
     0
 40
0.0
 41
1.0
 50
0.0
 71
     0
 42
2.5
  3
txt
  4

  0
ENDTAB
  0
TABLE
  2
VIEW
  5
6
330
0
100
AcDbSymbolTable
 70
     0
  0
ENDTAB
  0
TABLE
  2
UCS
  5
7
330
0
100
AcDbSymbolTable
 70
     0
  0
ENDTAB
  0
TABLE
  2
APPID
  5
9
330
0
100
AcDbSymbolTable
 70
     2
  0
APPID
  5
12
330
9
100
AcDbSymbolTableRecord
100
AcDbRegAppTableRecord
  2
ACAD
 70
     0
  0
ENDTAB
  0
TABLE
  2
DIMSTYLE
  5
A
330
0
100
AcDbSymbolTable
 70
     1
  0
DIMSTYLE
105
27
330
A
100
AcDbSymbolTableRecord
100
AcDbDimStyleTableRecord
  2
ISO-25
 70
     0
  3

  4

  5

  6

  7

 40
1.0
 41
2.5
 42
0.625
 43
3.75
 44
1.25
 45
0.0
 46
0.0
 47
0.0
 48
0.0
140
2.5
141
2.5
142
0.0
143
0.03937007874016
144
1.0
145
0.0
146
1.0
147
0.625
 71
     0
 72
     0
 73
     0
 74
     0
 75
     0
 76
     0
 77
     1
 78
     8
170
     0
171
     3
172
     1
173
     0
174
     0
175
     0
176
     0
177
     0
178
     0
270
     2
271
     2
272
     2
273
     2
274
     3
340
11
275
     0
280
     0
281
     0
282
     0
283
     0
284
     8
285
     0
286
     0
287
     3
288
     0
  0
ENDTAB
  0
TABLE
  2
BLOCK_RECORD
  5
1
330
0
100
AcDbSymbolTable
 70
     1
  0
BLOCK_RECORD
  5
1F
330
1
100
AcDbSymbolTableRecord
100
AcDbBlockTableRecord
  2
*MODEL_SPACE
  0
BLOCK_RECORD
  5
1B
330
1
100
AcDbSymbolTableRecord
100
AcDbBlockTableRecord
  2
*PAPER_SPACE
  0
ENDTAB
  0
ENDSEC
  0
SECTION
  2
BLOCKS
  0
BLOCK
  5
20
330
1F
100
AcDbEntity
  8
0
100
AcDbBlockBegin
  2
*MODEL_SPACE
 70
     0
 10
0.0
 20
0.0
 30
0.0
  3
*MODEL_SPACE
  1

  0
ENDBLK
  5
21
330
1F
100
AcDbEntity
  8
0
100
AcDbBlockEnd
  0
BLOCK
  5
1C
330
1B
100
AcDbEntity
 67
     1
  8
0
100
AcDbBlockBegin
  2
*PAPER_SPACE
  1

  0
ENDBLK
  5
1D
330
1B
100
AcDbEntity
 67
     1
  8
0
100
AcDbBlockEnd
  0
ENDSEC
  0
SECTION
  2
ENTITIES
  0
LINE
  5
100
100
AcDbEntity
  8
Layer_1
 62
1
100
AcDbLine
 10
106.927789
 20
267.446789
 30
0.0
 11
110.097425
 21
267.446789
 31
0.0
  0
LINE
  5
101
100
AcDbEntity
  8
Layer_1
 62
1
100
AcDbLine
 10
110.097425
 20
267.446789
 30
0.0
 11
110.097425
 21
247.742081
 31
0.0
  0
LINE
  5
102
100
AcDbEntity
  8
Layer_1
 62
1
100
AcDbLine
 10
110.097425
 20
247.742081
 30
0.0
 11
106.927789
 21
247.742081
 31
0.0
  0
LINE
  5
103
100
AcDbEntity
  8
Layer_1
 62
1
100
AcDbLine
 10
106.927789
 20
247.742081
 30
0.0
 11
106.927789
 21
267.446789
 31
0.0
  0
LINE
  5
104
100
AcDbEntity
  8
Layer_1
 62
1
100
AcDbLine
 10
113.404589
 20
267.446789
 30
0.0
 11
116.574225
 21
267.446789
 31
0.0
  0
LINE
  5
105
100
AcDbEntity
  8
Layer_1
 62
1
100
AcDbLine
 10
116.574225
 20
267.446789
 30
0.0
 11
116.574225
 21
247.742081
 31
0.0
  0
LINE
  5
106
100
AcDbEntity
  8
Layer_1
 62
1
100
AcDbLine
 10
116.574225
 20
247.742081
 30
0.0
 11
113.404589
 21
247.742081
 31
0.0
  0
LINE
  5
107
100
AcDbEntity
  8
Layer_1
 62
1
100
AcDbLine
 10
113.404589
 20
247.742081
 30
0.0
 11
113.404589
 21
267.446789
 31
0.0
  0
LINE
  5
108
100
AcDbEntity
  8
Layer_1
 62
5
100
AcDbLine
 10
141.769909
 20
143.960116
 30
0.0
 11
141.713109
 21
155.920631
 31
0.0
  0
LINE
  5
109
100
AcDbEntity
  8
Layer_1
 62
5
100
AcDbLine
 10
141.713109
 20
155.920631
 30
0.0
 11
141.687809
 21
167.260514
 31
0.0
  0
SPLINE
  5
10a
100
AcDbEntity
  8
Layer_1
 62
5
100
AcDbSpline
 70
8
 71
3
 72
8
 73
4
 74
0
 40
0
 40
0
 40
0
 40
0
 40
1
 40
1
 40
1
 40
1
 10
141.687809
 20
167.260514
 30
0.0
 10
141.671009
 20
174.653105
 30
0.0
 10
140.285399
 20
182.390844
 30
0.0
 10
135.587919
 20
182.390844
 30
0.0
  0
LINE
  5
10b
100
AcDbEntity
  8
Layer_1
 62
5
100
AcDbLine
 10
135.587919
 20
182.390844
 30
0.0
 11
125.385959
 21
182.390844
 31
0.0
  0
LINE
  5
10c
100
AcDbEntity
  8
Layer_1
 62
5
100
AcDbLine
 10
125.385959
 20
182.390844
 30
0.0
 11
125.272789
 21
203.321869
 31
0.0
  0
LINE
  5
10d
100
AcDbEntity
  8
Layer_1
 62
5
100
AcDbLine
 10
125.272789
 20
203.321869
 30
0.0
 11
125.558039
 21
240.367149
 31
0.0
  0
LINE
  5
10e
100
AcDbEntity
  8
Layer_1
 62
5
100
AcDbLine
 10
125.558039
 20
240.367149
 30
0.0
 11
125.407149
 21
270.608199
 31
0.0
  0
SPLINE
  5
10f
100
AcDbEntity
  8
Layer_1
 62
5
100
AcDbSpline
 70
8
 71
3
 72
8
 73
4
 74
0
 40
0
 40
0
 40
0
 40
0
 40
1
 40
1
 40
1
 40
1
 10
125.407149
 20
270.608199
 30
0.0
 10
125.312149
 20
277.587999
 30
0.0
 10
120.102139
 20
283.304049
 30
0.0
 10
113.361889
 20
284.185149
 30
0.0
  0
LINE
  5
110
100
AcDbEntity
  8
Layer_1
 62
5
100
AcDbLine
 10
113.361889
 20
284.185149
 30
0.0
 11
110.234429
 21
284.191149
 31
0.0
  0
LINE
  5
111
100
AcDbEntity
  8
Layer_1
 62
5
100
AcDbLine
 10
110.234429
 20
284.191149
 30
0.0
 11
110.234429
 21
284.191679
 31
0.0
  0
SPLINE
  5
112
100
AcDbEntity
  8
Layer_1
 62
5
100
AcDbSpline
 70
8
 71
3
 72
8
 73
4
 74
0
 40
0
 40
0
 40
0
 40
0
 40
1
 40
1
 40
1
 40
1
 10
110.234429
 20
284.191679
 30
0.0
 10
103.495849
 20
283.364269
 30
0.0
 10
98.231499
 20
277.625039
 30
0.0
 10
98.081169
 20
270.609039
 30
0.0
  0
LINE
  5
113
100
AcDbEntity
  8
Layer_1
 62
5
100
AcDbLine
 10
98.081169
 20
270.609039
 30
0.0
 11
97.986069
 21
240.641879
 31
0.0
  0
LINE
  5
114
100
AcDbEntity
  8
Layer_1
 62
5
100
AcDbLine
 10
97.986069
 20
240.641879
 30
0.0
 11
98.270809
 21
203.596599
 31
0.0
  0
LINE
  5
115
100
AcDbEntity
  8
Layer_1
 62
5
100
AcDbLine
 10
98.270809
 20
203.596599
 30
0.0
 11
98.152469
 21
182.391181
 31
0.0
  0
LINE
  5
116
100
AcDbEntity
  8
Layer_1
 62
5
100
AcDbLine
 10
98.152469
 20
182.391181
 30
0.0
 11
87.793929
 21
182.391181
 31
0.0
  0
SPLINE
  5
117
100
AcDbEntity
  8
Layer_1
 62
5
100
AcDbSpline
 70
8
 71
3
 72
8
 73
4
 74
0
 40
0
 40
0
 40
0
 40
0
 40
1
 40
1
 40
1
 40
1
 10
87.793929
 20
182.391181
 30
0.0
 10
83.167769
 20
182.391181
 30
0.0
 10
81.872609
 20
174.809148
 30
0.0
 10
81.856309
 20
167.535250
 30
0.0
  0
LINE
  5
118
100
AcDbEntity
  8
Layer_1
 62
5
100
AcDbLine
 10
81.856309
 20
167.535250
 30
0.0
 11
81.830509
 21
156.058419
 31
0.0
  0
LINE
  5
119
100
AcDbEntity
  8
Layer_1
 62
5
100
AcDbLine
 10
81.830509
 20
156.058419
 30
0.0
 11
81.528199
 21
144.073614
 31
0.0
  0
SPLINE
  5
11a
100
AcDbEntity
  8
Layer_1
 62
5
100
AcDbSpline
 70
8
 71
3
 72
8
 73
4
 74
0
 40
0
 40
0
 40
0
 40
0
 40
1
 40
1
 40
1
 40
1
 10
81.528199
 20
144.073614
 30
0.0
 10
84.625749
 20
142.623142
 30
0.0
 10
88.140309
 20
141.308269
 30
0.0
 10
91.788039
 20
140.420115
 30
0.0
  0
LINE
  5
11b
100
AcDbEntity
  8
Layer_1
 62
5
100
AcDbLine
 10
91.788039
 20
140.420115
 30
0.0
 11
91.804539
 21
155.988648
 31
0.0
  0
LINE
  5
11c
100
AcDbEntity
  8
Layer_1
 62
5
100
AcDbLine
 10
91.804539
 20
155.988648
 30
0.0
 11
95.204849
 21
155.988648
 31
0.0
  0
LINE
  5
11d
100
AcDbEntity
  8
Layer_1
 62
5
100
AcDbLine
 10
95.204849
 20
155.988648
 30
0.0
 11
95.204849
 21
158.988468
 31
0.0
  0
LINE
  5
11e
100
AcDbEntity
  8
Layer_1
 62
5
100
AcDbLine
 10
95.204849
 20
158.988468
 30
0.0
 11
93.604439
 21
158.988468
 31
0.0
  0
LINE
  5
11f
100
AcDbEntity
  8
Layer_1
 62
5
100
AcDbLine
 10
93.604439
 20
158.988468
 30
0.0
 11
93.604439
 21
161.988816
 31
0.0
  0
LINE
  5
120
100
AcDbEntity
  8
Layer_1
 62
5
100
AcDbLine
 10
93.604439
 20
161.988816
 30
0.0
 11
95.204849
 21
161.988816
 31
0.0
  0
LINE
  5
121
100
AcDbEntity
  8
Layer_1
 62
5
100
AcDbLine
 10
95.204849
 20
161.988816
 30
0.0
 11
95.204849
 21
163.988696
 31
0.0
  0
LINE
  5
122
100
AcDbEntity
  8
Layer_1
 62
5
100
AcDbLine
 10
95.204849
 20
163.988696
 30
0.0
 11
98.404659
 21
163.988696
 31
0.0
  0
LINE
  5
123
100
AcDbEntity
  8
Layer_1
 62
5
100
AcDbLine
 10
98.404659
 20
163.988696
 30
0.0
 11
98.404659
 21
161.988816
 31
0.0
  0
LINE
  5
124
100
AcDbEntity
  8
Layer_1
 62
5
100
AcDbLine
 10
98.404659
 20
161.988816
 30
0.0
 11
100.004559
 21
161.988816
 31
0.0
  0
LINE
  5
125
100
AcDbEntity
  8
Layer_1
 62
5
100
AcDbLine
 10
100.004559
 20
161.988816
 30
0.0
 11
100.004559
 21
158.988468
 31
0.0
  0
LINE
  5
126
100
AcDbEntity
  8
Layer_1
 62
5
100
AcDbLine
 10
100.004559
 20
158.988468
 30
0.0
 11
98.404659
 21
158.988468
 31
0.0
  0
LINE
  5
127
100
AcDbEntity
  8
Layer_1
 62
5
100
AcDbLine
 10
98.404659
 20
158.988468
 30
0.0
 11
98.404659
 21
155.988648
 31
0.0
  0
LINE
  5
128
100
AcDbEntity
  8
Layer_1
 62
5
100
AcDbLine
 10
98.404659
 20
155.988648
 30
0.0
 11
101.804449
 21
155.988648
 31
0.0
  0
LINE
  5
129
100
AcDbEntity
  8
Layer_1
 62
5
100
AcDbLine
 10
101.804449
 20
155.988648
 30
0.0
 11
101.726449
 21
102.791921
 31
0.0
  0
SPLINE
  5
12a
100
AcDbEntity
  8
Layer_1
 62
5
100
AcDbSpline
 70
8
 71
3
 72
8
 73
4
 74
0
 40
0
 40
0
 40
0
 40
0
 40
1
 40
1
 40
1
 40
1
 10
101.726449
 20
102.791921
 30
0.0
 10
104.473249
 20
102.342129
 30
0.0
 10
107.329099
 20
102.103819
 30
0.0
 10
110.234459
 20
102.042092
 30
0.0
  0
LINE
  5
12b
100
AcDbEntity
  8
Layer_1
 62
5
100
AcDbLine
 10
110.234459
 20
102.042092
 30
0.0
 11
110.203959
 21
193.074262
 31
0.0
  0
LINE
  5
12c
100
AcDbEntity
  8
Layer_1
 62
5
100
AcDbLine
 10
110.203959
 20
193.074262
 30
0.0
 11
113.340199
 21
193.074262
 31
0.0
  0
LINE
  5
12d
100
AcDbEntity
  8
Layer_1
 62
5
100
AcDbLine
 10
113.340199
 20
193.074262
 30
0.0
 11
113.361899
 21
102.043626
 31
0.0
  0
SPLINE
  5
12e
100
AcDbEntity
  8
Layer_1
 62
5
100
AcDbSpline
 70
8
 71
3
 72
8
 73
4
 74
0
 40
0
 40
0
 40
0
 40
0
 40
1
 40
1
 40
1
 40
1
 10
113.361899
 20
102.043626
 30
0.0
 10
116.224179
 20
102.106703
 30
0.0
 10
119.041539
 20
102.341627
 30
0.0
 10
121.779469
 20
102.786735
 30
0.0
  0
LINE
  5
12f
100
AcDbEntity
  8
Layer_1
 62
5
100
AcDbLine
 10
121.779469
 20
102.786735
 30
0.0
 11
121.739169
 21
155.988648
 31
0.0
  0
LINE
  5
130
100
AcDbEntity
  8
Layer_1
 62
5
100
AcDbLine
 10
121.739169
 20
155.988648
 30
0.0
 11
125.138989
 21
155.988648
 31
0.0
  0
LINE
  5
131
100
AcDbEntity
  8
Layer_1
 62
5
100
AcDbLine
 10
125.138989
 20
155.988648
 30
0.0
 11
125.138989
 21
158.988468
 31
0.0
  0
LINE
  5
132
100
AcDbEntity
  8
Layer_1
 62
5
100
AcDbLine
 10
125.138989
 20
158.988468
 30
0.0
 11
123.539079
 21
158.988468
 31
0.0
  0
LINE
  5
133
100
AcDbEntity
  8
Layer_1
 62
5
100
AcDbLine
 10
123.539079
 20
158.988468
 30
0.0
 11
123.539079
 21
161.988816
 31
0.0
  0
LINE
  5
134
100
AcDbEntity
  8
Layer_1
 62
5
100
AcDbLine
 10
123.539079
 20
161.988816
 30
0.0
 11
125.138989
 21
161.988816
 31
0.0
  0
LINE
  5
135
100
AcDbEntity
  8
Layer_1
 62
5
100
AcDbLine
 10
125.138989
 20
161.988816
 30
0.0
 11
125.138989
 21
163.988696
 31
0.0
  0
LINE
  5
136
100
AcDbEntity
  8
Layer_1
 62
5
100
AcDbLine
 10
125.138989
 20
163.988696
 30
0.0
 11
128.338789
 21
163.988696
 31
0.0
  0
LINE
  5
137
100
AcDbEntity
  8
Layer_1
 62
5
100
AcDbLine
 10
128.338789
 20
163.988696
 30
0.0
 11
128.338789
 21
161.988816
 31
0.0
  0
LINE
  5
138
100
AcDbEntity
  8
Layer_1
 62
5
100
AcDbLine
 10
128.338789
 20
161.988816
 30
0.0
 11
129.938689
 21
161.988816
 31
0.0
  0
LINE
  5
139
100
AcDbEntity
  8
Layer_1
 62
5
100
AcDbLine
 10
129.938689
 20
161.988816
 30
0.0
 11
129.938689
 21
158.988468
 31
0.0
  0
LINE
  5
13a
100
AcDbEntity
  8
Layer_1
 62
5
100
AcDbLine
 10
129.938689
 20
158.988468
 30
0.0
 11
128.338789
 21
158.988468
 31
0.0
  0
LINE
  5
13b
100
AcDbEntity
  8
Layer_1
 62
5
100
AcDbLine
 10
128.338789
 20
158.988468
 30
0.0
 11
128.338789
 21
155.988648
 31
0.0
  0
LINE
  5
13c
100
AcDbEntity
  8
Layer_1
 62
5
100
AcDbLine
 10
128.338789
 20
155.988648
 30
0.0
 11
131.739099
 21
155.988648
 31
0.0
  0
LINE
  5
13d
100
AcDbEntity
  8
Layer_1
 62
5
100
AcDbLine
 10
131.739099
 20
155.988648
 30
0.0
 11
131.706499
 21
140.406145
 31
0.0
  0
SPLINE
  5
13e
100
AcDbEntity
  8
Layer_1
 62
5
100
AcDbSpline
 70
8
 71
3
 72
8
 73
4
 74
0
 40
0
 40
0
 40
0
 40
0
 40
1
 40
1
 40
1
 40
1
 10
131.706499
 20
140.406145
 30
0.0
 10
135.164139
 20
141.234609
 30
0.0
 10
138.546969
 20
142.482384
 30
0.0
 10
141.769969
 20
143.960452
 30
0.0
  0
LINE
  5
13f
100
AcDbEntity
  8
Layer_1
 62
5
100
AcDbLine
 10
141.769969
 20
143.960452
 30
0.0
 11
141.769909
 21
143.960116
 31
0.0
  0
LINE
  5
140
100
AcDbEntity
  8
Layer_1
 62
5
100
AcDbLine
 10
22.950183
 20
184.029195
 30
0.0
 11
22.950183
 21
208.135219
 31
0.0
  0
LINE
  5
141
100
AcDbEntity
  8
Layer_1
 62
5
100
AcDbLine
 10
22.950183
 20
208.135219
 30
0.0
 11
22.950183
 21
245.180497
 31
0.0
  0
LINE
  5
142
100
AcDbEntity
  8
Layer_1
 62
5
100
AcDbLine
 10
22.950183
 20
245.180497
 30
0.0
 11
22.950183
 21
275.422068
 31
0.0
  0
LINE
  5
143
100
AcDbEntity
  8
Layer_1
 62
5
100
AcDbLine
 10
7.744883
 20
196.643417
 30
0.0
 11
10.872343
 21
196.649423
 31
0.0
  0
LINE
  5
144
100
AcDbEntity
  8
Layer_1
 62
5
100
AcDbLine
 10
10.872343
 20
196.649418
 30
0.0
 11
10.898243
 21
114.781020
 31
0.0
  0
LINE
  5
145
100
AcDbEntity
  8
Layer_1
 62
5
100
AcDbLine
 10
10.898243
 20
114.781020
 30
0.0
 11
13.880542
 21
114.781020
 31
0.0
  0
LINE
  5
146
100
AcDbEntity
  8
Layer_1
 62
5
100
AcDbLine
 10
13.880542
 20
114.781020
 30
0.0
 11
13.880542
 21
105.343049
 31
0.0
  0
SPLINE
  5
147
100
AcDbEntity
  8
Layer_1
 62
5
100
AcDbSpline
 70
8
 71
3
 72
8
 73
4
 74
0
 40
0
 40
0
 40
0
 40
0
 40
1
 40
1
 40
1
 40
1
 10
13.880542
 20
105.343049
 30
0.0
 10
19.176204
 20
107.214081
 30
0.0
 10
22.971652
 20
112.282911
 30
0.0
 10
22.974033
 20
118.319522
 30
0.0
  0
LINE
  5
148
100
AcDbEntity
  8
Layer_1
 62
5
100
AcDbLine
 10
22.974033
 20
118.319522
 30
0.0
 11
22.950234
 21
160.801686
 31
0.0
  0
LINE
  5
149
100
AcDbEntity
  8
Layer_1
 62
5
100
AcDbLine
 10
22.950234
 20
160.801686
 30
0.0
 11
26.482794
 21
160.801686
 31
0.0
  0
LINE
  5
14a
100
AcDbEntity
  8
Layer_1
 62
5
100
AcDbLine
 10
26.482794
 20
160.801686
 30
0.0
 11
26.482794
 21
163.801506
 31
0.0
  0
LINE
  5
14b
100
AcDbEntity
  8
Layer_1
 62
5
100
AcDbLine
 10
26.482794
 20
163.801506
 30
0.0
 11
24.882382
 21
163.801506
 31
0.0
  0
LINE
  5
14c
100
AcDbEntity
  8
Layer_1
 62
5
100
AcDbLine
 10
24.882382
 20
163.801506
 30
0.0
 11
24.882382
 21
166.801836
 31
0.0
  0
LINE
  5
14d
100
AcDbEntity
  8
Layer_1
 62
5
100
AcDbLine
 10
24.882382
 20
166.801836
 30
0.0
 11
26.482794
 21
166.801836
 31
0.0
  0
LINE
  5
14e
100
AcDbEntity
  8
Layer_1
 62
5
100
AcDbLine
 10
26.482794
 20
166.801836
 30
0.0
 11
26.482794
 21
168.801194
 31
0.0
  0
LINE
  5
14f
100
AcDbEntity
  8
Layer_1
 62
5
100
AcDbLine
 10
26.482794
 20
168.801194
 30
0.0
 11
29.682612
 21
168.801194
 31
0.0
  0
LINE
  5
150
100
AcDbEntity
  8
Layer_1
 62
5
100
AcDbLine
 10
29.682612
 20
168.801194
 30
0.0
 11
29.682612
 21
166.801825
 31
0.0
  0
LINE
  5
151
100
AcDbEntity
  8
Layer_1
 62
5
100
AcDbLine
 10
29.682612
 20
166.801825
 30
0.0
 11
31.282524
 21
166.801825
 31
0.0
  0
LINE
  5
152
100
AcDbEntity
  8
Layer_1
 62
5
100
AcDbLine
 10
31.282524
 20
166.801825
 30
0.0
 11
31.282524
 21
163.801495
 31
0.0
  0
LINE
  5
153
100
AcDbEntity
  8
Layer_1
 62
5
100
AcDbLine
 10
31.282524
 20
163.801495
 30
0.0
 11
29.682612
 21
163.801495
 31
0.0
  0
LINE
  5
154
100
AcDbEntity
  8
Layer_1
 62
5
100
AcDbLine
 10
29.682612
 20
163.801495
 30
0.0
 11
29.682612
 21
160.801676
 31
0.0
  0
LINE
  5
155
100
AcDbEntity
  8
Layer_1
 62
5
100
AcDbLine
 10
29.682612
 20
160.801676
 30
0.0
 11
33.082402
 21
160.801676
 31
0.0
  0
LINE
  5
156
100
AcDbEntity
  8
Layer_1
 62
5
100
AcDbLine
 10
33.082402
 20
160.801676
 30
0.0
 11
33.050403
 21
145.219165
 31
0.0
  0
SPLINE
  5
157
100
AcDbEntity
  8
Layer_1
 62
5
100
AcDbSpline
 70
8
 71
3
 72
8
 73
4
 74
0
 40
0
 40
0
 40
0
 40
0
 40
1
 40
1
 40
1
 40
1
 10
33.050403
 20
145.219165
 30
0.0
 10
36.508002
 20
146.047625
 30
0.0
 10
39.890332
 20
147.295385
 30
0.0
 10
43.113354
 20
148.773466
 30
0.0
  0
LINE
  5
158
100
AcDbEntity
  8
Layer_1
 62
5
100
AcDbLine
 10
43.113354
 20
148.773466
 30
0.0
 11
43.056553
 21
160.733974
 31
0.0
  0
LINE
  5
159
100
AcDbEntity
  8
Layer_1
 62
5
100
AcDbLine
 10
43.056553
 20
160.733974
 30
0.0
 11
43.031153
 21
168.898346
 31
0.0
  0
SPLINE
  5
15a
100
AcDbEntity
  8
Layer_1
 62
5
100
AcDbSpline
 70
8
 71
3
 72
8
 73
4
 74
0
 40
0
 40
0
 40
0
 40
0
 40
1
 40
1
 40
1
 40
1
 10
43.031153
 20
168.898346
 30
0.0
 10
43.008161
 20
176.290895
 30
0.0
 10
41.628732
 20
184.029195
 30
0.0
 10
36.931243
 20
184.029195
 30
0.0
  0
LINE
  5
15b
100
AcDbEntity
  8
Layer_1
 62
5
100
AcDbLine
 10
36.931243
 20
184.029195
 30
0.0
 11
22.950183
 21
184.029195
 31
0.0
  0
LINE
  5
15c
100
AcDbEntity
  8
Layer_1
 62
5
100
AcDbLine
 10
22.950183
 20
275.422068
 30
0.0
 11
23.001883
 21
275.454569
 31
0.0
  0
SPLINE
  5
15d
100
AcDbEntity
  8
Layer_1
 62
5
100
AcDbSpline
 70
8
 71
3
 72
8
 73
4
 74
0
 40
0
 40
0
 40
0
 40
0
 40
1
 40
1
 40
1
 40
1
 10
23.001883
 20
275.454569
 30
0.0
 10
22.851544
 20
282.470557
 30
0.0
 10
17.778984
 20
288.209788
 30
0.0
 10
11.040364
 20
289.037208
 30
0.0
  0
LINE
  5
15e
100
AcDbEntity
  8
Layer_1
 62
5
100
AcDbLine
 10
11.040364
 20
289.037208
 30
0.0
 11
7.755824
 21
289.007207
 31
0.0
  0
SPLINE
  5
15f
100
AcDbEntity
  8
Layer_1
 62
5
100
AcDbSpline
 70
8
 71
3
 72
8
 73
4
 74
0
 40
0
 40
0
 40
0
 40
0
 40
1
 40
1
 40
1
 40
1
 10
7.755824
 20
289.007207
 30
0.0
 10
1.090142
 20
288.057978
 30
0.0
 10
-4.188497
 20
282.379567
 30
0.0
 10
-4.282747
 20
275.454537
 30
0.0
  0
LINE
  5
160
100
AcDbEntity
  8
Layer_1
 62
5
100
AcDbLine
 10
-4.282747
 20
275.454537
 30
0.0
 11
-4.282747
 21
245.213567
 31
0.0
  0
LINE
  5
161
100
AcDbEntity
  8
Layer_1
 62
5
100
AcDbLine
 10
-4.282747
 20
245.213567
 30
0.0
 11
-4.282747
 21
208.168289
 31
0.0
  0
LINE
  5
162
100
AcDbEntity
  8
Layer_1
 62
5
100
AcDbLine
 10
-4.282747
 20
208.168289
 30
0.0
 11
-4.282747
 21
184.061755
 31
0.0
  0
LINE
  5
163
100
AcDbEntity
  8
Layer_1
 62
5
100
AcDbLine
 10
-4.282747
 20
184.061755
 30
0.0
 11
-18.263806
 21
184.061755
 31
0.0
  0
SPLINE
  5
164
100
AcDbEntity
  8
Layer_1
 62
5
100
AcDbSpline
 70
8
 71
3
 72
8
 73
4
 74
0
 40
0
 40
0
 40
0
 40
0
 40
1
 40
1
 40
1
 40
1
 10
-18.263806
 20
184.061755
 30
0.0
 10
-22.961267
 20
184.061755
 30
0.0
 10
-24.340518
 20
176.323965
 30
0.0
 10
-24.363667
 20
168.931414
 30
0.0
  0
LINE
  5
165
100
AcDbEntity
  8
Layer_1
 62
5
100
AcDbLine
 10
-24.363667
 20
168.931414
 30
0.0
 11
-24.389067
 21
160.767055
 31
0.0
  0
LINE
  5
166
100
AcDbEntity
  8
Layer_1
 62
5
100
AcDbLine
 10
-24.389067
 20
160.767055
 30
0.0
 11
-24.445968
 21
148.806026
 31
0.0
  0
SPLINE
  5
167
100
AcDbEntity
  8
Layer_1
 62
5
100
AcDbSpline
 70
8
 71
3
 72
8
 73
4
 74
0
 40
0
 40
0
 40
0
 40
0
 40
1
 40
1
 40
1
 40
1
 10
-24.445968
 20
148.806026
 30
0.0
 10
-21.222946
 20
147.327944
 30
0.0
 10
-17.840598
 20
146.080185
 30
0.0
 10
-14.383017
 20
145.251724
 30
0.0
  0
LINE
  5
168
100
AcDbEntity
  8
Layer_1
 62
5
100
AcDbLine
 10
-14.383017
 20
145.251724
 30
0.0
 11
-14.415019
 21
160.834235
 31
0.0
  0
LINE
  5
169
100
AcDbEntity
  8
Layer_1
 62
5
100
AcDbLine
 10
-14.415019
 20
160.834235
 30
0.0
 11
-11.015197
 21
160.834235
 31
0.0
  0
LINE
  5
16a
100
AcDbEntity
  8
Layer_1
 62
5
100
AcDbLine
 10
-11.015197
 20
160.834235
 30
0.0
 11
-11.015197
 21
163.834565
 31
0.0
  0
LINE
  5
16b
100
AcDbEntity
  8
Layer_1
 62
5
100
AcDbLine
 10
-11.015197
 20
163.834565
 30
0.0
 11
-12.615108
 21
163.834565
 31
0.0
  0
LINE
  5
16c
100
AcDbEntity
  8
Layer_1
 62
5
100
AcDbLine
 10
-12.615108
 20
163.834565
 30
0.0
 11
-12.615108
 21
166.834385
 31
0.0
  0
LINE
  5
16d
100
AcDbEntity
  8
Layer_1
 62
5
100
AcDbLine
 10
-12.615108
 20
166.834385
 30
0.0
 11
-11.015197
 21
166.834385
 31
0.0
  0
LINE
  5
16e
100
AcDbEntity
  8
Layer_1
 62
5
100
AcDbLine
 10
-11.015197
 20
166.834385
 30
0.0
 11
-11.015197
 21
168.834256
 31
0.0
  0
LINE
  5
16f
100
AcDbEntity
  8
Layer_1
 62
5
100
AcDbLine
 10
-11.015197
 20
168.834256
 30
0.0
 11
-7.815437
 21
168.834256
 31
0.0
  0
LINE
  5
170
100
AcDbEntity
  8
Layer_1
 62
5
100
AcDbLine
 10
-7.815437
 20
168.834256
 30
0.0
 11
-7.815437
 21
166.834385
 31
0.0
  0
LINE
  5
171
100
AcDbEntity
  8
Layer_1
 62
5
100
AcDbLine
 10
-7.815437
 20
166.834385
 30
0.0
 11
-6.214996
 21
166.834385
 31
0.0
  0
LINE
  5
172
100
AcDbEntity
  8
Layer_1
 62
5
100
AcDbLine
 10
-6.214996
 20
166.834385
 30
0.0
 11
-6.214996
 21
163.834565
 31
0.0
  0
LINE
  5
173
100
AcDbEntity
  8
Layer_1
 62
5
100
AcDbLine
 10
-6.214996
 20
163.834565
 30
0.0
 11
-7.815437
 21
163.834565
 31
0.0
  0
LINE
  5
174
100
AcDbEntity
  8
Layer_1
 62
5
100
AcDbLine
 10
-7.815437
 20
163.834565
 30
0.0
 11
-7.815437
 21
160.834235
 31
0.0
  0
LINE
  5
175
100
AcDbEntity
  8
Layer_1
 62
5
100
AcDbLine
 10
-7.815437
 20
160.834235
 30
0.0
 11
-4.283517
 21
160.834235
 31
0.0
  0
LINE
  5
176
100
AcDbEntity
  8
Layer_1
 62
5
100
AcDbLine
 10
-4.283517
 20
160.834235
 30
0.0
 11
-4.275518
 21
118.326232
 31
0.0
  0
SPLINE
  5
177
100
AcDbEntity
  8
Layer_1
 62
5
100
AcDbSpline
 70
8
 71
3
 72
8
 73
4
 74
0
 40
0
 40
0
 40
0
 40
0
 40
1
 40
1
 40
1
 40
1
 10
-4.275518
 20
118.326232
 30
0.0
 10
-4.269518
 20
112.308318
 30
0.0
 10
-0.501867
 20
107.256504
 30
0.0
 10
4.793184
 20
105.342007
 30
0.0
  0
LINE
  5
178
100
AcDbEntity
  8
Layer_1
 62
5
100
AcDbLine
 10
4.793184
 20
105.342007
 30
0.0
 11
4.793184
 21
114.841170
 31
0.0
  0
LINE
  5
179
100
AcDbEntity
  8
Layer_1
 62
5
100
AcDbLine
 10
4.793184
 20
114.841170
 30
0.0
 11
7.697383
 21
114.841170
 31
0.0
  0
LINE
  5
17a
100
AcDbEntity
  8
Layer_1
 62
5
100
AcDbLine
 10
7.697383
 20
114.841170
 30
0.0
 11
7.744383
 21
196.643417
 31
0.0
  0
LINE
  5
17b
100
AcDbEntity
  8
Layer_1
 62
5
100
AcDbLine
 10
7.744383
 20
196.643417
 30
0.0
 11
7.744912
 21
196.643417
 31
0.0
  0
LINE
  5
17c
100
AcDbEntity
  8
Layer_1
 62
5
100
AcDbLine
 10
178.104800
 20
227.337351
 30
0.0
 11
181.637009
 21
227.337351
 31
0.0
  0
LINE
  5
17d
100
AcDbEntity
  8
Layer_1
 62
5
100
AcDbLine
 10
181.637009
 20
227.337351
 30
0.0
 11
181.637009
 21
224.337093
 31
0.0
  0
LINE
  5
17e
100
AcDbEntity
  8
Layer_1
 62
5
100
AcDbLine
 10
181.637009
 20
224.337093
 30
0.0
 11
180.036809
 21
224.337093
 31
0.0
  0
LINE
  5
17f
100
AcDbEntity
  8
Layer_1
 62
5
100
AcDbLine
 10
180.036809
 20
224.337093
 30
0.0
 11
180.036809
 21
221.337382
 31
0.0
  0
LINE
  5
180
100
AcDbEntity
  8
Layer_1
 62
5
100
AcDbLine
 10
180.036809
 20
221.337382
 30
0.0
 11
181.637009
 21
221.337382
 31
0.0
  0
LINE
  5
181
100
AcDbEntity
  8
Layer_1
 62
5
100
AcDbLine
 10
181.637009
 20
221.337382
 30
0.0
 11
181.637009
 21
219.337024
 31
0.0
  0
LINE
  5
182
100
AcDbEntity
  8
Layer_1
 62
5
100
AcDbLine
 10
181.637009
 20
219.337024
 30
0.0
 11
184.836816
 21
219.337024
 31
0.0
  0
LINE
  5
183
100
AcDbEntity
  8
Layer_1
 62
5
100
AcDbLine
 10
184.836816
 20
219.337024
 30
0.0
 11
184.836816
 21
221.337382
 31
0.0
  0
LINE
  5
184
100
AcDbEntity
  8
Layer_1
 62
5
100
AcDbLine
 10
184.836816
 20
221.337382
 30
0.0
 11
186.436987
 21
221.337382
 31
0.0
  0
LINE
  5
185
100
AcDbEntity
  8
Layer_1
 62
5
100
AcDbLine
 10
186.436987
 20
221.337382
 30
0.0
 11
186.436987
 21
224.337093
 31
0.0
  0
LINE
  5
186
100
AcDbEntity
  8
Layer_1
 62
5
100
AcDbLine
 10
186.436987
 20
224.337093
 30
0.0
 11
184.836816
 21
224.337093
 31
0.0
  0
LINE
  5
187
100
AcDbEntity
  8
Layer_1
 62
5
100
AcDbLine
 10
184.836816
 20
224.337093
 30
0.0
 11
184.836816
 21
227.337351
 31
0.0
  0
LINE
  5
188
100
AcDbEntity
  8
Layer_1
 62
5
100
AcDbLine
 10
184.836816
 20
227.337351
 30
0.0
 11
188.236691
 21
227.337351
 31
0.0
  0
LINE
  5
189
100
AcDbEntity
  8
Layer_1
 62
5
100
AcDbLine
 10
188.236691
 20
227.337351
 30
0.0
 11
188.204740
 21
242.919661
 31
0.0
  0
SPLINE
  5
18a
100
AcDbEntity
  8
Layer_1
 62
5
100
AcDbSpline
 70
8
 71
3
 72
8
 73
4
 74
0
 40
0
 40
0
 40
0
 40
0
 40
1
 40
1
 40
1
 40
1
 10
188.204740
 20
242.919661
 30
0.0
 10
191.662360
 20
242.091203
 30
0.0
 10
195.044708
 20
240.843513
 30
0.0
 10
198.267714
 20
239.365432
 30
0.0
  0
LINE
  5
18b
100
AcDbEntity
  8
Layer_1
 62
5
100
AcDbLine
 10
198.267714
 20
239.365432
 30
0.0
 11
198.210935
 21
227.404603
 31
0.0
  0
LINE
  5
18c
100
AcDbEntity
  8
Layer_1
 62
5
100
AcDbLine
 10
198.210935
 20
227.404603
 30
0.0
 11
198.185535
 21
219.240003
 31
0.0
  0
SPLINE
  5
18d
100
AcDbEntity
  8
Layer_1
 62
5
100
AcDbSpline
 70
8
 71
3
 72
8
 73
4
 74
0
 40
0
 40
0
 40
0
 40
0
 40
1
 40
1
 40
1
 40
1
 10
198.185535
 20
219.240003
 30
0.0
 10
198.162384
 20
211.847453
 30
0.0
 10
196.783256
 20
204.109692
 30
0.0
 10
192.085780
 20
204.109692
 30
0.0
  0
LINE
  5
18e
100
AcDbEntity
  8
Layer_1
 62
5
100
AcDbLine
 10
192.085780
 20
204.109692
 30
0.0
 11
178.104744
 21
204.109692
 31
0.0
  0
LINE
  5
18f
100
AcDbEntity
  8
Layer_1
 62
5
100
AcDbLine
 10
178.104744
 20
204.109692
 30
0.0
 11
178.104744
 21
180.003398
 31
0.0
  0
LINE
  5
190
100
AcDbEntity
  8
Layer_1
 62
5
100
AcDbLine
 10
178.104744
 20
180.003398
 30
0.0
 11
178.104744
 21
142.957874
 31
0.0
  0
LINE
  5
191
100
AcDbEntity
  8
Layer_1
 62
5
100
AcDbLine
 10
178.104744
 20
142.957874
 30
0.0
 11
178.104744
 21
112.717100
 31
0.0
  0
SPLINE
  5
192
100
AcDbEntity
  8
Layer_1
 62
5
100
AcDbSpline
 70
8
 71
3
 72
8
 73
4
 74
0
 40
0
 40
0
 40
0
 40
0
 40
1
 40
1
 40
1
 40
1
 10
178.104744
 20
112.717100
 30
0.0
 10
178.010516
 20
105.792081
 30
0.0
 10
172.731856
 20
100.113607
 30
0.0
 10
166.066219
 20
99.164369
 30
0.0
  0
LINE
  5
193
100
AcDbEntity
  8
Layer_1
 62
5
100
AcDbLine
 10
166.066219
 20
99.164369
 30
0.0
 11
166.044761
 21
191.416312
 31
0.0
  0
LINE
  5
194
100
AcDbEntity
  8
Layer_1
 62
5
100
AcDbLine
 10
166.044769
 20
191.416312
 30
0.0
 11
162.908940
 21
191.416312
 31
0.0
  0
LINE
  5
195
100
AcDbEntity
  8
Layer_1
 62
5
100
AcDbLine
 10
162.908940
 20
191.416312
 30
0.0
 11
162.938714
 21
99.134603
 31
0.0
  0
LINE
  5
196
100
AcDbEntity
  8
Layer_1
 62
5
100
AcDbLine
 10
162.938714
 20
99.134603
 30
0.0
 11
162.781602
 21
99.134074
 31
0.0
  0
LINE
  5
197
100
AcDbEntity
  8
Layer_1
 62
5
100
AcDbLine
 10
162.781602
 20
99.134040
 30
0.0
 11
162.781602
 21
99.134040
 31
0.0
  0
SPLINE
  5
198
100
AcDbEntity
  8
Layer_1
 62
5
100
AcDbSpline
 70
8
 71
3
 72
8
 73
4
 74
0
 40
0
 40
0
 40
0
 40
0
 40
1
 40
1
 40
1
 40
1
 10
162.781602
 20
99.134040
 30
0.0
 10
156.042982
 20
99.961458
 30
0.0
 10
150.970546
 20
105.701099
 30
0.0
 10
150.820205
 20
112.717087
 30
0.0
  0
LINE
  5
199
100
AcDbEntity
  8
Layer_1
 62
5
100
AcDbLine
 10
150.820205
 20
112.717087
 30
0.0
 11
150.871454
 21
112.749607
 31
0.0
  0
LINE
  5
19a
100
AcDbEntity
  8
Layer_1
 62
5
100
AcDbLine
 10
150.871454
 20
112.749607
 30
0.0
 11
150.871454
 21
142.990934
 31
0.0
  0
LINE
  5
19b
100
AcDbEntity
  8
Layer_1
 62
5
100
AcDbLine
 10
150.871454
 20
142.990934
 30
0.0
 11
150.871454
 21
180.036458
 31
0.0
  0
LINE
  5
19c
100
AcDbEntity
  8
Layer_1
 62
5
100
AcDbLine
 10
150.871454
 20
180.036458
 30
0.0
 11
150.871454
 21
204.142204
 31
0.0
  0
LINE
  5
19d
100
AcDbEntity
  8
Layer_1
 62
5
100
AcDbLine
 10
150.871454
 20
204.142204
 30
0.0
 11
136.890419
 21
204.142204
 31
0.0
  0
SPLINE
  5
19e
100
AcDbEntity
  8
Layer_1
 62
5
100
AcDbSpline
 70
8
 71
3
 72
8
 73
4
 74
0
 40
0
 40
0
 40
0
 40
0
 40
1
 40
1
 40
1
 40
1
 10
136.890419
 20
204.142204
 30
0.0
 10
132.192943
 20
204.142204
 30
0.0
 10
130.813834
 20
211.880512
 30
0.0
 10
130.790693
 20
219.273063
 30
0.0
  0
LINE
  5
19f
100
AcDbEntity
  8
Layer_1
 62
5
100
AcDbLine
 10
130.790693
 20
219.273063
 30
0.0
 11
130.765293
 21
227.437663
 31
0.0
  0
LINE
  5
1a0
100
AcDbEntity
  8
Layer_1
 62
5
100
AcDbLine
 10
130.765293
 20
227.437663
 30
0.0
 11
130.708514
 21
239.397933
 31
0.0
  0
SPLINE
  5
1a1
100
AcDbEntity
  8
Layer_1
 62
5
100
AcDbSpline
 70
8
 71
3
 72
8
 73
4
 74
0
 40
0
 40
0
 40
0
 40
0
 40
1
 40
1
 40
1
 40
1
 10
130.708514
 20
239.397933
 30
0.0
 10
133.931520
 20
240.876012
 30
0.0
 10
137.313898
 20
242.123702
 30
0.0
 10
140.771515
 20
242.952173
 30
0.0
  0
LINE
  5
1a2
100
AcDbEntity
  8
Layer_1
 62
5
100
AcDbLine
 10
140.771515
 20
242.952173
 30
0.0
 11
140.739535
 21
227.369863
 31
0.0
  0
LINE
  5
1a3
100
AcDbEntity
  8
Layer_1
 62
5
100
AcDbLine
 10
140.739535
 20
227.369863
 30
0.0
 11
144.139436
 21
227.369863
 31
0.0
  0
LINE
  5
1a4
100
AcDbEntity
  8
Layer_1
 62
5
100
AcDbLine
 10
144.139436
 20
227.369863
 30
0.0
 11
144.139436
 21
224.370153
 31
0.0
  0
LINE
  5
1a5
100
AcDbEntity
  8
Layer_1
 62
5
100
AcDbLine
 10
144.139436
 20
224.370153
 30
0.0
 11
142.539265
 21
224.370153
 31
0.0
  0
LINE
  5
1a6
100
AcDbEntity
  8
Layer_1
 62
5
100
AcDbLine
 10
142.539265
 20
224.370153
 30
0.0
 11
142.539265
 21
221.369883
 31
0.0
  0
LINE
  5
1a7
100
AcDbEntity
  8
Layer_1
 62
5
100
AcDbLine
 10
142.539265
 20
221.369883
 30
0.0
 11
144.139436
 21
221.369883
 31
0.0
  0
LINE
  5
1a8
100
AcDbEntity
  8
Layer_1
 62
5
100
AcDbLine
 10
144.139436
 20
221.369883
 30
0.0
 11
144.139436
 21
219.370083
 31
0.0
  0
LINE
  5
1a9
100
AcDbEntity
  8
Layer_1
 62
5
100
AcDbLine
 10
144.139436
 20
219.370083
 30
0.0
 11
147.339243
 21
219.370083
 31
0.0
  0
LINE
  5
1aa
100
AcDbEntity
  8
Layer_1
 62
5
100
AcDbLine
 10
147.339243
 20
219.370083
 30
0.0
 11
147.339243
 21
221.369883
 31
0.0
  0
LINE
  5
1ab
100
AcDbEntity
  8
Layer_1
 62
5
100
AcDbLine
 10
147.339243
 20
221.369883
 30
0.0
 11
148.939417
 21
221.369883
 31
0.0
  0
LINE
  5
1ac
100
AcDbEntity
  8
Layer_1
 62
5
100
AcDbLine
 10
148.939417
 20
221.369883
 30
0.0
 11
148.939417
 21
224.370153
 31
0.0
  0
LINE
  5
1ad
100
AcDbEntity
  8
Layer_1
 62
5
100
AcDbLine
 10
148.939417
 20
224.370153
 30
0.0
 11
147.339243
 21
224.370153
 31
0.0
  0
LINE
  5
1ae
100
AcDbEntity
  8
Layer_1
 62
5
100
AcDbLine
 10
147.339243
 20
224.370153
 30
0.0
 11
147.339243
 21
227.369863
 31
0.0
  0
LINE
  5
1af
100
AcDbEntity
  8
Layer_1
 62
5
100
AcDbLine
 10
147.339243
 20
227.369863
 30
0.0
 11
150.871425
 21
227.369863
 31
0.0
  0
LINE
  5
1b0
100
AcDbEntity
  8
Layer_1
 62
5
100
AcDbLine
 10
150.871425
 20
227.369863
 30
0.0
 11
150.847719
 21
269.852173
 31
0.0
  0
SPLINE
  5
1b1
100
AcDbEntity
  8
Layer_1
 62
5
100
AcDbSpline
 70
8
 71
3
 72
8
 73
4
 74
0
 40
0
 40
0
 40
0
 40
0
 40
1
 40
1
 40
1
 40
1
 10
150.847716
 20
269.852173
 30
0.0
 10
150.850521
 20
277.503743
 30
0.0
 10
156.947722
 20
283.601442
 30
0.0
 10
164.469622
 20
283.601442
 30
0.0
  0
SPLINE
  5
1b2
100
AcDbEntity
  8
Layer_1
 62
5
100
AcDbSpline
 70
8
 71
3
 72
8
 73
4
 74
0
 40
0
 40
0
 40
0
 40
0
 40
1
 40
1
 40
1
 40
1
 10
164.469622
 20
283.601442
 30
0.0
 10
171.991523
 20
283.601442
 30
0.0
 10
178.089242
 20
277.503743
 30
0.0
 10
178.097005
 20
269.845283
 30
0.0
  0
LINE
  5
1b3
100
AcDbEntity
  8
Layer_1
 62
5
100
AcDbLine
 10
178.097005
 20
269.845283
 30
0.0
 11
178.104811
 21
227.337351
 31
0.0
  0
SPLINE
  5
1b4
100
AcDbEntity
  8
Layer_1
 62
5
100
AcDbSpline
 70
8
 71
3
 72
8
 73
4
 74
0
 40
0
 40
0
 40
0
 40
0
 40
1
 40
1
 40
1
 40
1
 10
159.042166
 20
270.014254
 30
0.0
 10
159.042166
 20
269.460492
 30
0.0
 10
158.746738
 20
268.948796
 30
0.0
 10
158.267167
 20
268.671914
 30
0.0
  0
SPLINE
  5
1b5
100
AcDbEntity
  8
Layer_1
 62
5
100
AcDbSpline
 70
8
 71
3
 72
8
 73
4
 74
0
 40
0
 40
0
 40
0
 40
0
 40
1
 40
1
 40
1
 40
1
 10
158.267167
 20
268.671914
 30
0.0
 10
157.787594
 20
268.395033
 30
0.0
 10
157.196740
 20
268.395033
 30
0.0
 10
156.717167
 20
268.671914
 30
0.0
  0
SPLINE
  5
1b6
100
AcDbEntity
  8
Layer_1
 62
5
100
AcDbSpline
 70
8
 71
3
 72
8
 73
4
 74
0
 40
0
 40
0
 40
0
 40
0
 40
1
 40
1
 40
1
 40
1
 10
156.717167
 20
268.671914
 30
0.0
 10
156.237596
 20
268.948796
 30
0.0
 10
155.942168
 20
269.460492
 30
0.0
 10
155.942168
 20
270.014254
 30
0.0
  0
SPLINE
  5
1b7
100
AcDbEntity
  8
Layer_1
 62
5
100
AcDbSpline
 70
8
 71
3
 72
8
 73
4
 74
0
 40
0
 40
0
 40
0
 40
0
 40
1
 40
1
 40
1
 40
1
 10
155.942168
 20
270.014254
 30
0.0
 10
155.942168
 20
270.568014
 30
0.0
 10
156.237596
 20
271.079710
 30
0.0
 10
156.717167
 20
271.356594
 30
0.0
  0
SPLINE
  5
1b8
100
AcDbEntity
  8
Layer_1
 62
5
100
AcDbSpline
 70
8
 71
3
 72
8
 73
4
 74
0
 40
0
 40
0
 40
0
 40
0
 40
1
 40
1
 40
1
 40
1
 10
156.717167
 20
271.356594
 30
0.0
 10
157.196740
 20
271.633472
 30
0.0
 10
157.787594
 20
271.633472
 30
0.0
 10
158.267167
 20
271.356594
 30
0.0
  0
SPLINE
  5
1b9
100
AcDbEntity
  8
Layer_1
 62
5
100
AcDbSpline
 70
8
 71
3
 72
8
 73
4
 74
0
 40
0
 40
0
 40
0
 40
0
 40
1
 40
1
 40
1
 40
1
 10
158.267167
 20
271.356594
 30
0.0
 10
158.746738
 20
271.079710
 30
0.0
 10
159.042166
 20
270.568014
 30
0.0
 10
159.042166
 20
270.014254
 30
0.0
  0
LINE
  5
1ba
100
AcDbEntity
  8
Layer_1
 62
5
100
AcDbLine
 10
159.042166
 20
270.014254
 30
0.0
 11
159.042166
 21
270.014254
 31
0.0
  0
SPLINE
  5
1bb
100
AcDbEntity
  8
Layer_1
 62
5
100
AcDbSpline
 70
8
 71
3
 72
8
 73
4
 74
0
 40
0
 40
0
 40
0
 40
0
 40
1
 40
1
 40
1
 40
1
 10
173.249458
 20
270.014254
 30
0.0
 10
173.249458
 20
269.460492
 30
0.0
 10
172.954029
 20
268.948796
 30
0.0
 10
172.474459
 20
268.671914
 30
0.0
  0
SPLINE
  5
1bc
100
AcDbEntity
  8
Layer_1
 62
5
100
AcDbSpline
 70
8
 71
3
 72
8
 73
4
 74
0
 40
0
 40
0
 40
0
 40
0
 40
1
 40
1
 40
1
 40
1
 10
172.474459
 20
268.671914
 30
0.0
 10
171.994888
 20
268.395033
 30
0.0
 10
171.404031
 20
268.395033
 30
0.0
 10
170.924461
 20
268.671914
 30
0.0
  0
SPLINE
  5
1bd
100
AcDbEntity
  8
Layer_1
 62
5
100
AcDbSpline
 70
8
 71
3
 72
8
 73
4
 74
0
 40
0
 40
0
 40
0
 40
0
 40
1
 40
1
 40
1
 40
1
 10
170.924461
 20
268.671914
 30
0.0
 10
170.444888
 20
268.948796
 30
0.0
 10
170.149459
 20
269.460492
 30
0.0
 10
170.149459
 20
270.014254
 30
0.0
  0
SPLINE
  5
1be
100
AcDbEntity
  8
Layer_1
 62
5
100
AcDbSpline
 70
8
 71
3
 72
8
 73
4
 74
0
 40
0
 40
0
 40
0
 40
0
 40
1
 40
1
 40
1
 40
1
 10
170.149459
 20
270.014254
 30
0.0
 10
170.149459
 20
270.568014
 30
0.0
 10
170.444888
 20
271.079710
 30
0.0
 10
170.924461
 20
271.356594
 30
0.0
  0
SPLINE
  5
1bf
100
AcDbEntity
  8
Layer_1
 62
5
100
AcDbSpline
 70
8
 71
3
 72
8
 73
4
 74
0
 40
0
 40
0
 40
0
 40
0
 40
1
 40
1
 40
1
 40
1
 10
170.924461
 20
271.356594
 30
0.0
 10
171.404031
 20
271.633472
 30
0.0
 10
171.994888
 20
271.633472
 30
0.0
 10
172.474459
 20
271.356594
 30
0.0
  0
SPLINE
  5
1c0
100
AcDbEntity
  8
Layer_1
 62
5
100
AcDbSpline
 70
8
 71
3
 72
8
 73
4
 74
0
 40
0
 40
0
 40
0
 40
0
 40
1
 40
1
 40
1
 40
1
 10
172.474459
 20
271.356594
 30
0.0
 10
172.954029
 20
271.079710
 30
0.0
 10
173.249458
 20
270.568014
 30
0.0
 10
173.249458
 20
270.014254
 30
0.0
  0
LINE
  5
1c1
100
AcDbEntity
  8
Layer_1
 62
5
100
AcDbLine
 10
173.249458
 20
270.014254
 30
0.0
 11
173.249458
 21
270.014254
 31
0.0
  0
SPLINE
  5
1c2
100
AcDbEntity
  8
Layer_1
 62
1
100
AcDbSpline
 70
8
 71
3
 72
8
 73
4
 74
0
 40
0
 40
0
 40
0
 40
0
 40
1
 40
1
 40
1
 40
1
 10
54.631572
 20
135.314390
 30
0.0
 10
55.047428
 20
135.314390
 30
0.0
 10
55.446251
 20
135.149191
 30
0.0
 10
55.740305
 20
134.855136
 30
0.0
  0
SPLINE
  5
1c3
100
AcDbEntity
  8
Layer_1
 62
1
100
AcDbSpline
 70
8
 71
3
 72
8
 73
4
 74
0
 40
0
 40
0
 40
0
 40
0
 40
1
 40
1
 40
1
 40
1
 10
55.740305
 20
134.855136
 30
0.0
 10
56.034359
 20
134.561080
 30
0.0
 10
56.199555
 20
134.162256
 30
0.0
 10
56.199553
 20
133.746400
 30
0.0
  0
SPLINE
  5
1c4
100
AcDbEntity
  8
Layer_1
 62
1
100
AcDbSpline
 70
8
 71
3
 72
8
 73
4
 74
0
 40
0
 40
0
 40
0
 40
0
 40
1
 40
1
 40
1
 40
1
 10
56.199553
 20
133.746400
 30
0.0
 10
56.199547
 20
132.880432
 30
0.0
 10
55.497540
 20
132.178430
 30
0.0
 10
54.631572
 20
132.178430
 30
0.0
  0
SPLINE
  5
1c5
100
AcDbEntity
  8
Layer_1
 62
1
100
AcDbSpline
 70
8
 71
3
 72
8
 73
4
 74
0
 40
0
 40
0
 40
0
 40
0
 40
1
 40
1
 40
1
 40
1
 10
54.631572
 20
132.178430
 30
0.0
 10
53.765604
 20
132.178430
 30
0.0
 10
53.063596
 20
132.880432
 30
0.0
 10
53.063590
 20
133.746400
 30
0.0
  0
SPLINE
  5
1c6
100
AcDbEntity
  8
Layer_1
 62
1
100
AcDbSpline
 70
8
 71
3
 72
8
 73
4
 74
0
 40
0
 40
0
 40
0
 40
0
 40
1
 40
1
 40
1
 40
1
 10
53.063590
 20
133.746400
 30
0.0
 10
53.063588
 20
134.162256
 30
0.0
 10
53.228784
 20
134.561081
 30
0.0
 10
53.522838
 20
134.855136
 30
0.0
  0
SPLINE
  5
1c7
100
AcDbEntity
  8
Layer_1
 62
1
100
AcDbSpline
 70
8
 71
3
 72
8
 73
4
 74
0
 40
0
 40
0
 40
0
 40
0
 40
1
 40
1
 40
1
 40
1
 10
53.522838
 20
134.855136
 30
0.0
 10
53.816892
 20
135.149192
 30
0.0
 10
54.215716
 20
135.314390
 30
0.0
 10
54.631572
 20
135.314390
 30
0.0
  0
LINE
  5
1c8
100
AcDbEntity
  8
Layer_1
 62
1
100
AcDbLine
 10
54.631572
 20
135.314390
 30
0.0
 11
54.631572
 21
135.314390
 31
0.0
  0
SPLINE
  5
1c9
100
AcDbEntity
  8
Layer_1
 62
1
100
AcDbSpline
 70
8
 71
3
 72
8
 73
4
 74
0
 40
0
 40
0
 40
0
 40
0
 40
1
 40
1
 40
1
 40
1
 10
70.665019
 20
135.314390
 30
0.0
 10
70.249161
 20
135.314390
 30
0.0
 10
69.850336
 20
135.149190
 30
0.0
 10
69.556282
 20
134.855132
 30
0.0
  0
SPLINE
  5
1ca
100
AcDbEntity
  8
Layer_1
 62
1
100
AcDbSpline
 70
8
 71
3
 72
8
 73
4
 74
0
 40
0
 40
0
 40
0
 40
0
 40
1
 40
1
 40
1
 40
1
 10
69.556282
 20
134.855132
 30
0.0
 10
69.262228
 20
134.561075
 30
0.0
 10
69.097033
 20
134.162248
 30
0.0
 10
69.097038
 20
133.746390
 30
0.0
  0
SPLINE
  5
1cb
100
AcDbEntity
  8
Layer_1
 62
1
100
AcDbSpline
 70
8
 71
3
 72
8
 73
4
 74
0
 40
0
 40
0
 40
0
 40
0
 40
1
 40
1
 40
1
 40
1
 10
69.097038
 20
133.746390
 30
0.0
 10
69.097044
 20
132.880422
 30
0.0
 10
69.799051
 20
132.178420
 30
0.0
 10
70.665019
 20
132.178420
 30
0.0
  0
SPLINE
  5
1cc
100
AcDbEntity
  8
Layer_1
 62
1
100
AcDbSpline
 70
8
 71
3
 72
8
 73
4
 74
0
 40
0
 40
0
 40
0
 40
0
 40
1
 40
1
 40
1
 40
1
 10
70.665019
 20
132.178420
 30
0.0
 10
71.530987
 20
132.178420
 30
0.0
 10
72.232995
 20
132.880422
 30
0.0
 10
72.233001
 20
133.746390
 30
0.0
  0
SPLINE
  5
1cd
100
AcDbEntity
  8
Layer_1
 62
1
100
AcDbSpline
 70
8
 71
3
 72
8
 73
4
 74
0
 40
0
 40
0
 40
0
 40
0
 40
1
 40
1
 40
1
 40
1
 10
72.233001
 20
133.746390
 30
0.0
 10
72.233006
 20
134.162248
 30
0.0
 10
72.067810
 20
134.561075
 30
0.0
 10
71.773756
 20
134.855133
 30
0.0
  0
SPLINE
  5
1ce
100
AcDbEntity
  8
Layer_1
 62
1
100
AcDbSpline
 70
8
 71
3
 72
8
 73
4
 74
0
 40
0
 40
0
 40
0
 40
0
 40
1
 40
1
 40
1
 40
1
 10
71.773756
 20
134.855133
 30
0.0
 10
71.479702
 20
135.149190
 30
0.0
 10
71.080877
 20
135.314390
 30
0.0
 10
70.665019
 20
135.314390
 30
0.0
  0
LINE
  5
1cf
100
AcDbEntity
  8
Layer_1
 62
1
100
AcDbLine
 10
70.665019
 20
135.314390
 30
0.0
 11
70.665019
 21
135.314390
 31
0.0
  0
LINE
  5
1d0
100
AcDbEntity
  8
Layer_1
 62
5
100
AcDbLine
 10
48.738871
 20
150.290730
 30
0.0
 11
49.023831
 21
187.336180
 31
0.0
  0
LINE
  5
1d1
100
AcDbEntity
  8
Layer_1
 62
5
100
AcDbLine
 10
49.023831
 20
187.336180
 30
0.0
 11
48.910857
 21
208.267130
 31
0.0
  0
LINE
  5
1d2
100
AcDbEntity
  8
Layer_1
 62
5
100
AcDbLine
 10
48.910857
 20
208.267130
 30
0.0
 11
38.708837
 21
208.267130
 31
0.0
  0
SPLINE
  5
1d3
100
AcDbEntity
  8
Layer_1
 62
5
100
AcDbSpline
 70
8
 71
3
 72
8
 73
4
 74
0
 40
0
 40
0
 40
0
 40
0
 40
1
 40
1
 40
1
 40
1
 10
38.708837
 20
208.267130
 30
0.0
 10
34.011361
 20
208.267130
 30
0.0
 10
32.625853
 20
216.005100
 30
0.0
 10
32.609111
 20
223.397690
 30
0.0
  0
LINE
  5
1d4
100
AcDbEntity
  8
Layer_1
 62
5
100
AcDbLine
 10
32.609111
 20
223.397690
 30
0.0
 11
32.583431
 21
234.737460
 31
0.0
  0
LINE
  5
1d5
100
AcDbEntity
  8
Layer_1
 62
5
100
AcDbLine
 10
32.583431
 20
234.737460
 30
0.0
 11
32.526721
 21
246.697930
 31
0.0
  0
SPLINE
  5
1d6
100
AcDbEntity
  8
Layer_1
 62
5
100
AcDbSpline
 70
8
 71
3
 72
8
 73
4
 74
0
 40
0
 40
0
 40
0
 40
0
 40
1
 40
1
 40
1
 40
1
 10
32.526721
 20
246.697930
 30
0.0
 10
35.749724
 20
248.176010
 30
0.0
 10
39.132364
 20
249.423830
 30
0.0
 10
42.590004
 20
250.252290
 30
0.0
  0
LINE
  5
1d7
100
AcDbEntity
  8
Layer_1
 62
5
100
AcDbLine
 10
42.590004
 20
250.252290
 30
0.0
 11
42.557764
 21
234.669810
 31
0.0
  0
LINE
  5
1d8
100
AcDbEntity
  8
Layer_1
 62
5
100
AcDbLine
 10
42.557764
 20
234.669810
 30
0.0
 11
45.957780
 21
234.669810
 31
0.0
  0
LINE
  5
1d9
100
AcDbEntity
  8
Layer_1
 62
5
100
AcDbLine
 10
45.957780
 20
234.669810
 30
0.0
 11
45.957780
 21
231.669820
 31
0.0
  0
LINE
  5
1da
100
AcDbEntity
  8
Layer_1
 62
5
100
AcDbLine
 10
45.957780
 20
231.669820
 30
0.0
 11
44.357777
 21
231.669820
 31
0.0
  0
LINE
  5
1db
100
AcDbEntity
  8
Layer_1
 62
5
100
AcDbLine
 10
44.357777
 20
231.669820
 30
0.0
 11
44.357777
 21
228.669820
 31
0.0
  0
LINE
  5
1dc
100
AcDbEntity
  8
Layer_1
 62
5
100
AcDbLine
 10
44.357777
 20
228.669820
 30
0.0
 11
45.957779
 21
228.669820
 31
0.0
  0
LINE
  5
1dd
100
AcDbEntity
  8
Layer_1
 62
5
100
AcDbLine
 10
45.957779
 20
228.669820
 30
0.0
 11
45.957779
 21
226.669830
 31
0.0
  0
LINE
  5
1de
100
AcDbEntity
  8
Layer_1
 62
5
100
AcDbLine
 10
45.957779
 20
226.669830
 30
0.0
 11
49.157756
 21
226.669830
 31
0.0
  0
LINE
  5
1df
100
AcDbEntity
  8
Layer_1
 62
5
100
AcDbLine
 10
49.157756
 20
226.669830
 30
0.0
 11
49.157756
 21
228.669820
 31
0.0
  0
LINE
  5
1e0
100
AcDbEntity
  8
Layer_1
 62
5
100
AcDbLine
 10
49.157756
 20
228.669820
 30
0.0
 11
50.757759
 21
228.669820
 31
0.0
  0
LINE
  5
1e1
100
AcDbEntity
  8
Layer_1
 62
5
100
AcDbLine
 10
50.757759
 20
228.669820
 30
0.0
 11
50.757759
 21
231.669820
 31
0.0
  0
LINE
  5
1e2
100
AcDbEntity
  8
Layer_1
 62
5
100
AcDbLine
 10
50.757759
 20
231.669820
 30
0.0
 11
49.157748
 21
231.669820
 31
0.0
  0
LINE
  5
1e3
100
AcDbEntity
  8
Layer_1
 62
5
100
AcDbLine
 10
49.157748
 20
231.669820
 30
0.0
 11
49.157748
 21
234.669810
 31
0.0
  0
LINE
  5
1e4
100
AcDbEntity
  8
Layer_1
 62
5
100
AcDbLine
 10
49.157748
 20
234.669810
 30
0.0
 11
52.557736
 21
234.669810
 31
0.0
  0
LINE
  5
1e5
100
AcDbEntity
  8
Layer_1
 62
5
100
AcDbLine
 10
52.557736
 20
234.669810
 30
0.0
 11
52.517096
 21
287.871920
 31
0.0
  0
SPLINE
  5
1e6
100
AcDbEntity
  8
Layer_1
 62
5
100
AcDbSpline
 70
8
 71
3
 72
8
 73
4
 74
0
 40
0
 40
0
 40
0
 40
0
 40
1
 40
1
 40
1
 40
1
 10
52.517096
 20
287.871920
 30
0.0
 10
55.760778
 20
288.399250
 30
0.0
 10
59.115351
 20
288.634400
 30
0.0
 10
62.524838
 20
288.634400
 30
0.0
  0
SPLINE
  5
1e7
100
AcDbEntity
  8
Layer_1
 62
5
100
AcDbSpline
 70
8
 71
3
 72
8
 73
4
 74
0
 40
0
 40
0
 40
0
 40
0
 40
1
 40
1
 40
1
 40
1
 10
62.524838
 20
288.634400
 30
0.0
 10
65.960228
 20
288.634400
 30
0.0
 10
69.339858
 20
288.395670
 30
0.0
 10
72.570008
 20
287.866730
 30
0.0
  0
LINE
  5
1e8
100
AcDbEntity
  8
Layer_1
 62
5
100
AcDbLine
 10
72.570008
 20
287.866730
 30
0.0
 11
72.492008
 21
234.669810
 31
0.0
  0
LINE
  5
1e9
100
AcDbEntity
  8
Layer_1
 62
5
100
AcDbLine
 10
72.492008
 20
234.669810
 30
0.0
 11
75.891998
 21
234.669810
 31
0.0
  0
LINE
  5
1ea
100
AcDbEntity
  8
Layer_1
 62
5
100
AcDbLine
 10
75.891998
 20
234.669810
 30
0.0
 11
75.891998
 21
231.669820
 31
0.0
  0
LINE
  5
1eb
100
AcDbEntity
  8
Layer_1
 62
5
100
AcDbLine
 10
75.891998
 20
231.669820
 30
0.0
 11
74.291988
 21
231.669820
 31
0.0
  0
LINE
  5
1ec
100
AcDbEntity
  8
Layer_1
 62
5
100
AcDbLine
 10
74.291988
 20
231.669820
 30
0.0
 11
74.291988
 21
228.669820
 31
0.0
  0
LINE
  5
1ed
100
AcDbEntity
  8
Layer_1
 62
5
100
AcDbLine
 10
74.291988
 20
228.669820
 30
0.0
 11
75.891998
 21
228.669820
 31
0.0
  0
LINE
  5
1ee
100
AcDbEntity
  8
Layer_1
 62
5
100
AcDbLine
 10
75.891998
 20
228.669820
 30
0.0
 11
75.891998
 21
226.669830
 31
0.0
  0
LINE
  5
1ef
100
AcDbEntity
  8
Layer_1
 62
5
100
AcDbLine
 10
75.891998
 20
226.669830
 30
0.0
 11
79.091978
 21
226.669830
 31
0.0
  0
LINE
  5
1f0
100
AcDbEntity
  8
Layer_1
 62
5
100
AcDbLine
 10
79.091978
 20
226.669830
 30
0.0
 11
79.091978
 21
228.669820
 31
0.0
  0
LINE
  5
1f1
100
AcDbEntity
  8
Layer_1
 62
5
100
AcDbLine
 10
79.091978
 20
228.669820
 30
0.0
 11
80.691978
 21
228.669820
 31
0.0
  0
LINE
  5
1f2
100
AcDbEntity
  8
Layer_1
 62
5
100
AcDbLine
 10
80.691978
 20
228.669820
 30
0.0
 11
80.691978
 21
231.669820
 31
0.0
  0
LINE
  5
1f3
100
AcDbEntity
  8
Layer_1
 62
5
100
AcDbLine
 10
80.691978
 20
231.669820
 30
0.0
 11
79.091968
 21
231.669820
 31
0.0
  0
LINE
  5
1f4
100
AcDbEntity
  8
Layer_1
 62
5
100
AcDbLine
 10
79.091968
 20
231.669820
 30
0.0
 11
79.091968
 21
234.669810
 31
0.0
  0
LINE
  5
1f5
100
AcDbEntity
  8
Layer_1
 62
5
100
AcDbLine
 10
79.091968
 20
234.669810
 30
0.0
 11
82.491988
 21
234.669810
 31
0.0
  0
LINE
  5
1f6
100
AcDbEntity
  8
Layer_1
 62
5
100
AcDbLine
 10
82.491988
 20
234.669810
 30
0.0
 11
82.508588
 21
250.238350
 31
0.0
  0
SPLINE
  5
1f7
100
AcDbEntity
  8
Layer_1
 62
5
100
AcDbSpline
 70
8
 71
3
 72
8
 73
4
 74
0
 40
0
 40
0
 40
0
 40
0
 40
1
 40
1
 40
1
 40
1
 10
82.508588
 20
250.238350
 30
0.0
 10
86.156314
 20
249.350190
 30
0.0
 10
89.670994
 20
248.035550
 30
0.0
 10
92.768544
 20
246.585070
 30
0.0
  0
LINE
  5
1f8
100
AcDbEntity
  8
Layer_1
 62
5
100
AcDbLine
 10
92.768544
 20
246.585070
 30
0.0
 11
92.466274
 21
234.600270
 31
0.0
  0
LINE
  5
1f9
100
AcDbEntity
  8
Layer_1
 62
5
100
AcDbLine
 10
92.466274
 20
234.600270
 30
0.0
 11
92.440574
 21
223.123340
 31
0.0
  0
SPLINE
  5
1fa
100
AcDbEntity
  8
Layer_1
 62
5
100
AcDbSpline
 70
8
 71
3
 72
8
 73
4
 74
0
 40
0
 40
0
 40
0
 40
0
 40
1
 40
1
 40
1
 40
1
 10
92.440574
 20
223.123340
 30
0.0
 10
92.424274
 20
215.849430
 30
0.0
 10
91.128634
 20
208.267130
 30
0.0
 10
86.502474
 20
208.267130
 30
0.0
  0
LINE
  5
1fb
100
AcDbEntity
  8
Layer_1
 62
5
100
AcDbLine
 10
86.502474
 20
208.267130
 30
0.0
 11
76.144268
 21
208.267130
 31
0.0
  0
LINE
  5
1fc
100
AcDbEntity
  8
Layer_1
 62
5
100
AcDbLine
 10
76.144268
 20
208.267130
 30
0.0
 11
76.025878
 21
187.061830
 31
0.0
  0
LINE
  5
1fd
100
AcDbEntity
  8
Layer_1
 62
5
100
AcDbLine
 10
76.025878
 20
187.061830
 30
0.0
 11
76.310838
 21
150.016410
 31
0.0
  0
LINE
  5
1fe
100
AcDbEntity
  8
Layer_1
 62
5
100
AcDbLine
 10
76.310838
 20
150.016410
 30
0.0
 11
76.215688
 21
120.049660
 31
0.0
  0
SPLINE
  5
1ff
100
AcDbEntity
  8
Layer_1
 62
5
100
AcDbSpline
 70
8
 71
3
 72
8
 73
4
 74
0
 40
0
 40
0
 40
0
 40
0
 40
1
 40
1
 40
1
 40
1
 10
76.215688
 20
120.049660
 30
0.0
 10
76.065358
 20
113.033660
 30
0.0
 10
70.800758
 20
107.294380
 30
0.0
 10
64.062178
 20
106.466970
 30
0.0
  0
LINE
  5
200
100
AcDbEntity
  8
Layer_1
 62
5
100
AcDbLine
 10
64.062178
 20
106.466970
 30
0.0
 11
64.092678
 21
197.545330
 31
0.0
  0
LINE
  5
201
100
AcDbEntity
  8
Layer_1
 62
5
100
AcDbLine
 10
64.092678
 20
197.545330
 30
0.0
 11
60.956708
 21
197.545330
 31
0.0
  0
LINE
  5
202
100
AcDbEntity
  8
Layer_1
 62
5
100
AcDbLine
 10
60.956708
 20
197.545330
 30
0.0
 11
60.934608
 21
106.473030
 31
0.0
  0
SPLINE
  5
203
100
AcDbEntity
  8
Layer_1
 62
5
100
AcDbSpline
 70
8
 71
3
 72
8
 73
4
 74
0
 40
0
 40
0
 40
0
 40
0
 40
1
 40
1
 40
1
 40
1
 10
60.934608
 20
106.473030
 30
0.0
 10
54.194359
 20
107.354130
 30
0.0
 10
48.984361
 20
113.069920
 30
0.0
 10
48.889340
 20
120.049720
 30
0.0
  0
LINE
  5
204
100
AcDbEntity
  8
Layer_1
 62
5
100
AcDbLine
 10
48.889340
 20
120.049720
 30
0.0
 11
48.738871
 21
150.290730
 31
0.0
  0
SPLINE
  5
205
100
AcDbEntity
  8
Layer_1
 62
5
100
AcDbSpline
 70
8
 71
3
 72
8
 73
4
 74
0
 40
0
 40
0
 40
0
 40
0
 40
1
 40
1
 40
1
 40
1
 10
184.777848
 20
143.403634
 30
0.0
 10
184.777848
 20
135.881733
 30
0.0
 10
190.875825
 20
129.784548
 30
0.0
 10
198.527397
 20
129.781696
 30
0.0
  0
LINE
  5
206
100
AcDbEntity
  8
Layer_1
 62
5
100
AcDbLine
 10
198.527397
 20
129.781696
 30
0.0
 11
203.809761
 21
129.770980
 31
0.0
  0
LINE
  5
207
100
AcDbEntity
  8
Layer_1
 62
5
100
AcDbLine
 10
203.809761
 20
129.770972
 30
0.0
 11
203.809761
 21
141.933508
 31
0.0
  0
LINE
  5
208
100
AcDbEntity
  8
Layer_1
 62
5
100
AcDbLine
 10
203.809761
 20
141.933508
 30
0.0
 11
195.131222
 21
141.933508
 31
0.0
  0
LINE
  5
209
100
AcDbEntity
  8
Layer_1
 62
5
100
AcDbLine
 10
195.131222
 20
141.933508
 30
0.0
 11
195.131222
 21
144.898733
 31
0.0
  0
LINE
  5
20a
100
AcDbEntity
  8
Layer_1
 62
5
100
AcDbLine
 10
195.131222
 20
144.898733
 30
0.0
 11
203.809761
 21
144.898733
 31
0.0
  0
LINE
  5
20b
100
AcDbEntity
  8
Layer_1
 62
5
100
AcDbLine
 10
203.809761
 20
144.898733
 30
0.0
 11
203.809761
 21
157.060790
 31
0.0
  0
LINE
  5
20c
100
AcDbEntity
  8
Layer_1
 62
5
100
AcDbLine
 10
203.809761
 20
157.060790
 30
0.0
 11
198.534113
 21
157.031297
 31
0.0
  0
SPLINE
  5
20d
100
AcDbEntity
  8
Layer_1
 62
5
100
AcDbSpline
 70
8
 71
3
 72
8
 73
4
 74
0
 40
0
 40
0
 40
0
 40
0
 40
1
 40
1
 40
1
 40
1
 10
198.534113
 20
157.031297
 30
0.0
 10
190.875658
 20
157.023677
 30
0.0
 10
184.777848
 20
150.925616
 30
0.0
 10
184.777848
 20
143.403745
 30
0.0
  0
LINE
  5
20e
100
AcDbEntity
  8
Layer_1
 62
5
100
AcDbLine
 10
184.777848
 20
143.403745
 30
0.0
 11
184.777848
 21
143.403634
 31
0.0
  0
SPLINE
  5
20f
100
AcDbEntity
  8
Layer_1
 62
1
100
AcDbSpline
 70
8
 71
3
 72
8
 73
4
 74
0
 40
0
 40
0
 40
0
 40
0
 40
1
 40
1
 40
1
 40
1
 10
198.365033
 20
137.976289
 30
0.0
 10
198.918796
 20
137.976289
 30
0.0
 10
199.430492
 20
137.680860
 30
0.0
 10
199.707373
 20
137.201290
 30
0.0
  0
SPLINE
  5
210
100
AcDbEntity
  8
Layer_1
 62
1
100
AcDbSpline
 70
8
 71
3
 72
8
 73
4
 74
0
 40
0
 40
0
 40
0
 40
0
 40
1
 40
1
 40
1
 40
1
 10
199.707373
 20
137.201290
 30
0.0
 10
199.984254
 20
136.721716
 30
0.0
 10
199.984254
 20
136.130859
 30
0.0
 10
199.707373
 20
135.651289
 30
0.0
  0
SPLINE
  5
211
100
AcDbEntity
  8
Layer_1
 62
1
100
AcDbSpline
 70
8
 71
3
 72
8
 73
4
 74
0
 40
0
 40
0
 40
0
 40
0
 40
1
 40
1
 40
1
 40
1
 10
199.707373
 20
135.651289
 30
0.0
 10
199.430492
 20
135.171718
 30
0.0
 10
198.918796
 20
134.876290
 30
0.0
 10
198.365033
 20
134.876290
 30
0.0
  0
SPLINE
  5
212
100
AcDbEntity
  8
Layer_1
 62
1
100
AcDbSpline
 70
8
 71
3
 72
8
 73
4
 74
0
 40
0
 40
0
 40
0
 40
0
 40
1
 40
1
 40
1
 40
1
 10
198.365033
 20
134.876290
 30
0.0
 10
197.811271
 20
134.876290
 30
0.0
 10
197.299575
 20
135.171718
 30
0.0
 10
197.022696
 20
135.651289
 30
0.0
  0
SPLINE
  5
213
100
AcDbEntity
  8
Layer_1
 62
1
100
AcDbSpline
 70
8
 71
3
 72
8
 73
4
 74
0
 40
0
 40
0
 40
0
 40
0
 40
1
 40
1
 40
1
 40
1
 10
197.022696
 20
135.651289
 30
0.0
 10
196.745815
 20
136.130859
 30
0.0
 10
196.745815
 20
136.721716
 30
0.0
 10
197.022696
 20
137.201290
 30
0.0
  0
SPLINE
  5
214
100
AcDbEntity
  8
Layer_1
 62
1
100
AcDbSpline
 70
8
 71
3
 72
8
 73
4
 74
0
 40
0
 40
0
 40
0
 40
0
 40
1
 40
1
 40
1
 40
1
 10
197.022696
 20
137.201290
 30
0.0
 10
197.299575
 20
137.680860
 30
0.0
 10
197.811271
 20
137.976289
 30
0.0
 10
198.365033
 20
137.976289
 30
0.0
  0
LINE
  5
215
100
AcDbEntity
  8
Layer_1
 62
1
100
AcDbLine
 10
198.365033
 20
137.976289
 30
0.0
 11
198.365033
 21
137.976289
 31
0.0
  0
SPLINE
  5
216
100
AcDbEntity
  8
Layer_1
 62
1
100
AcDbSpline
 70
8
 71
3
 72
8
 73
4
 74
0
 40
0
 40
0
 40
0
 40
0
 40
1
 40
1
 40
1
 40
1
 10
198.365033
 20
152.183583
 30
0.0
 10
198.918796
 20
152.183583
 30
0.0
 10
199.430492
 20
151.888152
 30
0.0
 10
199.707373
 20
151.408581
 30
0.0
  0
SPLINE
  5
217
100
AcDbEntity
  8
Layer_1
 62
1
100
AcDbSpline
 70
8
 71
3
 72
8
 73
4
 74
0
 40
0
 40
0
 40
0
 40
0
 40
1
 40
1
 40
1
 40
1
 10
199.707373
 20
151.408581
 30
0.0
 10
199.984254
 20
150.929011
 30
0.0
 10
199.984254
 20
150.338154
 30
0.0
 10
199.707373
 20
149.858581
 30
0.0
  0
SPLINE
  5
218
100
AcDbEntity
  8
Layer_1
 62
1
100
AcDbSpline
 70
8
 71
3
 72
8
 73
4
 74
0
 40
0
 40
0
 40
0
 40
0
 40
1
 40
1
 40
1
 40
1
 10
199.707373
 20
149.858581
 30
0.0
 10
199.430492
 20
149.379010
 30
0.0
 10
198.918796
 20
149.083582
 30
0.0
 10
198.365033
 20
149.083582
 30
0.0
  0
SPLINE
  5
219
100
AcDbEntity
  8
Layer_1
 62
1
100
AcDbSpline
 70
8
 71
3
 72
8
 73
4
 74
0
 40
0
 40
0
 40
0
 40
0
 40
1
 40
1
 40
1
 40
1
 10
198.365033
 20
149.083582
 30
0.0
 10
197.811271
 20
149.083582
 30
0.0
 10
197.299575
 20
149.379010
 30
0.0
 10
197.022696
 20
149.858581
 30
0.0
  0
SPLINE
  5
21a
100
AcDbEntity
  8
Layer_1
 62
1
100
AcDbSpline
 70
8
 71
3
 72
8
 73
4
 74
0
 40
0
 40
0
 40
0
 40
0
 40
1
 40
1
 40
1
 40
1
 10
197.022696
 20
149.858581
 30
0.0
 10
196.745815
 20
150.338154
 30
0.0
 10
196.745815
 20
150.929011
 30
0.0
 10
197.022696
 20
151.408581
 30
0.0
  0
SPLINE
  5
21b
100
AcDbEntity
  8
Layer_1
 62
1
100
AcDbSpline
 70
8
 71
3
 72
8
 73
4
 74
0
 40
0
 40
0
 40
0
 40
0
 40
1
 40
1
 40
1
 40
1
 10
197.022696
 20
151.408581
 30
0.0
 10
197.299575
 20
151.888152
 30
0.0
 10
197.811271
 20
152.183583
 30
0.0
 10
198.365033
 20
152.183583
 30
0.0
  0
LINE
  5
21c
100
AcDbEntity
  8
Layer_1
 62
1
100
AcDbLine
 10
198.365033
 20
152.183583
 30
0.0
 11
198.365033
 21
152.183583
 31
0.0
  0
SPLINE
  5
21d
100
AcDbEntity
  8
Layer_1
 62
5
100
AcDbSpline
 70
8
 71
3
 72
8
 73
4
 74
0
 40
0
 40
0
 40
0
 40
0
 40
1
 40
1
 40
1
 40
1
 10
203.562519
 20
183.791639
 30
0.0
 10
203.562519
 20
191.313540
 30
0.0
 10
197.464542
 20
197.410725
 30
0.0
 10
189.812970
 20
197.413574
 30
0.0
  0
LINE
  5
21e
100
AcDbEntity
  8
Layer_1
 62
5
100
AcDbLine
 10
189.812970
 20
197.413574
 30
0.0
 11
184.530606
 21
197.424290
 31
0.0
  0
LINE
  5
21f
100
AcDbEntity
  8
Layer_1
 62
5
100
AcDbLine
 10
184.530606
 20
197.424298
 30
0.0
 11
184.530606
 21
185.261762
 31
0.0
  0
LINE
  5
220
100
AcDbEntity
  8
Layer_1
 62
5
100
AcDbLine
 10
184.530606
 20
185.261762
 30
0.0
 11
193.209145
 21
185.261762
 31
0.0
  0
LINE
  5
221
100
AcDbEntity
  8
Layer_1
 62
5
100
AcDbLine
 10
193.209145
 20
185.261762
 30
0.0
 11
193.209145
 21
182.296540
 31
0.0
  0
LINE
  5
222
100
AcDbEntity
  8
Layer_1
 62
5
100
AcDbLine
 10
193.209145
 20
182.296540
 30
0.0
 11
184.530606
 21
182.296540
 31
0.0
  0
LINE
  5
223
100
AcDbEntity
  8
Layer_1
 62
5
100
AcDbLine
 10
184.530606
 20
182.296540
 30
0.0
 11
184.530606
 21
170.134482
 31
0.0
  0
LINE
  5
224
100
AcDbEntity
  8
Layer_1
 62
5
100
AcDbLine
 10
184.530606
 20
170.134482
 30
0.0
 11
189.806255
 21
170.163973
 31
0.0
  0
SPLINE
  5
225
100
AcDbEntity
  8
Layer_1
 62
5
100
AcDbSpline
 70
8
 71
3
 72
8
 73
4
 74
0
 40
0
 40
0
 40
0
 40
0
 40
1
 40
1
 40
1
 40
1
 10
189.806255
 20
170.163973
 30
0.0
 10
197.464709
 20
170.171593
 30
0.0
 10
203.562519
 20
176.269654
 30
0.0
 10
203.562519
 20
183.791525
 30
0.0
  0
LINE
  5
226
100
AcDbEntity
  8
Layer_1
 62
5
100
AcDbLine
 10
203.562519
 20
183.791525
 30
0.0
 11
203.562519
 21
183.791639
 31
0.0
  0
SPLINE
  5
227
100
AcDbEntity
  8
Layer_1
 62
1
100
AcDbSpline
 70
8
 71
3
 72
8
 73
4
 74
0
 40
0
 40
0
 40
0
 40
0
 40
1
 40
1
 40
1
 40
1
 10
189.975334
 20
189.218981
 30
0.0
 10
189.421572
 20
189.218981
 30
0.0
 10
188.909875
 20
189.514410
 30
0.0
 10
188.632994
 20
189.993983
 30
0.0
  0
SPLINE
  5
228
100
AcDbEntity
  8
Layer_1
 62
1
100
AcDbSpline
 70
8
 71
3
 72
8
 73
4
 74
0
 40
0
 40
0
 40
0
 40
0
 40
1
 40
1
 40
1
 40
1
 10
188.632994
 20
189.993983
 30
0.0
 10
188.356113
 20
190.473554
 30
0.0
 10
188.356113
 20
191.064411
 30
0.0
 10
188.632994
 20
191.543981
 30
0.0
  0
SPLINE
  5
229
100
AcDbEntity
  8
Layer_1
 62
1
100
AcDbSpline
 70
8
 71
3
 72
8
 73
4
 74
0
 40
0
 40
0
 40
0
 40
0
 40
1
 40
1
 40
1
 40
1
 10
188.632994
 20
191.543981
 30
0.0
 10
188.909875
 20
192.023554
 30
0.0
 10
189.421572
 20
192.318983
 30
0.0
 10
189.975334
 20
192.318983
 30
0.0
  0
SPLINE
  5
22a
100
AcDbEntity
  8
Layer_1
 62
1
100
AcDbSpline
 70
8
 71
3
 72
8
 73
4
 74
0
 40
0
 40
0
 40
0
 40
0
 40
1
 40
1
 40
1
 40
1
 10
189.975334
 20
192.318983
 30
0.0
 10
190.529096
 20
192.318983
 30
0.0
 10
191.040792
 20
192.023554
 30
0.0
 10
191.317671
 20
191.543981
 30
0.0
  0
SPLINE
  5
22b
100
AcDbEntity
  8
Layer_1
 62
1
100
AcDbSpline
 70
8
 71
3
 72
8
 73
4
 74
0
 40
0
 40
0
 40
0
 40
0
 40
1
 40
1
 40
1
 40
1
 10
191.317671
 20
191.543981
 30
0.0
 10
191.594552
 20
191.064411
 30
0.0
 10
191.594552
 20
190.473554
 30
0.0
 10
191.317671
 20
189.993983
 30
0.0
  0
SPLINE
  5
22c
100
AcDbEntity
  8
Layer_1
 62
1
100
AcDbSpline
 70
8
 71
3
 72
8
 73
4
 74
0
 40
0
 40
0
 40
0
 40
0
 40
1
 40
1
 40
1
 40
1
 10
191.317671
 20
189.993983
 30
0.0
 10
191.040792
 20
189.514410
 30
0.0
 10
190.529096
 20
189.218981
 30
0.0
 10
189.975334
 20
189.218981
 30
0.0
  0
LINE
  5
22d
100
AcDbEntity
  8
Layer_1
 62
1
100
AcDbLine
 10
189.975334
 20
189.218981
 30
0.0
 11
189.975334
 21
189.218981
 31
0.0
  0
SPLINE
  5
22e
100
AcDbEntity
  8
Layer_1
 62
1
100
AcDbSpline
 70
8
 71
3
 72
8
 73
4
 74
0
 40
0
 40
0
 40
0
 40
0
 40
1
 40
1
 40
1
 40
1
 10
189.975334
 20
175.011690
 30
0.0
 10
189.421572
 20
175.011690
 30
0.0
 10
188.909875
 20
175.307118
 30
0.0
 10
188.632994
 20
175.786689
 30
0.0
  0
SPLINE
  5
22f
100
AcDbEntity
  8
Layer_1
 62
1
100
AcDbSpline
 70
8
 71
3
 72
8
 73
4
 74
0
 40
0
 40
0
 40
0
 40
0
 40
1
 40
1
 40
1
 40
1
 10
188.632994
 20
175.786689
 30
0.0
 10
188.356113
 20
176.266262
 30
0.0
 10
188.356113
 20
176.857116
 30
0.0
 10
188.632994
 20
177.336689
 30
0.0
  0
SPLINE
  5
230
100
AcDbEntity
  8
Layer_1
 62
1
100
AcDbSpline
 70
8
 71
3
 72
8
 73
4
 74
0
 40
0
 40
0
 40
0
 40
0
 40
1
 40
1
 40
1
 40
1
 10
188.632994
 20
177.336689
 30
0.0
 10
188.909875
 20
177.816260
 30
0.0
 10
189.421572
 20
178.111688
 30
0.0
 10
189.975334
 20
178.111688
 30
0.0
  0
SPLINE
  5
231
100
AcDbEntity
  8
Layer_1
 62
1
100
AcDbSpline
 70
8
 71
3
 72
8
 73
4
 74
0
 40
0
 40
0
 40
0
 40
0
 40
1
 40
1
 40
1
 40
1
 10
189.975334
 20
178.111688
 30
0.0
 10
190.529096
 20
178.111688
 30
0.0
 10
191.040792
 20
177.816260
 30
0.0
 10
191.317671
 20
177.336689
 30
0.0
  0
SPLINE
  5
232
100
AcDbEntity
  8
Layer_1
 62
1
100
AcDbSpline
 70
8
 71
3
 72
8
 73
4
 74
0
 40
0
 40
0
 40
0
 40
0
 40
1
 40
1
 40
1
 40
1
 10
191.317671
 20
177.336689
 30
0.0
 10
191.594552
 20
176.857116
 30
0.0
 10
191.594552
 20
176.266262
 30
0.0
 10
191.317671
 20
175.786689
 30
0.0
  0
SPLINE
  5
233
100
AcDbEntity
  8
Layer_1
 62
1
100
AcDbSpline
 70
8
 71
3
 72
8
 73
4
 74
0
 40
0
 40
0
 40
0
 40
0
 40
1
 40
1
 40
1
 40
1
 10
191.317671
 20
175.786689
 30
0.0
 10
191.040792
 20
175.307118
 30
0.0
 10
190.529096
 20
175.011690
 30
0.0
 10
189.975334
 20
175.011690
 30
0.0
  0
LINE
  5
234
100
AcDbEntity
  8
Layer_1
 62
1
100
AcDbLine
 10
189.975334
 20
175.011690
 30
0.0
 11
189.975334
 21
175.011690
 31
0.0
  0
ENDSEC
  0
SECTION
  2
OBJECTS
  0
DICTIONARY
  5
C
330
0
100
AcDbDictionary
  3
ACAD_GROUP
350
D
  3
ACAD_MLINESTYLE
350
17
  0
DICTIONARY
  5
D
330
C
100
AcDbDictionary
  0
DICTIONARY
  5
1A
330
C
100
AcDbDictionary
  0
DICTIONARY
  5
17
330
C
100
AcDbDictionary
  3
STANDARD
350
18
  0
DICTIONARY
  5
19
330
C
100
AcDbDictionary
  0
ENDSEC
  0
EOF
