  0
SECTION
  2
HEADER
  9
$ACADVER
  1
AC1018
  9
$ACADMAINTVER
 70
     0
  9
$DWGCODEPAGE
  3
ANSI_932
  9
$INSBASE
 10
0.0
 20
0.0
 30
0.0
  9
$EXTMIN
 10
1.000000000000000E+20
 20
1.000000000000000E+20
 30
1.000000000000000E+20
  9
$EXTMAX
 10
-1.000000000000000E+20
 20
-1.000000000000000E+20
 30
-1.000000000000000E+20
  9
$LIMMIN
 10
0.0
 20
0.0
  9
$LIMMAX
 10
12.0
 20
9.0
  9
$ORTHOMODE
 70
     0
  9
$REGENMODE
 70
     1
  9
$FILLMODE
 70
     1
  9
$QTEXTMODE
 70
     0
  9
$MIRRTEXT
 70
     1
  9
$LTSCALE
 40
1.0
  9
$ATTMODE
 70
     1
  9
$TEXTSIZE
 40
0.2
  9
$TRACEWID
 40
0.05
  9
$TEXTSTYLE
  7
Standard
  9
$CLAYER
  8
0
  9
$CELTYPE
  6
ByLayer
  9
$CECOLOR
 62
   256
  9
$CELTSCALE
 40
1.0
  9
$DISPSILH
 70
     0
  9
$DIMSCALE
 40
1.0
  9
$DIMASZ
 40
0.18
  9
$DIMEXO
 40
0.0625
  9
$DIMDLI
 40
0.38
  9
$DIMRND
 40
0.0
  9
$DIMDLE
 40
0.0
  9
$DIMEXE
 40
0.18
  9
$DIMTP
 40
0.0
  9
$DIMTM
 40
0.0
  9
$DIMTXT
 40
0.18
  9
$DIMCEN
 40
0.09
  9
$DIMTSZ
 40
0.0
  9
$DIMTOL
 70
     0
  9
$DIMLIM
 70
     0
  9
$DIMTIH
 70
     1
  9
$DIMTOH
 70
     1
  9
$DIMSE1
 70
     0
  9
$DIMSE2
 70
     0
  9
$DIMTAD
 70
     0
  9
$DIMZIN
 70
     0
  9
$DIMBLK
  1

  9
$DIMASO
 70
     1
  9
$DIMSHO
 70
     1
  9
$DIMPOST
  1

  9
$DIMAPOST
  1

  9
$DIMALT
 70
     0
  9
$DIMALTD
 70
     2
  9
$DIMALTF
 40
25.4
  9
$DIMLFAC
 40
1.0
  9
$DIMTOFL
 70
     0
  9
$DIMTVP
 40
0.0
  9
$DIMTIX
 70
     0
  9
$DIMSOXD
 70
     0
  9
$DIMSAH
 70
     0
  9
$DIMBLK1
  1

  9
$DIMBLK2
  1

  9
$DIMSTYLE
  2
Standard
  9
$DIMCLRD
 70
     0
  9
$DIMCLRE
 70
     0
  9
$DIMCLRT
 70
     0
  9
$DIMTFAC
 40
1.0
  9
$DIMGAP
 40
0.09
  9
$DIMJUST
 70
     0
  9
$DIMSD1
 70
     0
  9
$DIMSD2
 70
     0
  9
$DIMTOLJ
 70
     1
  9
$DIMTZIN
 70
     0
  9
$DIMALTZ
 70
     0
  9
$DIMALTTZ
 70
     0
  9
$DIMUPT
 70
     0
  9
$DIMDEC
 70
     4
  9
$DIMTDEC
 70
     4
  9
$DIMALTU
 70
     2
  9
$DIMALTTD
 70
     2
  9
$DIMTXSTY
  7
Standard
  9
$DIMAUNIT
 70
     0
  9
$DIMADEC
 70
     0
  9
$DIMALTRND
 40
0.0
  9
$DIMAZIN
 70
     0
  9
$DIMDSEP
 70
    46
  9
$DIMATFIT
 70
     3
  9
$DIMFRAC
 70
     0
  9
$DIMLDRBLK
  1

  9
$DIMLUNIT
 70
     2
  9
$DIMLWD
 70
    -2
  9
$DIMLWE
 70
    -2
  9
$DIMTMOVE
 70
     0
  9
$LUNITS
 70
     2
  9
$LUPREC
 70
     4
  9
$SKETCHINC
 40
0.1
  9
$FILLETRAD
 40
0.5
  9
$AUNITS
 70
     0
  9
$AUPREC
 70
     0
  9
$MENU
  1
.
  9
$ELEVATION
 40
0.0
  9
$PELEVATION
 40
0.0
  9
$THICKNESS
 40
0.0
  9
$LIMCHECK
 70
     0
  9
$CHAMFERA
 40
0.5
  9
$CHAMFERB
 40
0.5
  9
$CHAMFERC
 40
1.0
  9
$CHAMFERD
 40
0.0
  9
$SKPOLY
 70
     0
  9
$TDCREATE
 40
2457109.630208333
  9
$TDUCREATE
 40
2457109.630208333
  9
$TDUPDATE
 40
2457109.630208345
  9
$TDUUPDATE
 40
2457109.630208345
  9
$TDINDWG
 40
0.0000000116
  9
$TDUSRTIMER
 40
0.0000000116
  9
$USRTIMER
 70
     1
  9
$ANGBASE
 50
0.0
  9
$ANGDIR
 70
     0
  9
$PDMODE
 70
     0
  9
$PDSIZE
 40
0.0
  9
$PLINEWID
 40
0.0
  9
$SPLFRAME
 70
     0
  9
$SPLINETYPE
 70
     6
  9
$SPLINESEGS
 70
     8
  9
$HANDSEED
  5
672
  9
$SURFTAB1
 70
     6
  9
$SURFTAB2
 70
     6
  9
$SURFTYPE
 70
     6
  9
$SURFU
 70
     6
  9
$SURFV
 70
     6
  9
$UCSBASE
  2

  9
$UCSNAME
  2

  9
$UCSORG
 10
0.0
 20
0.0
 30
0.0
  9
$UCSXDIR
 10
1.0
 20
0.0
 30
0.0
  9
$UCSYDIR
 10
0.0
 20
1.0
 30
0.0
  9
$UCSORTHOREF
  2

  9
$UCSORTHOVIEW
 70
     0
  9
$UCSORGTOP
 10
0.0
 20
0.0
 30
0.0
  9
$UCSORGBOTTOM
 10
0.0
 20
0.0
 30
0.0
  9
$UCSORGLEFT
 10
0.0
 20
0.0
 30
0.0
  9
$UCSORGRIGHT
 10
0.0
 20
0.0
 30
0.0
  9
$UCSORGFRONT
 10
0.0
 20
0.0
 30
0.0
  9
$UCSORGBACK
 10
0.0
 20
0.0
 30
0.0
  9
$PUCSBASE
  2

  9
$PUCSNAME
  2

  9
$PUCSORG
 10
0.0
 20
0.0
 30
0.0
  9
$PUCSXDIR
 10
1.0
 20
0.0
 30
0.0
  9
$PUCSYDIR
 10
0.0
 20
1.0
 30
0.0
  9
$PUCSORTHOREF
  2

  9
$PUCSORTHOVIEW
 70
     0
  9
$PUCSORGTOP
 10
0.0
 20
0.0
 30
0.0
  9
$PUCSORGBOTTOM
 10
0.0
 20
0.0
 30
0.0
  9
$PUCSORGLEFT
 10
0.0
 20
0.0
 30
0.0
  9
$PUCSORGRIGHT
 10
0.0
 20
0.0
 30
0.0
  9
$PUCSORGFRONT
 10
0.0
 20
0.0
 30
0.0
  9
$PUCSORGBACK
 10
0.0
 20
0.0
 30
0.0
  9
$USERI1
 70
     0
  9
$USERI2
 70
     0
  9
$USERI3
 70
     0
  9
$USERI4
 70
     0
  9
$USERI5
 70
     0
  9
$USERR1
 40
0.0
  9
$USERR2
 40
0.0
  9
$USERR3
 40
0.0
  9
$USERR4
 40
0.0
  9
$USERR5
 40
0.0
  9
$WORLDVIEW
 70
     1
  9
$SHADEDGE
 70
     3
  9
$SHADEDIF
 70
    70
  9
$TILEMODE
 70
     1
  9
$MAXACTVP
 70
    64
  9
$PINSBASE
 10
0.0
 20
0.0
 30
0.0
  9
$PLIMCHECK
 70
     0
  9
$PEXTMIN
 10
1.000000000000000E+20
 20
1.000000000000000E+20
 30
1.000000000000000E+20
  9
$PEXTMAX
 10
-1.000000000000000E+20
 20
-1.000000000000000E+20
 30
-1.000000000000000E+20
  9
$PLIMMIN
 10
0.0
 20
0.0
  9
$PLIMMAX
 10
12.0
 20
9.0
  9
$UNITMODE
 70
     0
  9
$VISRETAIN
 70
     1
  9
$PLINEGEN
 70
     0
  9
$PSLTSCALE
 70
     1
  9
$TREEDEPTH
 70
  3020
  9
$CMLSTYLE
  2
Standard
  9
$CMLJUST
 70
     0
  9
$CMLSCALE
 40
1.0
  9
$PROXYGRAPHICS
 70
     1
  9
$MEASUREMENT
 70
     0
  9
$CELWEIGHT
370
    -1
  9
$ENDCAPS
280
     0
  9
$JOINSTYLE
280
     0
  9
$LWDISPLAY
290
     1
  9
$INSUNITS
 70
     1
  9
$HYPERLINKBASE
  1

  9
$STYLESHEET
  1

  9
$XEDIT
290
     1
  9
$CEPSNTYPE
380
     0
  9
$PSTYLEMODE
290
     1
  9
$FINGERPRINTGUID
  2
{EE6B36E8-6B6A-3662-1867-C1D6E6DC21D3}
  9
$VERSIONGUID
  2
{FAEB1C32-E019-11D5-929B-00C0DF256EC4}
  9
$EXTNAMES
290
     1
  9
$PSVPSCALE
 40
0.0
  9
$OLESTARTUP
290
     0
  9
$SORTENTS
280
   127
  9
$INDEXCTL
280
     0
  9
$HIDETEXT
280
     1
  9
$XCLIPFRAME
290
     0
  9
$HALOGAP
280
     0
  9
$OBSCOLOR
 70
   257
  9
$OBSLTYPE
280
     0
  9
$INTERSECTIONDISPLAY
280
     0
  9
$INTERSECTIONCOLOR
 70
   257
  9
$DIMASSOC
280
     2
  9
$PROJECTNAME
  1

  0
ENDSEC
  0
SECTION
  2
CLASSES
  0
CLASS
  1
ACDBDICTIONARYWDFLT
  2
AcDbDictionaryWithDefault
  3
ObjectDBX Classes
 90
        0
 91
        3
280
     0
281
     0
  0
CLASS
  1
VISUALSTYLE
  2
AcDbVisualStyle
  3
ObjectDBX Classes
 90
     4095
 91
        3
280
     0
281
     0
  0
ENDSEC
  0
SECTION
  2
TABLES
  0
TABLE
  2
VPORT
  5
8
330
0
100
AcDbSymbolTable
 70
     1
  0
VPORT
  5
29
330
8
100
AcDbSymbolTableRecord
100
AcDbViewportTableRecord
  2
*Active
 70
     0
 10
0.0
 20
0.0
 11
1.0
 21
1.0
 12
0.0
 22
0.0
 13
0.0
 23
0.0
 14
0.5
 24
0.5
 15
0.5
 25
0.5
 16
0.0
 26
0.0
 36
1.0
 17
148.4999796178229
 27
209.9997571632119
 37
0.0
 40
419.9995143264238
 41
0.7071435778014196
 42
50.0
 43
0.0
 44
0.0
 50
0.0
 51
0.0
 71
     0
 72
   100
 73
     1
 74
     3
 75
     0
 76
     0
 77
     0
 78
     0
281
     0
 65
     1
110
0.0
120
0.0
130
0.0
111
1.0
121
0.0
131
0.0
112
0.0
122
1.0
132
0.0
 79
     0
146
0.0
  0
ENDTAB
  0
TABLE
  2
LTYPE
  5
5
330
0
100
AcDbSymbolTable
 70
     1
  0
LTYPE
  5
14
330
5
100
AcDbSymbolTableRecord
100
AcDbLinetypeTableRecord
  2
ByBlock
 70
     0
  3

 72
    65
 73
     0
 40
0.0
  0
LTYPE
  5
15
330
5
100
AcDbSymbolTableRecord
100
AcDbLinetypeTableRecord
  2
ByLayer
 70
     0
  3

 72
    65
 73
     0
 40
0.0
  0
LTYPE
  5
16
330
5
100
AcDbSymbolTableRecord
100
AcDbLinetypeTableRecord
  2
Continuous
 70
     0
  3
Solid line
 72
    65
 73
     0
 40
0.0
  0
ENDTAB
  0
TABLE
  2
LAYER
  5
2
330
0
100
AcDbSymbolTable
 70
     2
  0
LAYER
  5
10
330
2
100
AcDbSymbolTableRecord
100
AcDbLayerTableRecord
  2
0
 70
     0
 62
     7
  6
Continuous
370
    -3
390
F
  0
LAYER
  5
3B
330
2
100
AcDbSymbolTableRecord
100
AcDbLayerTableRecord
  2
Layer 1
 70
     0
 62
     7
  6
Continuous
370
    -3
390
F
  0
ENDTAB
  0
TABLE
  2
STYLE
  5
3
330
0
100
AcDbSymbolTable
 70
     1
  0
STYLE
  5
11
330
3
100
AcDbSymbolTableRecord
100
AcDbTextStyleTableRecord
  2
Standard
 70
     0
 40
0.0
 41
1.0
 50
0.0
 71
     0
 42
0.2
  3
txt
  4

  0
ENDTAB
  0
TABLE
  2
VIEW
  5
6
330
0
100
AcDbSymbolTable
 70
     0
  0
ENDTAB
  0
TABLE
  2
UCS
  5
7
330
0
100
AcDbSymbolTable
 70
     0
  0
ENDTAB
  0
TABLE
  2
APPID
  5
9
330
0
100
AcDbSymbolTable
 70
     1
  0
APPID
  5
12
330
9
100
AcDbSymbolTableRecord
100
AcDbRegAppTableRecord
  2
ACAD
 70
     0
  0
ENDTAB
  0
TABLE
  2
DIMSTYLE
  5
A
330
0
100
AcDbSymbolTable
 70
     1
100
AcDbDimStyleTable
  0
DIMSTYLE
105
27
330
A
100
AcDbSymbolTableRecord
100
AcDbDimStyleTableRecord
  2
Standard
 70
     0
340
11
  0
ENDTAB
  0
TABLE
  2
BLOCK_RECORD
  5
1
330
0
100
AcDbSymbolTable
 70
     2
  0
BLOCK_RECORD
  5
1F
330
1
100
AcDbSymbolTableRecord
100
AcDbBlockTableRecord
  2
*Model_Space
340
22
  0
BLOCK_RECORD
  5
1B
330
1
100
AcDbSymbolTableRecord
100
AcDbBlockTableRecord
  2
*Paper_Space
340
1E
  0
BLOCK_RECORD
  5
23
330
1
100
AcDbSymbolTableRecord
100
AcDbBlockTableRecord
  2
*Paper_Space0
340
26
  0
BLOCK_RECORD
  5
3C
330
1
100
AcDbSymbolTableRecord
100
AcDbBlockTableRecord
  2
block 2
340
0
102
{BLKREFS
331
3D
102
}
  0
ENDTAB
  0
ENDSEC
  0
SECTION
  2
BLOCKS
  0
BLOCK
  5
20
330
1F
100
AcDbEntity
  8
0
100
AcDbBlockBegin
  2
*Model_Space
 70
     0
 71
     0
 10
0.0
 20
0.0
 30
0.0
  3
*Model_Space
  1

  0
ENDBLK
  5
21
330
1F
100
AcDbEntity
  8
0
100
AcDbBlockEnd
  0
BLOCK
  5
1C
330
1B
100
AcDbEntity
 67
     1
  8
0
100
AcDbBlockBegin
  2
*Paper_Space
 70
     0
 71
     0
 10
0.0
 20
0.0
 30
0.0
  3
*Paper_Space
  1

  0
ENDBLK
  5
1D
330
1B
100
AcDbEntity
 67
     1
  8
0
100
AcDbBlockEnd
  0
BLOCK
  5
24
330
23
100
AcDbEntity
  8
0
100
AcDbBlockBegin
  2
*Paper_Space0
 70
     0
 71
     0
 10
0.0
 20
0.0
 30
0.0
  3
*Paper_Space0
  1

  0
ENDBLK
  5
25
330
23
100
AcDbEntity
  8
0
100
AcDbBlockEnd
  0
BLOCK
  5
3E
330
3C
100
AcDbEntity
  8
0
100
AcDbBlockBegin
  2
block 2
 70
     0
 71
     0
 10
0.0
 20
0.0
 30
0.0
  3
block 2
  1

  0
POLYLINE
  5
40
330
3C
100
AcDbEntity
  8
Layer 1
370
     0
100
AcDb2dPolyline
 66
     1
 10
0.0
 20
0.0
 30
0.0
  0
VERTEX
  5
41
330
40
100
AcDbEntity
  8
Layer 1
370
     0
100
AcDbVertex
100
AcDb2dVertex
 10
142.3206841007046
 20
350.8977890832825
 30
0.0
  0
VERTEX
  5
42
330
40
100
AcDbEntity
  8
Layer 1
370
     0
100
AcDbVertex
100
AcDb2dVertex
 10
141.3181613144968
 20
349.1593939014255
 30
0.0
  0
VERTEX
  5
43
330
40
100
AcDbEntity
  8
Layer 1
370
     0
100
AcDbVertex
100
AcDb2dVertex
 10
139.3110486847903
 20
349.1593939014255
 30
0.0
  0
VERTEX
  5
44
330
40
100
AcDbEntity
  8
Layer 1
370
     0
100
AcDbVertex
100
AcDb2dVertex
 10
138.3078368794855
 20
350.8977890832825
 30
0.0
  0
VERTEX
  5
45
330
40
100
AcDbEntity
  8
Layer 1
370
     0
100
AcDbVertex
100
AcDb2dVertex
 10
139.3110486847903
 20
352.635150736494
 30
0.0
  0
VERTEX
  5
46
330
40
100
AcDbEntity
  8
Layer 1
370
     0
100
AcDbVertex
100
AcDb2dVertex
 10
141.3181613144968
 20
352.635150736494
 30
0.0
  0
VERTEX
  5
47
330
40
100
AcDbEntity
  8
Layer 1
370
     0
100
AcDbVertex
100
AcDb2dVertex
 10
142.3206841007046
 20
350.8977890832825
 30
0.0
  0
SEQEND
  5
48
330
40
100
AcDbEntity
  8
Layer 1
370
     0
  0
POLYLINE
  5
49
330
3C
100
AcDbEntity
  8
Layer 1
370
     0
100
AcDb2dPolyline
 66
     1
 10
0.0
 20
0.0
 30
0.0
  0
VERTEX
  5
4A
330
49
100
AcDbEntity
  8
Layer 1
370
     0
100
AcDbVertex
100
AcDb2dVertex
 10
142.3206841007046
 20
355.5407442687537
 30
0.0
  0
VERTEX
  5
4B
330
49
100
AcDbEntity
  8
Layer 1
370
     0
100
AcDbVertex
100
AcDb2dVertex
 10
141.3181613144968
 20
353.8026935964452
 30
0.0
  0
VERTEX
  5
4C
330
49
100
AcDbEntity
  8
Layer 1
370
     0
100
AcDbVertex
100
AcDb2dVertex
 10
139.3110486847903
 20
353.8026935964452
 30
0.0
  0
VERTEX
  5
4D
330
49
100
AcDbEntity
  8
Layer 1
370
     0
100
AcDbVertex
100
AcDb2dVertex
 10
138.3078368794855
 20
355.5407442687537
 30
0.0
  0
VERTEX
  5
4E
330
49
100
AcDbEntity
  8
Layer 1
370
     0
100
AcDbVertex
100
AcDb2dVertex
 10
139.3110486847903
 20
357.2784504315138
 30
0.0
  0
VERTEX
  5
4F
330
49
100
AcDbEntity
  8
Layer 1
370
     0
100
AcDbVertex
100
AcDb2dVertex
 10
141.3181613144968
 20
357.2784504315138
 30
0.0
  0
VERTEX
  5
50
330
49
100
AcDbEntity
  8
Layer 1
370
     0
100
AcDbVertex
100
AcDb2dVertex
 10
142.3206841007046
 20
355.5407442687537
 30
0.0
  0
SEQEND
  5
51
330
49
100
AcDbEntity
  8
Layer 1
370
     0
  0
POLYLINE
  5
52
330
3C
100
AcDbEntity
  8
Layer 1
370
     0
100
AcDb2dPolyline
 66
     1
 10
0.0
 20
0.0
 30
0.0
  0
VERTEX
  5
53
330
52
100
AcDbEntity
  8
Layer 1
370
     0
100
AcDbVertex
100
AcDb2dVertex
 10
142.3206841007046
 20
346.181797873524
 30
0.0
  0
VERTEX
  5
54
330
52
100
AcDbEntity
  8
Layer 1
370
     0
100
AcDbVertex
100
AcDb2dVertex
 10
141.3181613144968
 20
344.443402691667
 30
0.0
  0
VERTEX
  5
55
330
52
100
AcDbEntity
  8
Layer 1
370
     0
100
AcDbVertex
100
AcDb2dVertex
 10
139.3110486847903
 20
344.443402691667
 30
0.0
  0
VERTEX
  5
56
330
52
100
AcDbEntity
  8
Layer 1
370
     0
100
AcDbVertex
100
AcDb2dVertex
 10
138.3078368794855
 20
346.181797873524
 30
0.0
  0
VERTEX
  5
57
330
52
100
AcDbEntity
  8
Layer 1
370
     0
100
AcDbVertex
100
AcDb2dVertex
 10
139.3110486847903
 20
347.919504036284
 30
0.0
  0
VERTEX
  5
58
330
52
100
AcDbEntity
  8
Layer 1
370
     0
100
AcDbVertex
100
AcDb2dVertex
 10
141.3181613144968
 20
347.919504036284
 30
0.0
  0
VERTEX
  5
59
330
52
100
AcDbEntity
  8
Layer 1
370
     0
100
AcDbVertex
100
AcDb2dVertex
 10
142.3206841007046
 20
346.181797873524
 30
0.0
  0
SEQEND
  5
5A
330
52
100
AcDbEntity
  8
Layer 1
370
     0
  0
POLYLINE
  5
5B
330
3C
100
AcDbEntity
  8
Layer 1
370
     0
100
AcDb2dPolyline
 66
     1
 10
0.0
 20
0.0
 30
0.0
  0
VERTEX
  5
5C
330
5B
100
AcDbEntity
  8
Layer 1
370
     0
100
AcDbVertex
100
AcDb2dVertex
 10
142.3206841007046
 20
360.1654404481531
 30
0.0
  0
VERTEX
  5
5D
330
5B
100
AcDbEntity
  8
Layer 1
370
     0
100
AcDbVertex
100
AcDb2dVertex
 10
141.3181613144968
 20
358.4273897758446
 30
0.0
  0
VERTEX
  5
5E
330
5B
100
AcDbEntity
  8
Layer 1
370
     0
100
AcDbVertex
100
AcDb2dVertex
 10
139.3110486847903
 20
358.4273897758446
 30
0.0
  0
VERTEX
  5
5F
330
5B
100
AcDbEntity
  8
Layer 1
370
     0
100
AcDbVertex
100
AcDb2dVertex
 10
138.3078368794855
 20
360.1654404481531
 30
0.0
  0
VERTEX
  5
60
330
5B
100
AcDbEntity
  8
Layer 1
370
     0
100
AcDbVertex
100
AcDb2dVertex
 10
139.3110486847903
 20
361.9034911204616
 30
0.0
  0
VERTEX
  5
61
330
5B
100
AcDbEntity
  8
Layer 1
370
     0
100
AcDbVertex
100
AcDb2dVertex
 10
141.3181613144968
 20
361.9034911204616
 30
0.0
  0
VERTEX
  5
62
330
5B
100
AcDbEntity
  8
Layer 1
370
     0
100
AcDbVertex
100
AcDb2dVertex
 10
142.3206841007046
 20
360.1654404481531
 30
0.0
  0
SEQEND
  5
63
330
5B
100
AcDbEntity
  8
Layer 1
370
     0
  0
POLYLINE
  5
64
330
3C
100
AcDbEntity
  8
Layer 1
370
     0
100
AcDb2dPolyline
 66
     1
 10
0.0
 20
0.0
 30
0.0
  0
VERTEX
  5
65
330
64
100
AcDbEntity
  8
Layer 1
370
     0
100
AcDbVertex
100
AcDb2dVertex
 10
146.3342203410206
 20
353.2645696816492
 30
0.0
  0
VERTEX
  5
66
330
64
100
AcDbEntity
  8
Layer 1
370
     0
100
AcDbVertex
100
AcDb2dVertex
 10
145.3303195166188
 20
351.5265190093406
 30
0.0
  0
VERTEX
  5
67
330
64
100
AcDbEntity
  8
Layer 1
370
     0
100
AcDbVertex
100
AcDb2dVertex
 10
143.3238959060093
 20
351.5265190093406
 30
0.0
  0
VERTEX
  5
68
330
64
100
AcDbEntity
  8
Layer 1
370
     0
100
AcDbVertex
100
AcDb2dVertex
 10
142.3206841007046
 20
353.2645696816492
 30
0.0
  0
VERTEX
  5
69
330
64
100
AcDbEntity
  8
Layer 1
370
     0
100
AcDbVertex
100
AcDb2dVertex
 10
143.3238959060093
 20
355.0026203539577
 30
0.0
  0
VERTEX
  5
6A
330
64
100
AcDbEntity
  8
Layer 1
370
     0
100
AcDbVertex
100
AcDb2dVertex
 10
145.3303195166188
 20
355.0026203539577
 30
0.0
  0
VERTEX
  5
6B
330
64
100
AcDbEntity
  8
Layer 1
370
     0
100
AcDbVertex
100
AcDb2dVertex
 10
146.3342203410206
 20
353.2645696816492
 30
0.0
  0
SEQEND
  5
6C
330
64
100
AcDbEntity
  8
Layer 1
370
     0
  0
POLYLINE
  5
6D
330
3C
100
AcDbEntity
  8
Layer 1
370
     0
100
AcDb2dPolyline
 66
     1
 10
0.0
 20
0.0
 30
0.0
  0
VERTEX
  5
6E
330
6D
100
AcDbEntity
  8
Layer 1
370
     0
100
AcDbVertex
100
AcDb2dVertex
 10
146.3342203410206
 20
357.9075248671203
 30
0.0
  0
VERTEX
  5
6F
330
6D
100
AcDbEntity
  8
Layer 1
370
     0
100
AcDbVertex
100
AcDb2dVertex
 10
145.3303195166188
 20
356.1698187043604
 30
0.0
  0
VERTEX
  5
70
330
6D
100
AcDbEntity
  8
Layer 1
370
     0
100
AcDbVertex
100
AcDb2dVertex
 10
143.3238959060093
 20
356.1698187043604
 30
0.0
  0
VERTEX
  5
71
330
6D
100
AcDbEntity
  8
Layer 1
370
     0
100
AcDbVertex
100
AcDb2dVertex
 10
142.3206841007046
 20
357.9075248671203
 30
0.0
  0
VERTEX
  5
72
330
6D
100
AcDbEntity
  8
Layer 1
370
     0
100
AcDbVertex
100
AcDb2dVertex
 10
143.3238959060093
 20
359.6452310298804
 30
0.0
  0
VERTEX
  5
73
330
6D
100
AcDbEntity
  8
Layer 1
370
     0
100
AcDbVertex
100
AcDb2dVertex
 10
145.3303195166188
 20
359.6452310298804
 30
0.0
  0
VERTEX
  5
74
330
6D
100
AcDbEntity
  8
Layer 1
370
     0
100
AcDbVertex
100
AcDb2dVertex
 10
146.3342203410206
 20
357.9075248671203
 30
0.0
  0
SEQEND
  5
75
330
6D
100
AcDbEntity
  8
Layer 1
370
     0
  0
POLYLINE
  5
76
330
3C
100
AcDbEntity
  8
Layer 1
370
     0
100
AcDb2dPolyline
 66
     1
 10
0.0
 20
0.0
 30
0.0
  0
VERTEX
  5
77
330
76
100
AcDbEntity
  8
Layer 1
370
     0
100
AcDbVertex
100
AcDb2dVertex
 10
146.3342203410206
 20
348.5485784718907
 30
0.0
  0
VERTEX
  5
78
330
76
100
AcDbEntity
  8
Layer 1
370
     0
100
AcDbVertex
100
AcDb2dVertex
 10
145.3303195166188
 20
346.8101832900336
 30
0.0
  0
VERTEX
  5
79
330
76
100
AcDbEntity
  8
Layer 1
370
     0
100
AcDbVertex
100
AcDb2dVertex
 10
143.3238959060093
 20
346.8101832900336
 30
0.0
  0
VERTEX
  5
7A
330
76
100
AcDbEntity
  8
Layer 1
370
     0
100
AcDbVertex
100
AcDb2dVertex
 10
142.3206841007046
 20
348.5485784718907
 30
0.0
  0
VERTEX
  5
7B
330
76
100
AcDbEntity
  8
Layer 1
370
     0
100
AcDbVertex
100
AcDb2dVertex
 10
143.3238959060093
 20
350.2866291441992
 30
0.0
  0
VERTEX
  5
7C
330
76
100
AcDbEntity
  8
Layer 1
370
     0
100
AcDbVertex
100
AcDb2dVertex
 10
145.3303195166188
 20
350.2866291441992
 30
0.0
  0
VERTEX
  5
7D
330
76
100
AcDbEntity
  8
Layer 1
370
     0
100
AcDbVertex
100
AcDb2dVertex
 10
146.3342203410206
 20
348.5485784718907
 30
0.0
  0
SEQEND
  5
7E
330
76
100
AcDbEntity
  8
Layer 1
370
     0
  0
POLYLINE
  5
7F
330
3C
100
AcDbEntity
  8
Layer 1
370
     0
100
AcDb2dPolyline
 66
     1
 10
0.0
 20
0.0
 30
0.0
  0
VERTEX
  5
80
330
7F
100
AcDbEntity
  8
Layer 1
370
     0
100
AcDbVertex
100
AcDb2dVertex
 10
146.3342203410206
 20
362.5329100656168
 30
0.0
  0
VERTEX
  5
81
330
7F
100
AcDbEntity
  8
Layer 1
370
     0
100
AcDbVertex
100
AcDb2dVertex
 10
145.3303195166188
 20
360.7945148837597
 30
0.0
  0
VERTEX
  5
82
330
7F
100
AcDbEntity
  8
Layer 1
370
     0
100
AcDbVertex
100
AcDb2dVertex
 10
143.3238959060093
 20
360.7945148837597
 30
0.0
  0
VERTEX
  5
83
330
7F
100
AcDbEntity
  8
Layer 1
370
     0
100
AcDbVertex
100
AcDb2dVertex
 10
142.3206841007046
 20
362.5329100656168
 30
0.0
  0
VERTEX
  5
84
330
7F
100
AcDbEntity
  8
Layer 1
370
     0
100
AcDbVertex
100
AcDb2dVertex
 10
143.3238959060093
 20
364.2702717188283
 30
0.0
  0
VERTEX
  5
85
330
7F
100
AcDbEntity
  8
Layer 1
370
     0
100
AcDbVertex
100
AcDb2dVertex
 10
145.3303195166188
 20
364.2702717188283
 30
0.0
  0
VERTEX
  5
86
330
7F
100
AcDbEntity
  8
Layer 1
370
     0
100
AcDbVertex
100
AcDb2dVertex
 10
146.3342203410206
 20
362.5329100656168
 30
0.0
  0
SEQEND
  5
87
330
7F
100
AcDbEntity
  8
Layer 1
370
     0
  0
POLYLINE
  5
88
330
3C
100
AcDbEntity
  8
Layer 1
370
     0
100
AcDb2dPolyline
 66
     1
 10
0.0
 20
0.0
 30
0.0
  0
VERTEX
  5
89
330
88
100
AcDbEntity
  8
Layer 1
370
     0
100
AcDbVertex
100
AcDb2dVertex
 10
86.13686114383037
 20
374.4663763169737
 30
0.0
  0
VERTEX
  5
8A
330
88
100
AcDbEntity
  8
Layer 1
370
     0
100
AcDbVertex
100
AcDb2dVertex
 10
85.13399384807414
 20
372.7283256446652
 30
0.0
  0
VERTEX
  5
8B
330
88
100
AcDbEntity
  8
Layer 1
370
     0
100
AcDbVertex
100
AcDb2dVertex
 10
83.12722572791611
 20
372.7283256446652
 30
0.0
  0
VERTEX
  5
8C
330
88
100
AcDbEntity
  8
Layer 1
370
     0
100
AcDbVertex
100
AcDb2dVertex
 10
82.12401392261137
 20
374.4663763169737
 30
0.0
  0
VERTEX
  5
8D
330
88
100
AcDbEntity
  8
Layer 1
370
     0
100
AcDbVertex
100
AcDb2dVertex
 10
83.12722572791611
 20
376.2044269892822
 30
0.0
  0
VERTEX
  5
8E
330
88
100
AcDbEntity
  8
Layer 1
370
     0
100
AcDbVertex
100
AcDb2dVertex
 10
85.13399384807414
 20
376.2044269892822
 30
0.0
  0
VERTEX
  5
8F
330
88
100
AcDbEntity
  8
Layer 1
370
     0
100
AcDbVertex
100
AcDb2dVertex
 10
86.13686114383037
 20
374.4663763169737
 30
0.0
  0
SEQEND
  5
90
330
88
100
AcDbEntity
  8
Layer 1
370
     0
  0
POLYLINE
  5
91
330
3C
100
AcDbEntity
  8
Layer 1
370
     0
100
AcDb2dPolyline
 66
     1
 10
0.0
 20
0.0
 30
0.0
  0
VERTEX
  5
92
330
91
100
AcDbEntity
  8
Layer 1
370
     0
100
AcDbVertex
100
AcDb2dVertex
 10
86.13686114383037
 20
379.1096760119934
 30
0.0
  0
VERTEX
  5
93
330
91
100
AcDbEntity
  8
Layer 1
370
     0
100
AcDbVertex
100
AcDb2dVertex
 10
85.13399384807414
 20
377.3716253396849
 30
0.0
  0
VERTEX
  5
94
330
91
100
AcDbEntity
  8
Layer 1
370
     0
100
AcDbVertex
100
AcDb2dVertex
 10
83.12722572791611
 20
377.3716253396849
 30
0.0
  0
VERTEX
  5
95
330
91
100
AcDbEntity
  8
Layer 1
370
     0
100
AcDbVertex
100
AcDb2dVertex
 10
82.12401392261137
 20
379.1096760119934
 30
0.0
  0
VERTEX
  5
96
330
91
100
AcDbEntity
  8
Layer 1
370
     0
100
AcDbVertex
100
AcDb2dVertex
 10
83.12722572791611
 20
380.8470376652049
 30
0.0
  0
VERTEX
  5
97
330
91
100
AcDbEntity
  8
Layer 1
370
     0
100
AcDbVertex
100
AcDb2dVertex
 10
85.13399384807414
 20
380.8470376652049
 30
0.0
  0
VERTEX
  5
98
330
91
100
AcDbEntity
  8
Layer 1
370
     0
100
AcDbVertex
100
AcDb2dVertex
 10
86.13686114383037
 20
379.1096760119934
 30
0.0
  0
SEQEND
  5
99
330
91
100
AcDbEntity
  8
Layer 1
370
     0
  0
POLYLINE
  5
9A
330
3C
100
AcDbEntity
  8
Layer 1
370
     0
100
AcDb2dPolyline
 66
     1
 10
0.0
 20
0.0
 30
0.0
  0
VERTEX
  5
9B
330
9A
100
AcDbEntity
  8
Layer 1
370
     0
100
AcDbVertex
100
AcDb2dVertex
 10
86.13686114383037
 20
369.7507296167637
 30
0.0
  0
VERTEX
  5
9C
330
9A
100
AcDbEntity
  8
Layer 1
370
     0
100
AcDbVertex
100
AcDb2dVertex
 10
85.13399384807414
 20
368.0123344349067
 30
0.0
  0
VERTEX
  5
9D
330
9A
100
AcDbEntity
  8
Layer 1
370
     0
100
AcDbVertex
100
AcDb2dVertex
 10
83.12722572791611
 20
368.0123344349067
 30
0.0
  0
VERTEX
  5
9E
330
9A
100
AcDbEntity
  8
Layer 1
370
     0
100
AcDbVertex
100
AcDb2dVertex
 10
82.12401392261137
 20
369.7507296167637
 30
0.0
  0
VERTEX
  5
9F
330
9A
100
AcDbEntity
  8
Layer 1
370
     0
100
AcDbVertex
100
AcDb2dVertex
 10
83.12722572791611
 20
371.4884357795237
 30
0.0
  0
VERTEX
  5
A0
330
9A
100
AcDbEntity
  8
Layer 1
370
     0
100
AcDbVertex
100
AcDb2dVertex
 10
85.13399384807414
 20
371.4884357795237
 30
0.0
  0
VERTEX
  5
A1
330
9A
100
AcDbEntity
  8
Layer 1
370
     0
100
AcDbVertex
100
AcDb2dVertex
 10
86.13686114383037
 20
369.7507296167637
 30
0.0
  0
SEQEND
  5
A2
330
9A
100
AcDbEntity
  8
Layer 1
370
     0
  0
POLYLINE
  5
A3
330
3C
100
AcDbEntity
  8
Layer 1
370
     0
100
AcDb2dPolyline
 66
     1
 10
0.0
 20
0.0
 30
0.0
  0
VERTEX
  5
A4
330
A3
100
AcDbEntity
  8
Layer 1
370
     0
100
AcDbVertex
100
AcDb2dVertex
 10
86.13686114383037
 20
383.7343721913928
 30
0.0
  0
VERTEX
  5
A5
330
A3
100
AcDbEntity
  8
Layer 1
370
     0
100
AcDbVertex
100
AcDb2dVertex
 10
85.13399384807414
 20
381.9966660286328
 30
0.0
  0
VERTEX
  5
A6
330
A3
100
AcDbEntity
  8
Layer 1
370
     0
100
AcDbVertex
100
AcDb2dVertex
 10
83.12722572791611
 20
381.9966660286328
 30
0.0
  0
VERTEX
  5
A7
330
A3
100
AcDbEntity
  8
Layer 1
370
     0
100
AcDbVertex
100
AcDb2dVertex
 10
82.12401392261137
 20
383.7343721913928
 30
0.0
  0
VERTEX
  5
A8
330
A3
100
AcDbEntity
  8
Layer 1
370
     0
100
AcDbVertex
100
AcDb2dVertex
 10
83.12722572791611
 20
385.4724228637014
 30
0.0
  0
VERTEX
  5
A9
330
A3
100
AcDbEntity
  8
Layer 1
370
     0
100
AcDbVertex
100
AcDb2dVertex
 10
85.13399384807414
 20
385.4724228637014
 30
0.0
  0
VERTEX
  5
AA
330
A3
100
AcDbEntity
  8
Layer 1
370
     0
100
AcDbVertex
100
AcDb2dVertex
 10
86.13686114383037
 20
383.7343721913928
 30
0.0
  0
SEQEND
  5
AB
330
A3
100
AcDbEntity
  8
Layer 1
370
     0
  0
POLYLINE
  5
AC
330
3C
100
AcDbEntity
  8
Layer 1
370
     0
100
AcDb2dPolyline
 66
     1
 10
0.0
 20
0.0
 30
0.0
  0
VERTEX
  5
AD
330
AC
100
AcDbEntity
  8
Layer 1
370
     0
100
AcDbVertex
100
AcDb2dVertex
 10
90.15039738414643
 20
376.8335014248889
 30
0.0
  0
VERTEX
  5
AE
330
AC
100
AcDbEntity
  8
Layer 1
370
     0
100
AcDbVertex
100
AcDb2dVertex
 10
89.1475300883902
 20
375.0957952621288
 30
0.0
  0
VERTEX
  5
AF
330
AC
100
AcDbEntity
  8
Layer 1
370
     0
100
AcDbVertex
100
AcDb2dVertex
 10
87.14076196823217
 20
375.0957952621288
 30
0.0
  0
VERTEX
  5
B0
330
AC
100
AcDbEntity
  8
Layer 1
370
     0
100
AcDbVertex
100
AcDb2dVertex
 10
86.13686114383037
 20
376.8335014248889
 30
0.0
  0
VERTEX
  5
B1
330
AC
100
AcDbEntity
  8
Layer 1
370
     0
100
AcDbVertex
100
AcDb2dVertex
 10
87.14076196823217
 20
378.571896606746
 30
0.0
  0
VERTEX
  5
B2
330
AC
100
AcDbEntity
  8
Layer 1
370
     0
100
AcDbVertex
100
AcDb2dVertex
 10
89.1475300883902
 20
378.571896606746
 30
0.0
  0
VERTEX
  5
B3
330
AC
100
AcDbEntity
  8
Layer 1
370
     0
100
AcDbVertex
100
AcDb2dVertex
 10
90.15039738414643
 20
376.8335014248889
 30
0.0
  0
SEQEND
  5
B4
330
AC
100
AcDbEntity
  8
Layer 1
370
     0
  0
POLYLINE
  5
B5
330
3C
100
AcDbEntity
  8
Layer 1
370
     0
100
AcDb2dPolyline
 66
     1
 10
0.0
 20
0.0
 30
0.0
  0
VERTEX
  5
B6
330
B5
100
AcDbEntity
  8
Layer 1
370
     0
100
AcDbVertex
100
AcDb2dVertex
 10
90.15039738414643
 20
381.4764566103601
 30
0.0
  0
VERTEX
  5
B7
330
B5
100
AcDbEntity
  8
Layer 1
370
     0
100
AcDbVertex
100
AcDb2dVertex
 10
89.1475300883902
 20
379.7384059380515
 30
0.0
  0
VERTEX
  5
B8
330
B5
100
AcDbEntity
  8
Layer 1
370
     0
100
AcDbVertex
100
AcDb2dVertex
 10
87.14076196823217
 20
379.7384059380515
 30
0.0
  0
VERTEX
  5
B9
330
B5
100
AcDbEntity
  8
Layer 1
370
     0
100
AcDbVertex
100
AcDb2dVertex
 10
86.13686114383037
 20
381.4764566103601
 30
0.0
  0
VERTEX
  5
BA
330
B5
100
AcDbEntity
  8
Layer 1
370
     0
100
AcDbVertex
100
AcDb2dVertex
 10
87.14076196823217
 20
383.2145072826686
 30
0.0
  0
VERTEX
  5
BB
330
B5
100
AcDbEntity
  8
Layer 1
370
     0
100
AcDbVertex
100
AcDb2dVertex
 10
89.1475300883902
 20
383.2145072826686
 30
0.0
  0
VERTEX
  5
BC
330
B5
100
AcDbEntity
  8
Layer 1
370
     0
100
AcDbVertex
100
AcDb2dVertex
 10
90.15039738414643
 20
381.4764566103601
 30
0.0
  0
SEQEND
  5
BD
330
B5
100
AcDbEntity
  8
Layer 1
370
     0
  0
POLYLINE
  5
BE
330
3C
100
AcDbEntity
  8
Layer 1
370
     0
100
AcDb2dPolyline
 66
     1
 10
0.0
 20
0.0
 30
0.0
  0
VERTEX
  5
BF
330
BE
100
AcDbEntity
  8
Layer 1
370
     0
100
AcDbVertex
100
AcDb2dVertex
 10
90.15039738414643
 20
372.1178547246789
 30
0.0
  0
VERTEX
  5
C0
330
BE
100
AcDbEntity
  8
Layer 1
370
     0
100
AcDbVertex
100
AcDb2dVertex
 10
89.1475300883902
 20
370.3798040523703
 30
0.0
  0
VERTEX
  5
C1
330
BE
100
AcDbEntity
  8
Layer 1
370
     0
100
AcDbVertex
100
AcDb2dVertex
 10
87.14076196823217
 20
370.3798040523703
 30
0.0
  0
VERTEX
  5
C2
330
BE
100
AcDbEntity
  8
Layer 1
370
     0
100
AcDbVertex
100
AcDb2dVertex
 10
86.13686114383037
 20
372.1178547246789
 30
0.0
  0
VERTEX
  5
C3
330
BE
100
AcDbEntity
  8
Layer 1
370
     0
100
AcDbVertex
100
AcDb2dVertex
 10
87.14076196823217
 20
373.8552163778904
 30
0.0
  0
VERTEX
  5
C4
330
BE
100
AcDbEntity
  8
Layer 1
370
     0
100
AcDbVertex
100
AcDb2dVertex
 10
89.1475300883902
 20
373.8552163778904
 30
0.0
  0
VERTEX
  5
C5
330
BE
100
AcDbEntity
  8
Layer 1
370
     0
100
AcDbVertex
100
AcDb2dVertex
 10
90.15039738414643
 20
372.1178547246789
 30
0.0
  0
SEQEND
  5
C6
330
BE
100
AcDbEntity
  8
Layer 1
370
     0
  0
POLYLINE
  5
C7
330
3C
100
AcDbEntity
  8
Layer 1
370
     0
100
AcDb2dPolyline
 66
     1
 10
0.0
 20
0.0
 30
0.0
  0
VERTEX
  5
C8
330
C7
100
AcDbEntity
  8
Layer 1
370
     0
100
AcDbVertex
100
AcDb2dVertex
 10
90.15039738414643
 20
386.101497299308
 30
0.0
  0
VERTEX
  5
C9
330
C7
100
AcDbEntity
  8
Layer 1
370
     0
100
AcDbVertex
100
AcDb2dVertex
 10
89.1475300883902
 20
384.3637911365479
 30
0.0
  0
VERTEX
  5
CA
330
C7
100
AcDbEntity
  8
Layer 1
370
     0
100
AcDbVertex
100
AcDb2dVertex
 10
87.14076196823217
 20
384.3637911365479
 30
0.0
  0
VERTEX
  5
CB
330
C7
100
AcDbEntity
  8
Layer 1
370
     0
100
AcDbVertex
100
AcDb2dVertex
 10
86.13686114383037
 20
386.101497299308
 30
0.0
  0
VERTEX
  5
CC
330
C7
100
AcDbEntity
  8
Layer 1
370
     0
100
AcDbVertex
100
AcDb2dVertex
 10
87.14076196823217
 20
387.839203462068
 30
0.0
  0
VERTEX
  5
CD
330
C7
100
AcDbEntity
  8
Layer 1
370
     0
100
AcDbVertex
100
AcDb2dVertex
 10
89.1475300883902
 20
387.839203462068
 30
0.0
  0
VERTEX
  5
CE
330
C7
100
AcDbEntity
  8
Layer 1
370
     0
100
AcDbVertex
100
AcDb2dVertex
 10
90.15039738414643
 20
386.101497299308
 30
0.0
  0
SEQEND
  5
CF
330
C7
100
AcDbEntity
  8
Layer 1
370
     0
  0
POLYLINE
  5
D0
330
3C
100
AcDbEntity
  8
Layer 1
370
     0
100
AcDb2dPolyline
 66
     1
 10
0.0
 20
0.0
 30
0.0
  0
VERTEX
  5
D1
330
D0
100
AcDbEntity
  8
Layer 1
370
     0
100
AcDbVertex
100
AcDb2dVertex
 10
94.16393362446249
 20
374.5576713473328
 30
0.0
  0
VERTEX
  5
D2
330
D0
100
AcDbEntity
  8
Layer 1
370
     0
100
AcDbVertex
100
AcDb2dVertex
 10
93.16072181915774
 20
372.8199651845728
 30
0.0
  0
VERTEX
  5
D3
330
D0
100
AcDbEntity
  8
Layer 1
370
     0
100
AcDbVertex
100
AcDb2dVertex
 10
91.15360918945119
 20
372.8199651845728
 30
0.0
  0
VERTEX
  5
D4
330
D0
100
AcDbEntity
  8
Layer 1
370
     0
100
AcDbVertex
100
AcDb2dVertex
 10
90.15039738414643
 20
374.5576713473328
 30
0.0
  0
VERTEX
  5
D5
330
D0
100
AcDbEntity
  8
Layer 1
370
     0
100
AcDbVertex
100
AcDb2dVertex
 10
91.15360918945119
 20
376.2957220196413
 30
0.0
  0
VERTEX
  5
D6
330
D0
100
AcDbEntity
  8
Layer 1
370
     0
100
AcDbVertex
100
AcDb2dVertex
 10
93.16072181915774
 20
376.2957220196413
 30
0.0
  0
VERTEX
  5
D7
330
D0
100
AcDbEntity
  8
Layer 1
370
     0
100
AcDbVertex
100
AcDb2dVertex
 10
94.16393362446249
 20
374.5576713473328
 30
0.0
  0
SEQEND
  5
D8
330
D0
100
AcDbEntity
  8
Layer 1
370
     0
  0
POLYLINE
  5
D9
330
3C
100
AcDbEntity
  8
Layer 1
370
     0
100
AcDb2dPolyline
 66
     1
 10
0.0
 20
0.0
 30
0.0
  0
VERTEX
  5
DA
330
D9
100
AcDbEntity
  8
Layer 1
370
     0
100
AcDbVertex
100
AcDb2dVertex
 10
94.16393362446249
 20
379.2009710423525
 30
0.0
  0
VERTEX
  5
DB
330
D9
100
AcDbEntity
  8
Layer 1
370
     0
100
AcDbVertex
100
AcDb2dVertex
 10
93.16072181915774
 20
377.462920370044
 30
0.0
  0
VERTEX
  5
DC
330
D9
100
AcDbEntity
  8
Layer 1
370
     0
100
AcDbVertex
100
AcDb2dVertex
 10
91.15360918945119
 20
377.462920370044
 30
0.0
  0
VERTEX
  5
DD
330
D9
100
AcDbEntity
  8
Layer 1
370
     0
100
AcDbVertex
100
AcDb2dVertex
 10
90.15039738414643
 20
379.2009710423525
 30
0.0
  0
VERTEX
  5
DE
330
D9
100
AcDbEntity
  8
Layer 1
370
     0
100
AcDbVertex
100
AcDb2dVertex
 10
91.15360918945119
 20
380.938332695564
 30
0.0
  0
VERTEX
  5
DF
330
D9
100
AcDbEntity
  8
Layer 1
370
     0
100
AcDbVertex
100
AcDb2dVertex
 10
93.16072181915774
 20
380.938332695564
 30
0.0
  0
VERTEX
  5
E0
330
D9
100
AcDbEntity
  8
Layer 1
370
     0
100
AcDbVertex
100
AcDb2dVertex
 10
94.16393362446249
 20
379.2009710423525
 30
0.0
  0
SEQEND
  5
E1
330
D9
100
AcDbEntity
  8
Layer 1
370
     0
  0
POLYLINE
  5
E2
330
3C
100
AcDbEntity
  8
Layer 1
370
     0
100
AcDb2dPolyline
 66
     1
 10
0.0
 20
0.0
 30
0.0
  0
VERTEX
  5
E3
330
E2
100
AcDbEntity
  8
Layer 1
370
     0
100
AcDbVertex
100
AcDb2dVertex
 10
94.16393362446249
 20
369.8416801375743
 30
0.0
  0
VERTEX
  5
E4
330
E2
100
AcDbEntity
  8
Layer 1
370
     0
100
AcDbVertex
100
AcDb2dVertex
 10
93.16072181915774
 20
368.1036294652658
 30
0.0
  0
VERTEX
  5
E5
330
E2
100
AcDbEntity
  8
Layer 1
370
     0
100
AcDbVertex
100
AcDb2dVertex
 10
91.15360918945119
 20
368.1036294652658
 30
0.0
  0
VERTEX
  5
E6
330
E2
100
AcDbEntity
  8
Layer 1
370
     0
100
AcDbVertex
100
AcDb2dVertex
 10
90.15039738414643
 20
369.8416801375743
 30
0.0
  0
VERTEX
  5
E7
330
E2
100
AcDbEntity
  8
Layer 1
370
     0
100
AcDbVertex
100
AcDb2dVertex
 10
91.15360918945119
 20
371.5793863003344
 30
0.0
  0
VERTEX
  5
E8
330
E2
100
AcDbEntity
  8
Layer 1
370
     0
100
AcDbVertex
100
AcDb2dVertex
 10
93.16072181915774
 20
371.5793863003344
 30
0.0
  0
VERTEX
  5
E9
330
E2
100
AcDbEntity
  8
Layer 1
370
     0
100
AcDbVertex
100
AcDb2dVertex
 10
94.16393362446249
 20
369.8416801375743
 30
0.0
  0
SEQEND
  5
EA
330
E2
100
AcDbEntity
  8
Layer 1
370
     0
  0
POLYLINE
  5
EB
330
3C
100
AcDbEntity
  8
Layer 1
370
     0
100
AcDb2dPolyline
 66
     1
 10
0.0
 20
0.0
 30
0.0
  0
VERTEX
  5
EC
330
EB
100
AcDbEntity
  8
Layer 1
370
     0
100
AcDbVertex
100
AcDb2dVertex
 10
94.16393362446249
 20
383.8260117313005
 30
0.0
  0
VERTEX
  5
ED
330
EB
100
AcDbEntity
  8
Layer 1
370
     0
100
AcDbVertex
100
AcDb2dVertex
 10
93.16072181915774
 20
382.0872720398949
 30
0.0
  0
VERTEX
  5
EE
330
EB
100
AcDbEntity
  8
Layer 1
370
     0
100
AcDbVertex
100
AcDb2dVertex
 10
91.15360918945119
 20
382.0872720398949
 30
0.0
  0
VERTEX
  5
EF
330
EB
100
AcDbEntity
  8
Layer 1
370
     0
100
AcDbVertex
100
AcDb2dVertex
 10
90.15039738414643
 20
383.8260117313005
 30
0.0
  0
VERTEX
  5
F0
330
EB
100
AcDbEntity
  8
Layer 1
370
     0
100
AcDbVertex
100
AcDb2dVertex
 10
91.15360918945119
 20
385.563373384512
 30
0.0
  0
VERTEX
  5
F1
330
EB
100
AcDbEntity
  8
Layer 1
370
     0
100
AcDbVertex
100
AcDb2dVertex
 10
93.16072181915774
 20
385.563373384512
 30
0.0
  0
VERTEX
  5
F2
330
EB
100
AcDbEntity
  8
Layer 1
370
     0
100
AcDbVertex
100
AcDb2dVertex
 10
94.16393362446249
 20
383.8260117313005
 30
0.0
  0
SEQEND
  5
F3
330
EB
100
AcDbEntity
  8
Layer 1
370
     0
  0
POLYLINE
  5
F4
330
3C
100
AcDbEntity
  8
Layer 1
370
     0
100
AcDb2dPolyline
 66
     1
 10
0.0
 20
0.0
 30
0.0
  0
VERTEX
  5
F5
330
F4
100
AcDbEntity
  8
Layer 1
370
     0
100
AcDbVertex
100
AcDb2dVertex
 10
98.17815888387561
 20
376.8335014248889
 30
0.0
  0
VERTEX
  5
F6
330
F4
100
AcDbEntity
  8
Layer 1
370
     0
100
AcDbVertex
100
AcDb2dVertex
 10
97.1742580594738
 20
375.0957952621288
 30
0.0
  0
VERTEX
  5
F7
330
F4
100
AcDbEntity
  8
Layer 1
370
     0
100
AcDbVertex
100
AcDb2dVertex
 10
95.16714542976725
 20
375.0957952621288
 30
0.0
  0
VERTEX
  5
F8
330
F4
100
AcDbEntity
  8
Layer 1
370
     0
100
AcDbVertex
100
AcDb2dVertex
 10
94.16393362446249
 20
376.8335014248889
 30
0.0
  0
VERTEX
  5
F9
330
F4
100
AcDbEntity
  8
Layer 1
370
     0
100
AcDbVertex
100
AcDb2dVertex
 10
95.16714542976725
 20
378.571896606746
 30
0.0
  0
VERTEX
  5
FA
330
F4
100
AcDbEntity
  8
Layer 1
370
     0
100
AcDbVertex
100
AcDb2dVertex
 10
97.1742580594738
 20
378.571896606746
 30
0.0
  0
VERTEX
  5
FB
330
F4
100
AcDbEntity
  8
Layer 1
370
     0
100
AcDbVertex
100
AcDb2dVertex
 10
98.17815888387561
 20
376.8335014248889
 30
0.0
  0
SEQEND
  5
FC
330
F4
100
AcDbEntity
  8
Layer 1
370
     0
  0
POLYLINE
  5
FD
330
3C
100
AcDbEntity
  8
Layer 1
370
     0
100
AcDb2dPolyline
 66
     1
 10
0.0
 20
0.0
 30
0.0
  0
VERTEX
  5
FE
330
FD
100
AcDbEntity
  8
Layer 1
370
     0
100
AcDbVertex
100
AcDb2dVertex
 10
98.17815888387561
 20
381.4764566103601
 30
0.0
  0
VERTEX
  5
FF
330
FD
100
AcDbEntity
  8
Layer 1
370
     0
100
AcDbVertex
100
AcDb2dVertex
 10
97.1742580594738
 20
379.7384059380515
 30
0.0
  0
VERTEX
  5
100
330
FD
100
AcDbEntity
  8
Layer 1
370
     0
100
AcDbVertex
100
AcDb2dVertex
 10
95.16714542976725
 20
379.7384059380515
 30
0.0
  0
VERTEX
  5
101
330
FD
100
AcDbEntity
  8
Layer 1
370
     0
100
AcDbVertex
100
AcDb2dVertex
 10
94.16393362446249
 20
381.4764566103601
 30
0.0
  0
VERTEX
  5
102
330
FD
100
AcDbEntity
  8
Layer 1
370
     0
100
AcDbVertex
100
AcDb2dVertex
 10
95.16714542976725
 20
383.2145072826686
 30
0.0
  0
VERTEX
  5
103
330
FD
100
AcDbEntity
  8
Layer 1
370
     0
100
AcDbVertex
100
AcDb2dVertex
 10
97.1742580594738
 20
383.2145072826686
 30
0.0
  0
VERTEX
  5
104
330
FD
100
AcDbEntity
  8
Layer 1
370
     0
100
AcDbVertex
100
AcDb2dVertex
 10
98.17815888387561
 20
381.4764566103601
 30
0.0
  0
SEQEND
  5
105
330
FD
100
AcDbEntity
  8
Layer 1
370
     0
  0
POLYLINE
  5
106
330
3C
100
AcDbEntity
  8
Layer 1
370
     0
100
AcDb2dPolyline
 66
     1
 10
0.0
 20
0.0
 30
0.0
  0
VERTEX
  5
107
330
106
100
AcDbEntity
  8
Layer 1
370
     0
100
AcDbVertex
100
AcDb2dVertex
 10
98.17815888387561
 20
372.1178547246789
 30
0.0
  0
VERTEX
  5
108
330
106
100
AcDbEntity
  8
Layer 1
370
     0
100
AcDbVertex
100
AcDb2dVertex
 10
97.1742580594738
 20
370.3798040523703
 30
0.0
  0
VERTEX
  5
109
330
106
100
AcDbEntity
  8
Layer 1
370
     0
100
AcDbVertex
100
AcDb2dVertex
 10
95.16714542976725
 20
370.3798040523703
 30
0.0
  0
VERTEX
  5
10A
330
106
100
AcDbEntity
  8
Layer 1
370
     0
100
AcDbVertex
100
AcDb2dVertex
 10
94.16393362446249
 20
372.1178547246789
 30
0.0
  0
VERTEX
  5
10B
330
106
100
AcDbEntity
  8
Layer 1
370
     0
100
AcDbVertex
100
AcDb2dVertex
 10
95.16714542976725
 20
373.8552163778904
 30
0.0
  0
VERTEX
  5
10C
330
106
100
AcDbEntity
  8
Layer 1
370
     0
100
AcDbVertex
100
AcDb2dVertex
 10
97.1742580594738
 20
373.8552163778904
 30
0.0
  0
VERTEX
  5
10D
330
106
100
AcDbEntity
  8
Layer 1
370
     0
100
AcDbVertex
100
AcDb2dVertex
 10
98.17815888387561
 20
372.1178547246789
 30
0.0
  0
SEQEND
  5
10E
330
106
100
AcDbEntity
  8
Layer 1
370
     0
  0
POLYLINE
  5
10F
330
3C
100
AcDbEntity
  8
Layer 1
370
     0
100
AcDb2dPolyline
 66
     1
 10
0.0
 20
0.0
 30
0.0
  0
VERTEX
  5
110
330
10F
100
AcDbEntity
  8
Layer 1
370
     0
100
AcDbVertex
100
AcDb2dVertex
 10
98.17815888387561
 20
386.101497299308
 30
0.0
  0
VERTEX
  5
111
330
10F
100
AcDbEntity
  8
Layer 1
370
     0
100
AcDbVertex
100
AcDb2dVertex
 10
97.1742580594738
 20
384.3637911365479
 30
0.0
  0
VERTEX
  5
112
330
10F
100
AcDbEntity
  8
Layer 1
370
     0
100
AcDbVertex
100
AcDb2dVertex
 10
95.16714542976725
 20
384.3637911365479
 30
0.0
  0
VERTEX
  5
113
330
10F
100
AcDbEntity
  8
Layer 1
370
     0
100
AcDbVertex
100
AcDb2dVertex
 10
94.16393362446249
 20
386.101497299308
 30
0.0
  0
VERTEX
  5
114
330
10F
100
AcDbEntity
  8
Layer 1
370
     0
100
AcDbVertex
100
AcDb2dVertex
 10
95.16714542976725
 20
387.839203462068
 30
0.0
  0
VERTEX
  5
115
330
10F
100
AcDbEntity
  8
Layer 1
370
     0
100
AcDbVertex
100
AcDb2dVertex
 10
97.1742580594738
 20
387.839203462068
 30
0.0
  0
VERTEX
  5
116
330
10F
100
AcDbEntity
  8
Layer 1
370
     0
100
AcDbVertex
100
AcDb2dVertex
 10
98.17815888387561
 20
386.101497299308
 30
0.0
  0
SEQEND
  5
117
330
10F
100
AcDbEntity
  8
Layer 1
370
     0
  0
POLYLINE
  5
118
330
3C
100
AcDbEntity
  8
Layer 1
370
     0
100
AcDb2dPolyline
 66
     1
 10
0.0
 20
0.0
 30
0.0
  0
VERTEX
  5
119
330
118
100
AcDbEntity
  8
Layer 1
370
     0
100
AcDbVertex
100
AcDb2dVertex
 10
102.1910061050946
 20
374.5576713473328
 30
0.0
  0
VERTEX
  5
11A
330
118
100
AcDbEntity
  8
Layer 1
370
     0
100
AcDbVertex
100
AcDb2dVertex
 10
101.1877942997899
 20
372.8199651845728
 30
0.0
  0
VERTEX
  5
11B
330
118
100
AcDbEntity
  8
Layer 1
370
     0
100
AcDbVertex
100
AcDb2dVertex
 10
99.1806816700833
 20
372.8199651845728
 30
0.0
  0
VERTEX
  5
11C
330
118
100
AcDbEntity
  8
Layer 1
370
     0
100
AcDbVertex
100
AcDb2dVertex
 10
98.17815888387561
 20
374.5576713473328
 30
0.0
  0
VERTEX
  5
11D
330
118
100
AcDbEntity
  8
Layer 1
370
     0
100
AcDbVertex
100
AcDb2dVertex
 10
99.1806816700833
 20
376.2957220196413
 30
0.0
  0
VERTEX
  5
11E
330
118
100
AcDbEntity
  8
Layer 1
370
     0
100
AcDbVertex
100
AcDb2dVertex
 10
101.1877942997899
 20
376.2957220196413
 30
0.0
  0
VERTEX
  5
11F
330
118
100
AcDbEntity
  8
Layer 1
370
     0
100
AcDbVertex
100
AcDb2dVertex
 10
102.1910061050946
 20
374.5576713473328
 30
0.0
  0
SEQEND
  5
120
330
118
100
AcDbEntity
  8
Layer 1
370
     0
  0
POLYLINE
  5
121
330
3C
100
AcDbEntity
  8
Layer 1
370
     0
100
AcDb2dPolyline
 66
     1
 10
0.0
 20
0.0
 30
0.0
  0
VERTEX
  5
122
330
121
100
AcDbEntity
  8
Layer 1
370
     0
100
AcDbVertex
100
AcDb2dVertex
 10
102.1910061050946
 20
379.2009710423525
 30
0.0
  0
VERTEX
  5
123
330
121
100
AcDbEntity
  8
Layer 1
370
     0
100
AcDbVertex
100
AcDb2dVertex
 10
101.1877942997899
 20
377.462920370044
 30
0.0
  0
VERTEX
  5
124
330
121
100
AcDbEntity
  8
Layer 1
370
     0
100
AcDbVertex
100
AcDb2dVertex
 10
99.1806816700833
 20
377.462920370044
 30
0.0
  0
VERTEX
  5
125
330
121
100
AcDbEntity
  8
Layer 1
370
     0
100
AcDbVertex
100
AcDb2dVertex
 10
98.17815888387561
 20
379.2009710423525
 30
0.0
  0
VERTEX
  5
126
330
121
100
AcDbEntity
  8
Layer 1
370
     0
100
AcDbVertex
100
AcDb2dVertex
 10
99.1806816700833
 20
380.938332695564
 30
0.0
  0
VERTEX
  5
127
330
121
100
AcDbEntity
  8
Layer 1
370
     0
100
AcDbVertex
100
AcDb2dVertex
 10
101.1877942997899
 20
380.938332695564
 30
0.0
  0
VERTEX
  5
128
330
121
100
AcDbEntity
  8
Layer 1
370
     0
100
AcDbVertex
100
AcDb2dVertex
 10
102.1910061050946
 20
379.2009710423525
 30
0.0
  0
SEQEND
  5
129
330
121
100
AcDbEntity
  8
Layer 1
370
     0
  0
POLYLINE
  5
12A
330
3C
100
AcDbEntity
  8
Layer 1
370
     0
100
AcDb2dPolyline
 66
     1
 10
0.0
 20
0.0
 30
0.0
  0
VERTEX
  5
12B
330
12A
100
AcDbEntity
  8
Layer 1
370
     0
100
AcDbVertex
100
AcDb2dVertex
 10
102.1910061050946
 20
369.8416801375743
 30
0.0
  0
VERTEX
  5
12C
330
12A
100
AcDbEntity
  8
Layer 1
370
     0
100
AcDbVertex
100
AcDb2dVertex
 10
101.1877942997899
 20
368.1036294652658
 30
0.0
  0
VERTEX
  5
12D
330
12A
100
AcDbEntity
  8
Layer 1
370
     0
100
AcDbVertex
100
AcDb2dVertex
 10
99.1806816700833
 20
368.1036294652658
 30
0.0
  0
VERTEX
  5
12E
330
12A
100
AcDbEntity
  8
Layer 1
370
     0
100
AcDbVertex
100
AcDb2dVertex
 10
98.17815888387561
 20
369.8416801375743
 30
0.0
  0
VERTEX
  5
12F
330
12A
100
AcDbEntity
  8
Layer 1
370
     0
100
AcDbVertex
100
AcDb2dVertex
 10
99.1806816700833
 20
371.5793863003344
 30
0.0
  0
VERTEX
  5
130
330
12A
100
AcDbEntity
  8
Layer 1
370
     0
100
AcDbVertex
100
AcDb2dVertex
 10
101.1877942997899
 20
371.5793863003344
 30
0.0
  0
VERTEX
  5
131
330
12A
100
AcDbEntity
  8
Layer 1
370
     0
100
AcDbVertex
100
AcDb2dVertex
 10
102.1910061050946
 20
369.8416801375743
 30
0.0
  0
SEQEND
  5
132
330
12A
100
AcDbEntity
  8
Layer 1
370
     0
  0
POLYLINE
  5
133
330
3C
100
AcDbEntity
  8
Layer 1
370
     0
100
AcDb2dPolyline
 66
     1
 10
0.0
 20
0.0
 30
0.0
  0
VERTEX
  5
134
330
133
100
AcDbEntity
  8
Layer 1
370
     0
100
AcDbVertex
100
AcDb2dVertex
 10
102.1910061050946
 20
383.8260117313005
 30
0.0
  0
VERTEX
  5
135
330
133
100
AcDbEntity
  8
Layer 1
370
     0
100
AcDbVertex
100
AcDb2dVertex
 10
101.1877942997899
 20
382.0872720398949
 30
0.0
  0
VERTEX
  5
136
330
133
100
AcDbEntity
  8
Layer 1
370
     0
100
AcDbVertex
100
AcDb2dVertex
 10
99.1806816700833
 20
382.0872720398949
 30
0.0
  0
VERTEX
  5
137
330
133
100
AcDbEntity
  8
Layer 1
370
     0
100
AcDbVertex
100
AcDb2dVertex
 10
98.17815888387561
 20
383.8260117313005
 30
0.0
  0
VERTEX
  5
138
330
133
100
AcDbEntity
  8
Layer 1
370
     0
100
AcDbVertex
100
AcDb2dVertex
 10
99.1806816700833
 20
385.563373384512
 30
0.0
  0
VERTEX
  5
139
330
133
100
AcDbEntity
  8
Layer 1
370
     0
100
AcDbVertex
100
AcDb2dVertex
 10
101.1877942997899
 20
385.563373384512
 30
0.0
  0
VERTEX
  5
13A
330
133
100
AcDbEntity
  8
Layer 1
370
     0
100
AcDbVertex
100
AcDb2dVertex
 10
102.1910061050946
 20
383.8260117313005
 30
0.0
  0
SEQEND
  5
13B
330
133
100
AcDbEntity
  8
Layer 1
370
     0
  0
POLYLINE
  5
13C
330
3C
100
AcDbEntity
  8
Layer 1
370
     0
100
AcDb2dPolyline
 66
     1
 10
0.0
 20
0.0
 30
0.0
  0
VERTEX
  5
13D
330
13C
100
AcDbEntity
  8
Layer 1
370
     0
100
AcDbVertex
100
AcDb2dVertex
 10
106.2045423454107
 20
376.8335014248889
 30
0.0
  0
VERTEX
  5
13E
330
13C
100
AcDbEntity
  8
Layer 1
370
     0
100
AcDbVertex
100
AcDb2dVertex
 10
105.2013305401059
 20
375.0957952621288
 30
0.0
  0
VERTEX
  5
13F
330
13C
100
AcDbEntity
  8
Layer 1
370
     0
100
AcDbVertex
100
AcDb2dVertex
 10
103.1942179103994
 20
375.0957952621288
 30
0.0
  0
VERTEX
  5
140
330
13C
100
AcDbEntity
  8
Layer 1
370
     0
100
AcDbVertex
100
AcDb2dVertex
 10
102.1910061050946
 20
376.8335014248889
 30
0.0
  0
VERTEX
  5
141
330
13C
100
AcDbEntity
  8
Layer 1
370
     0
100
AcDbVertex
100
AcDb2dVertex
 10
103.1942179103994
 20
378.571896606746
 30
0.0
  0
VERTEX
  5
142
330
13C
100
AcDbEntity
  8
Layer 1
370
     0
100
AcDbVertex
100
AcDb2dVertex
 10
105.2013305401059
 20
378.571896606746
 30
0.0
  0
VERTEX
  5
143
330
13C
100
AcDbEntity
  8
Layer 1
370
     0
100
AcDbVertex
100
AcDb2dVertex
 10
106.2045423454107
 20
376.8335014248889
 30
0.0
  0
SEQEND
  5
144
330
13C
100
AcDbEntity
  8
Layer 1
370
     0
  0
POLYLINE
  5
145
330
3C
100
AcDbEntity
  8
Layer 1
370
     0
100
AcDb2dPolyline
 66
     1
 10
0.0
 20
0.0
 30
0.0
  0
VERTEX
  5
146
330
145
100
AcDbEntity
  8
Layer 1
370
     0
100
AcDbVertex
100
AcDb2dVertex
 10
106.2045423454107
 20
381.4764566103601
 30
0.0
  0
VERTEX
  5
147
330
145
100
AcDbEntity
  8
Layer 1
370
     0
100
AcDbVertex
100
AcDb2dVertex
 10
105.2013305401059
 20
379.7384059380515
 30
0.0
  0
VERTEX
  5
148
330
145
100
AcDbEntity
  8
Layer 1
370
     0
100
AcDbVertex
100
AcDb2dVertex
 10
103.1942179103994
 20
379.7384059380515
 30
0.0
  0
VERTEX
  5
149
330
145
100
AcDbEntity
  8
Layer 1
370
     0
100
AcDbVertex
100
AcDb2dVertex
 10
102.1910061050946
 20
381.4764566103601
 30
0.0
  0
VERTEX
  5
14A
330
145
100
AcDbEntity
  8
Layer 1
370
     0
100
AcDbVertex
100
AcDb2dVertex
 10
103.1942179103994
 20
383.2145072826686
 30
0.0
  0
VERTEX
  5
14B
330
145
100
AcDbEntity
  8
Layer 1
370
     0
100
AcDbVertex
100
AcDb2dVertex
 10
105.2013305401059
 20
383.2145072826686
 30
0.0
  0
VERTEX
  5
14C
330
145
100
AcDbEntity
  8
Layer 1
370
     0
100
AcDbVertex
100
AcDb2dVertex
 10
106.2045423454107
 20
381.4764566103601
 30
0.0
  0
SEQEND
  5
14D
330
145
100
AcDbEntity
  8
Layer 1
370
     0
  0
POLYLINE
  5
14E
330
3C
100
AcDbEntity
  8
Layer 1
370
     0
100
AcDb2dPolyline
 66
     1
 10
0.0
 20
0.0
 30
0.0
  0
VERTEX
  5
14F
330
14E
100
AcDbEntity
  8
Layer 1
370
     0
100
AcDbVertex
100
AcDb2dVertex
 10
106.2045423454107
 20
372.1178547246789
 30
0.0
  0
VERTEX
  5
150
330
14E
100
AcDbEntity
  8
Layer 1
370
     0
100
AcDbVertex
100
AcDb2dVertex
 10
105.2013305401059
 20
370.3798040523703
 30
0.0
  0
VERTEX
  5
151
330
14E
100
AcDbEntity
  8
Layer 1
370
     0
100
AcDbVertex
100
AcDb2dVertex
 10
103.1942179103994
 20
370.3798040523703
 30
0.0
  0
VERTEX
  5
152
330
14E
100
AcDbEntity
  8
Layer 1
370
     0
100
AcDbVertex
100
AcDb2dVertex
 10
102.1910061050946
 20
372.1178547246789
 30
0.0
  0
VERTEX
  5
153
330
14E
100
AcDbEntity
  8
Layer 1
370
     0
100
AcDbVertex
100
AcDb2dVertex
 10
103.1942179103994
 20
373.8552163778904
 30
0.0
  0
VERTEX
  5
154
330
14E
100
AcDbEntity
  8
Layer 1
370
     0
100
AcDbVertex
100
AcDb2dVertex
 10
105.2013305401059
 20
373.8552163778904
 30
0.0
  0
VERTEX
  5
155
330
14E
100
AcDbEntity
  8
Layer 1
370
     0
100
AcDbVertex
100
AcDb2dVertex
 10
106.2045423454107
 20
372.1178547246789
 30
0.0
  0
SEQEND
  5
156
330
14E
100
AcDbEntity
  8
Layer 1
370
     0
  0
POLYLINE
  5
157
330
3C
100
AcDbEntity
  8
Layer 1
370
     0
100
AcDb2dPolyline
 66
     1
 10
0.0
 20
0.0
 30
0.0
  0
VERTEX
  5
158
330
157
100
AcDbEntity
  8
Layer 1
370
     0
100
AcDbVertex
100
AcDb2dVertex
 10
106.2045423454107
 20
386.101497299308
 30
0.0
  0
VERTEX
  5
159
330
157
100
AcDbEntity
  8
Layer 1
370
     0
100
AcDbVertex
100
AcDb2dVertex
 10
105.2013305401059
 20
384.3637911365479
 30
0.0
  0
VERTEX
  5
15A
330
157
100
AcDbEntity
  8
Layer 1
370
     0
100
AcDbVertex
100
AcDb2dVertex
 10
103.1942179103994
 20
384.3637911365479
 30
0.0
  0
VERTEX
  5
15B
330
157
100
AcDbEntity
  8
Layer 1
370
     0
100
AcDbVertex
100
AcDb2dVertex
 10
102.1910061050946
 20
386.101497299308
 30
0.0
  0
VERTEX
  5
15C
330
157
100
AcDbEntity
  8
Layer 1
370
     0
100
AcDbVertex
100
AcDb2dVertex
 10
103.1942179103994
 20
387.839203462068
 30
0.0
  0
VERTEX
  5
15D
330
157
100
AcDbEntity
  8
Layer 1
370
     0
100
AcDbVertex
100
AcDb2dVertex
 10
105.2013305401059
 20
387.839203462068
 30
0.0
  0
VERTEX
  5
15E
330
157
100
AcDbEntity
  8
Layer 1
370
     0
100
AcDbVertex
100
AcDb2dVertex
 10
106.2045423454107
 20
386.101497299308
 30
0.0
  0
SEQEND
  5
15F
330
157
100
AcDbEntity
  8
Layer 1
370
     0
  0
POLYLINE
  5
160
330
3C
100
AcDbEntity
  8
Layer 1
370
     0
100
AcDb2dPolyline
 66
     1
 10
0.0
 20
0.0
 30
0.0
  0
VERTEX
  5
161
330
160
100
AcDbEntity
  8
Layer 1
370
     0
100
AcDbVertex
100
AcDb2dVertex
 10
110.1636460770598
 20
374.5576713473328
 30
0.0
  0
VERTEX
  5
162
330
160
100
AcDbEntity
  8
Layer 1
370
     0
100
AcDbVertex
100
AcDb2dVertex
 10
109.159745252658
 20
372.8199651845728
 30
0.0
  0
VERTEX
  5
163
330
160
100
AcDbEntity
  8
Layer 1
370
     0
100
AcDbVertex
100
AcDb2dVertex
 10
107.1533216420485
 20
372.8199651845728
 30
0.0
  0
VERTEX
  5
164
330
160
100
AcDbEntity
  8
Layer 1
370
     0
100
AcDbVertex
100
AcDb2dVertex
 10
106.1501098367437
 20
374.5576713473328
 30
0.0
  0
VERTEX
  5
165
330
160
100
AcDbEntity
  8
Layer 1
370
     0
100
AcDbVertex
100
AcDb2dVertex
 10
107.1533216420485
 20
376.2957220196413
 30
0.0
  0
VERTEX
  5
166
330
160
100
AcDbEntity
  8
Layer 1
370
     0
100
AcDbVertex
100
AcDb2dVertex
 10
109.159745252658
 20
376.2957220196413
 30
0.0
  0
VERTEX
  5
167
330
160
100
AcDbEntity
  8
Layer 1
370
     0
100
AcDbVertex
100
AcDb2dVertex
 10
110.1636460770598
 20
374.5576713473328
 30
0.0
  0
SEQEND
  5
168
330
160
100
AcDbEntity
  8
Layer 1
370
     0
  0
POLYLINE
  5
169
330
3C
100
AcDbEntity
  8
Layer 1
370
     0
100
AcDb2dPolyline
 66
     1
 10
0.0
 20
0.0
 30
0.0
  0
VERTEX
  5
16A
330
169
100
AcDbEntity
  8
Layer 1
370
     0
100
AcDbVertex
100
AcDb2dVertex
 10
110.1636460770598
 20
379.2009710423525
 30
0.0
  0
VERTEX
  5
16B
330
169
100
AcDbEntity
  8
Layer 1
370
     0
100
AcDbVertex
100
AcDb2dVertex
 10
109.159745252658
 20
377.462920370044
 30
0.0
  0
VERTEX
  5
16C
330
169
100
AcDbEntity
  8
Layer 1
370
     0
100
AcDbVertex
100
AcDb2dVertex
 10
107.1533216420485
 20
377.462920370044
 30
0.0
  0
VERTEX
  5
16D
330
169
100
AcDbEntity
  8
Layer 1
370
     0
100
AcDbVertex
100
AcDb2dVertex
 10
106.1501098367437
 20
379.2009710423525
 30
0.0
  0
VERTEX
  5
16E
330
169
100
AcDbEntity
  8
Layer 1
370
     0
100
AcDbVertex
100
AcDb2dVertex
 10
107.1533216420485
 20
380.938332695564
 30
0.0
  0
VERTEX
  5
16F
330
169
100
AcDbEntity
  8
Layer 1
370
     0
100
AcDbVertex
100
AcDb2dVertex
 10
109.159745252658
 20
380.938332695564
 30
0.0
  0
VERTEX
  5
170
330
169
100
AcDbEntity
  8
Layer 1
370
     0
100
AcDbVertex
100
AcDb2dVertex
 10
110.1636460770598
 20
379.2009710423525
 30
0.0
  0
SEQEND
  5
171
330
169
100
AcDbEntity
  8
Layer 1
370
     0
  0
POLYLINE
  5
172
330
3C
100
AcDbEntity
  8
Layer 1
370
     0
100
AcDb2dPolyline
 66
     1
 10
0.0
 20
0.0
 30
0.0
  0
VERTEX
  5
173
330
172
100
AcDbEntity
  8
Layer 1
370
     0
100
AcDbVertex
100
AcDb2dVertex
 10
110.1636460770598
 20
369.8416801375743
 30
0.0
  0
VERTEX
  5
174
330
172
100
AcDbEntity
  8
Layer 1
370
     0
100
AcDbVertex
100
AcDb2dVertex
 10
109.159745252658
 20
368.1036294652658
 30
0.0
  0
VERTEX
  5
175
330
172
100
AcDbEntity
  8
Layer 1
370
     0
100
AcDbVertex
100
AcDb2dVertex
 10
107.1533216420485
 20
368.1036294652658
 30
0.0
  0
VERTEX
  5
176
330
172
100
AcDbEntity
  8
Layer 1
370
     0
100
AcDbVertex
100
AcDb2dVertex
 10
106.1501098367437
 20
369.8416801375743
 30
0.0
  0
VERTEX
  5
177
330
172
100
AcDbEntity
  8
Layer 1
370
     0
100
AcDbVertex
100
AcDb2dVertex
 10
107.1533216420485
 20
371.5793863003344
 30
0.0
  0
VERTEX
  5
178
330
172
100
AcDbEntity
  8
Layer 1
370
     0
100
AcDbVertex
100
AcDb2dVertex
 10
109.159745252658
 20
371.5793863003344
 30
0.0
  0
VERTEX
  5
179
330
172
100
AcDbEntity
  8
Layer 1
370
     0
100
AcDbVertex
100
AcDb2dVertex
 10
110.1636460770598
 20
369.8416801375743
 30
0.0
  0
SEQEND
  5
17A
330
172
100
AcDbEntity
  8
Layer 1
370
     0
  0
POLYLINE
  5
17B
330
3C
100
AcDbEntity
  8
Layer 1
370
     0
100
AcDb2dPolyline
 66
     1
 10
0.0
 20
0.0
 30
0.0
  0
VERTEX
  5
17C
330
17B
100
AcDbEntity
  8
Layer 1
370
     0
100
AcDbVertex
100
AcDb2dVertex
 10
110.1636460770598
 20
383.8260117313005
 30
0.0
  0
VERTEX
  5
17D
330
17B
100
AcDbEntity
  8
Layer 1
370
     0
100
AcDbVertex
100
AcDb2dVertex
 10
109.159745252658
 20
382.0872720398949
 30
0.0
  0
VERTEX
  5
17E
330
17B
100
AcDbEntity
  8
Layer 1
370
     0
100
AcDbVertex
100
AcDb2dVertex
 10
107.1533216420485
 20
382.0872720398949
 30
0.0
  0
VERTEX
  5
17F
330
17B
100
AcDbEntity
  8
Layer 1
370
     0
100
AcDbVertex
100
AcDb2dVertex
 10
106.1501098367437
 20
383.8260117313005
 30
0.0
  0
VERTEX
  5
180
330
17B
100
AcDbEntity
  8
Layer 1
370
     0
100
AcDbVertex
100
AcDb2dVertex
 10
107.1533216420485
 20
385.563373384512
 30
0.0
  0
VERTEX
  5
181
330
17B
100
AcDbEntity
  8
Layer 1
370
     0
100
AcDbVertex
100
AcDb2dVertex
 10
109.159745252658
 20
385.563373384512
 30
0.0
  0
VERTEX
  5
182
330
17B
100
AcDbEntity
  8
Layer 1
370
     0
100
AcDbVertex
100
AcDb2dVertex
 10
110.1636460770598
 20
383.8260117313005
 30
0.0
  0
SEQEND
  5
183
330
17B
100
AcDbEntity
  8
Layer 1
370
     0
  0
POLYLINE
  5
184
330
3C
100
AcDbEntity
  8
Layer 1
370
     0
100
AcDb2dPolyline
 66
     1
 10
0.0
 20
0.0
 30
0.0
  0
VERTEX
  5
185
330
184
100
AcDbEntity
  8
Layer 1
370
     0
100
AcDbVertex
100
AcDb2dVertex
 10
86.16442190771237
 20
355.6372069423407
 30
0.0
  0
VERTEX
  5
186
330
184
100
AcDbEntity
  8
Layer 1
370
     0
100
AcDbVertex
100
AcDb2dVertex
 10
85.16121010240762
 20
353.8988117604836
 30
0.0
  0
VERTEX
  5
187
330
184
100
AcDbEntity
  8
Layer 1
370
     0
100
AcDbVertex
100
AcDb2dVertex
 10
83.15409747270107
 20
353.8988117604836
 30
0.0
  0
VERTEX
  5
188
330
184
100
AcDbEntity
  8
Layer 1
370
     0
100
AcDbVertex
100
AcDb2dVertex
 10
82.15123017694484
 20
355.6372069423407
 30
0.0
  0
VERTEX
  5
189
330
184
100
AcDbEntity
  8
Layer 1
370
     0
100
AcDbVertex
100
AcDb2dVertex
 10
83.15409747270107
 20
357.3749131051007
 30
0.0
  0
VERTEX
  5
18A
330
184
100
AcDbEntity
  8
Layer 1
370
     0
100
AcDbVertex
100
AcDb2dVertex
 10
85.16121010240762
 20
357.3749131051007
 30
0.0
  0
VERTEX
  5
18B
330
184
100
AcDbEntity
  8
Layer 1
370
     0
100
AcDbVertex
100
AcDb2dVertex
 10
86.16442190771237
 20
355.6372069423407
 30
0.0
  0
SEQEND
  5
18C
330
184
100
AcDbEntity
  8
Layer 1
370
     0
  0
POLYLINE
  5
18D
330
3C
100
AcDbEntity
  8
Layer 1
370
     0
100
AcDb2dPolyline
 66
     1
 10
0.0
 20
0.0
 30
0.0
  0
VERTEX
  5
18E
330
18D
100
AcDbEntity
  8
Layer 1
370
     0
100
AcDbVertex
100
AcDb2dVertex
 10
86.16442190771237
 20
360.2801621278119
 30
0.0
  0
VERTEX
  5
18F
330
18D
100
AcDbEntity
  8
Layer 1
370
     0
100
AcDbVertex
100
AcDb2dVertex
 10
85.16121010240762
 20
358.5421114555034
 30
0.0
  0
VERTEX
  5
190
330
18D
100
AcDbEntity
  8
Layer 1
370
     0
100
AcDbVertex
100
AcDb2dVertex
 10
83.15409747270107
 20
358.5421114555034
 30
0.0
  0
VERTEX
  5
191
330
18D
100
AcDbEntity
  8
Layer 1
370
     0
100
AcDbVertex
100
AcDb2dVertex
 10
82.15123017694484
 20
360.2801621278119
 30
0.0
  0
VERTEX
  5
192
330
18D
100
AcDbEntity
  8
Layer 1
370
     0
100
AcDbVertex
100
AcDb2dVertex
 10
83.15409747270107
 20
362.0178682905719
 30
0.0
  0
VERTEX
  5
193
330
18D
100
AcDbEntity
  8
Layer 1
370
     0
100
AcDbVertex
100
AcDb2dVertex
 10
85.16121010240762
 20
362.0178682905719
 30
0.0
  0
VERTEX
  5
194
330
18D
100
AcDbEntity
  8
Layer 1
370
     0
100
AcDbVertex
100
AcDb2dVertex
 10
86.16442190771237
 20
360.2801621278119
 30
0.0
  0
SEQEND
  5
195
330
18D
100
AcDbEntity
  8
Layer 1
370
     0
  0
POLYLINE
  5
196
330
3C
100
AcDbEntity
  8
Layer 1
370
     0
100
AcDb2dPolyline
 66
     1
 10
0.0
 20
0.0
 30
0.0
  0
VERTEX
  5
197
330
196
100
AcDbEntity
  8
Layer 1
370
     0
100
AcDbVertex
100
AcDb2dVertex
 10
86.16442190771237
 20
350.9208712230337
 30
0.0
  0
VERTEX
  5
198
330
196
100
AcDbEntity
  8
Layer 1
370
     0
100
AcDbVertex
100
AcDb2dVertex
 10
85.16121010240762
 20
349.1831650602737
 30
0.0
  0
VERTEX
  5
199
330
196
100
AcDbEntity
  8
Layer 1
370
     0
100
AcDbVertex
100
AcDb2dVertex
 10
83.15409747270107
 20
349.1831650602737
 30
0.0
  0
VERTEX
  5
19A
330
196
100
AcDbEntity
  8
Layer 1
370
     0
100
AcDbVertex
100
AcDb2dVertex
 10
82.15123017694484
 20
350.9208712230337
 30
0.0
  0
VERTEX
  5
19B
330
196
100
AcDbEntity
  8
Layer 1
370
     0
100
AcDbVertex
100
AcDb2dVertex
 10
83.15409747270107
 20
352.6582328762452
 30
0.0
  0
VERTEX
  5
19C
330
196
100
AcDbEntity
  8
Layer 1
370
     0
100
AcDbVertex
100
AcDb2dVertex
 10
85.16121010240762
 20
352.6582328762452
 30
0.0
  0
VERTEX
  5
19D
330
196
100
AcDbEntity
  8
Layer 1
370
     0
100
AcDbVertex
100
AcDb2dVertex
 10
86.16442190771237
 20
350.9208712230337
 30
0.0
  0
SEQEND
  5
19E
330
196
100
AcDbEntity
  8
Layer 1
370
     0
  0
POLYLINE
  5
19F
330
3C
100
AcDbEntity
  8
Layer 1
370
     0
100
AcDb2dPolyline
 66
     1
 10
0.0
 20
0.0
 30
0.0
  0
VERTEX
  5
1A0
330
19F
100
AcDbEntity
  8
Layer 1
370
     0
100
AcDbVertex
100
AcDb2dVertex
 10
86.16442190771237
 20
364.9048583072113
 30
0.0
  0
VERTEX
  5
1A1
330
19F
100
AcDbEntity
  8
Layer 1
370
     0
100
AcDbVertex
100
AcDb2dVertex
 10
85.16121010240762
 20
363.1671521444513
 30
0.0
  0
VERTEX
  5
1A2
330
19F
100
AcDbEntity
  8
Layer 1
370
     0
100
AcDbVertex
100
AcDb2dVertex
 10
83.15409747270107
 20
363.1671521444513
 30
0.0
  0
VERTEX
  5
1A3
330
19F
100
AcDbEntity
  8
Layer 1
370
     0
100
AcDbVertex
100
AcDb2dVertex
 10
82.15123017694484
 20
364.9048583072113
 30
0.0
  0
VERTEX
  5
1A4
330
19F
100
AcDbEntity
  8
Layer 1
370
     0
100
AcDbVertex
100
AcDb2dVertex
 10
83.15409747270107
 20
366.6425644699713
 30
0.0
  0
VERTEX
  5
1A5
330
19F
100
AcDbEntity
  8
Layer 1
370
     0
100
AcDbVertex
100
AcDb2dVertex
 10
85.16121010240762
 20
366.6425644699713
 30
0.0
  0
VERTEX
  5
1A6
330
19F
100
AcDbEntity
  8
Layer 1
370
     0
100
AcDbVertex
100
AcDb2dVertex
 10
86.16442190771237
 20
364.9048583072113
 30
0.0
  0
SEQEND
  5
1A7
330
19F
100
AcDbEntity
  8
Layer 1
370
     0
  0
POLYLINE
  5
1A8
330
3C
100
AcDbEntity
  8
Layer 1
370
     0
100
AcDb2dPolyline
 66
     1
 10
0.0
 20
0.0
 30
0.0
  0
VERTEX
  5
1A9
330
1A8
100
AcDbEntity
  8
Layer 1
370
     0
100
AcDbVertex
100
AcDb2dVertex
 10
90.17795814802844
 20
358.0043320502559
 30
0.0
  0
VERTEX
  5
1AA
330
1A8
100
AcDbEntity
  8
Layer 1
370
     0
100
AcDbVertex
100
AcDb2dVertex
 10
89.17474634272368
 20
356.2662813779473
 30
0.0
  0
VERTEX
  5
1AB
330
1A8
100
AcDbEntity
  8
Layer 1
370
     0
100
AcDbVertex
100
AcDb2dVertex
 10
87.16797822256565
 20
356.2662813779473
 30
0.0
  0
VERTEX
  5
1AC
330
1A8
100
AcDbEntity
  8
Layer 1
370
     0
100
AcDbVertex
100
AcDb2dVertex
 10
86.16442190771237
 20
358.0043320502559
 30
0.0
  0
VERTEX
  5
1AD
330
1A8
100
AcDbEntity
  8
Layer 1
370
     0
100
AcDbVertex
100
AcDb2dVertex
 10
87.16797822256565
 20
359.7416937034674
 30
0.0
  0
VERTEX
  5
1AE
330
1A8
100
AcDbEntity
  8
Layer 1
370
     0
100
AcDbVertex
100
AcDb2dVertex
 10
89.17474634272368
 20
359.7416937034674
 30
0.0
  0
VERTEX
  5
1AF
330
1A8
100
AcDbEntity
  8
Layer 1
370
     0
100
AcDbVertex
100
AcDb2dVertex
 10
90.17795814802844
 20
358.0043320502559
 30
0.0
  0
SEQEND
  5
1B0
330
1A8
100
AcDbEntity
  8
Layer 1
370
     0
  0
POLYLINE
  5
1B1
330
3C
100
AcDbEntity
  8
Layer 1
370
     0
100
AcDb2dPolyline
 66
     1
 10
0.0
 20
0.0
 30
0.0
  0
VERTEX
  5
1B2
330
1B1
100
AcDbEntity
  8
Layer 1
370
     0
100
AcDbVertex
100
AcDb2dVertex
 10
90.17795814802844
 20
362.6469427261786
 30
0.0
  0
VERTEX
  5
1B3
330
1B1
100
AcDbEntity
  8
Layer 1
370
     0
100
AcDbVertex
100
AcDb2dVertex
 10
89.17474634272368
 20
360.9092365634185
 30
0.0
  0
VERTEX
  5
1B4
330
1B1
100
AcDbEntity
  8
Layer 1
370
     0
100
AcDbVertex
100
AcDb2dVertex
 10
87.16797822256565
 20
360.9092365634185
 30
0.0
  0
VERTEX
  5
1B5
330
1B1
100
AcDbEntity
  8
Layer 1
370
     0
100
AcDbVertex
100
AcDb2dVertex
 10
86.16442190771237
 20
362.6469427261786
 30
0.0
  0
VERTEX
  5
1B6
330
1B1
100
AcDbEntity
  8
Layer 1
370
     0
100
AcDbVertex
100
AcDb2dVertex
 10
87.16797822256565
 20
364.3849933984871
 30
0.0
  0
VERTEX
  5
1B7
330
1B1
100
AcDbEntity
  8
Layer 1
370
     0
100
AcDbVertex
100
AcDb2dVertex
 10
89.17474634272368
 20
364.3849933984871
 30
0.0
  0
VERTEX
  5
1B8
330
1B1
100
AcDbEntity
  8
Layer 1
370
     0
100
AcDbVertex
100
AcDb2dVertex
 10
90.17795814802844
 20
362.6469427261786
 30
0.0
  0
SEQEND
  5
1B9
330
1B1
100
AcDbEntity
  8
Layer 1
370
     0
  0
POLYLINE
  5
1BA
330
3C
100
AcDbEntity
  8
Layer 1
370
     0
100
AcDb2dPolyline
 66
     1
 10
0.0
 20
0.0
 30
0.0
  0
VERTEX
  5
1BB
330
1BA
100
AcDbEntity
  8
Layer 1
370
     0
100
AcDbVertex
100
AcDb2dVertex
 10
90.17795814802844
 20
353.2879963309488
 30
0.0
  0
VERTEX
  5
1BC
330
1BA
100
AcDbEntity
  8
Layer 1
370
     0
100
AcDbVertex
100
AcDb2dVertex
 10
89.17474634272368
 20
351.5502901681888
 30
0.0
  0
VERTEX
  5
1BD
330
1BA
100
AcDbEntity
  8
Layer 1
370
     0
100
AcDbVertex
100
AcDb2dVertex
 10
87.16797822256565
 20
351.5502901681888
 30
0.0
  0
VERTEX
  5
1BE
330
1BA
100
AcDbEntity
  8
Layer 1
370
     0
100
AcDbVertex
100
AcDb2dVertex
 10
86.16442190771237
 20
353.2879963309488
 30
0.0
  0
VERTEX
  5
1BF
330
1BA
100
AcDbEntity
  8
Layer 1
370
     0
100
AcDbVertex
100
AcDb2dVertex
 10
87.16797822256565
 20
355.0257024937089
 30
0.0
  0
VERTEX
  5
1C0
330
1BA
100
AcDbEntity
  8
Layer 1
370
     0
100
AcDbVertex
100
AcDb2dVertex
 10
89.17474634272368
 20
355.0257024937089
 30
0.0
  0
VERTEX
  5
1C1
330
1BA
100
AcDbEntity
  8
Layer 1
370
     0
100
AcDbVertex
100
AcDb2dVertex
 10
90.17795814802844
 20
353.2879963309488
 30
0.0
  0
SEQEND
  5
1C2
330
1BA
100
AcDbEntity
  8
Layer 1
370
     0
  0
POLYLINE
  5
1C3
330
3C
100
AcDbEntity
  8
Layer 1
370
     0
100
AcDb2dPolyline
 66
     1
 10
0.0
 20
0.0
 30
0.0
  0
VERTEX
  5
1C4
330
1C3
100
AcDbEntity
  8
Layer 1
370
     0
100
AcDbVertex
100
AcDb2dVertex
 10
90.17795814802844
 20
367.2719834151264
 30
0.0
  0
VERTEX
  5
1C5
330
1C3
100
AcDbEntity
  8
Layer 1
370
     0
100
AcDbVertex
100
AcDb2dVertex
 10
89.17474634272368
 20
365.5342772523665
 30
0.0
  0
VERTEX
  5
1C6
330
1C3
100
AcDbEntity
  8
Layer 1
370
     0
100
AcDbVertex
100
AcDb2dVertex
 10
87.16797822256565
 20
365.5342772523665
 30
0.0
  0
VERTEX
  5
1C7
330
1C3
100
AcDbEntity
  8
Layer 1
370
     0
100
AcDbVertex
100
AcDb2dVertex
 10
86.16442190771237
 20
367.2719834151264
 30
0.0
  0
VERTEX
  5
1C8
330
1C3
100
AcDbEntity
  8
Layer 1
370
     0
100
AcDbVertex
100
AcDb2dVertex
 10
87.16797822256565
 20
369.0096895778865
 30
0.0
  0
VERTEX
  5
1C9
330
1C3
100
AcDbEntity
  8
Layer 1
370
     0
100
AcDbVertex
100
AcDb2dVertex
 10
89.17474634272368
 20
369.0096895778865
 30
0.0
  0
VERTEX
  5
1CA
330
1C3
100
AcDbEntity
  8
Layer 1
370
     0
100
AcDbVertex
100
AcDb2dVertex
 10
90.17795814802844
 20
367.2719834151264
 30
0.0
  0
SEQEND
  5
1CB
330
1C3
100
AcDbEntity
  8
Layer 1
370
     0
  0
POLYLINE
  5
1CC
330
3C
100
AcDbEntity
  8
Layer 1
370
     0
100
AcDb2dPolyline
 66
     1
 10
0.0
 20
0.0
 30
0.0
  0
VERTEX
  5
1CD
330
1CC
100
AcDbEntity
  8
Layer 1
370
     0
100
AcDbVertex
100
AcDb2dVertex
 10
94.1914943883445
 20
355.7285019726999
 30
0.0
  0
VERTEX
  5
1CE
330
1CC
100
AcDbEntity
  8
Layer 1
370
     0
100
AcDbVertex
100
AcDb2dVertex
 10
93.18759356394268
 20
353.9901067908428
 30
0.0
  0
VERTEX
  5
1CF
330
1CC
100
AcDbEntity
  8
Layer 1
370
     0
100
AcDbVertex
100
AcDb2dVertex
 10
91.18116995333318
 20
353.9901067908428
 30
0.0
  0
VERTEX
  5
1D0
330
1CC
100
AcDbEntity
  8
Layer 1
370
     0
100
AcDbVertex
100
AcDb2dVertex
 10
90.17795814802844
 20
355.7285019726999
 30
0.0
  0
VERTEX
  5
1D1
330
1CC
100
AcDbEntity
  8
Layer 1
370
     0
100
AcDbVertex
100
AcDb2dVertex
 10
91.18116995333318
 20
357.4662081354599
 30
0.0
  0
VERTEX
  5
1D2
330
1CC
100
AcDbEntity
  8
Layer 1
370
     0
100
AcDbVertex
100
AcDb2dVertex
 10
93.18759356394268
 20
357.4662081354599
 30
0.0
  0
VERTEX
  5
1D3
330
1CC
100
AcDbEntity
  8
Layer 1
370
     0
100
AcDbVertex
100
AcDb2dVertex
 10
94.1914943883445
 20
355.7285019726999
 30
0.0
  0
SEQEND
  5
1D4
330
1CC
100
AcDbEntity
  8
Layer 1
370
     0
  0
POLYLINE
  5
1D5
330
3C
100
AcDbEntity
  8
Layer 1
370
     0
100
AcDb2dPolyline
 66
     1
 10
0.0
 20
0.0
 30
0.0
  0
VERTEX
  5
1D6
330
1D5
100
AcDbEntity
  8
Layer 1
370
     0
100
AcDbVertex
100
AcDb2dVertex
 10
94.1914943883445
 20
360.3711126486225
 30
0.0
  0
VERTEX
  5
1D7
330
1D5
100
AcDbEntity
  8
Layer 1
370
     0
100
AcDbVertex
100
AcDb2dVertex
 10
93.18759356394268
 20
358.633750995411
 30
0.0
  0
VERTEX
  5
1D8
330
1D5
100
AcDbEntity
  8
Layer 1
370
     0
100
AcDbVertex
100
AcDb2dVertex
 10
91.18116995333318
 20
358.633750995411
 30
0.0
  0
VERTEX
  5
1D9
330
1D5
100
AcDbEntity
  8
Layer 1
370
     0
100
AcDbVertex
100
AcDb2dVertex
 10
90.17795814802844
 20
360.3711126486225
 30
0.0
  0
VERTEX
  5
1DA
330
1D5
100
AcDbEntity
  8
Layer 1
370
     0
100
AcDbVertex
100
AcDb2dVertex
 10
91.18116995333318
 20
362.1088188113825
 30
0.0
  0
VERTEX
  5
1DB
330
1D5
100
AcDbEntity
  8
Layer 1
370
     0
100
AcDbVertex
100
AcDb2dVertex
 10
93.18759356394268
 20
362.1088188113825
 30
0.0
  0
VERTEX
  5
1DC
330
1D5
100
AcDbEntity
  8
Layer 1
370
     0
100
AcDbVertex
100
AcDb2dVertex
 10
94.1914943883445
 20
360.3711126486225
 30
0.0
  0
SEQEND
  5
1DD
330
1D5
100
AcDbEntity
  8
Layer 1
370
     0
  0
POLYLINE
  5
1DE
330
3C
100
AcDbEntity
  8
Layer 1
370
     0
100
AcDb2dPolyline
 66
     1
 10
0.0
 20
0.0
 30
0.0
  0
VERTEX
  5
1DF
330
1DE
100
AcDbEntity
  8
Layer 1
370
     0
100
AcDbVertex
100
AcDb2dVertex
 10
94.1914943883445
 20
351.0121662533928
 30
0.0
  0
VERTEX
  5
1E0
330
1DE
100
AcDbEntity
  8
Layer 1
370
     0
100
AcDbVertex
100
AcDb2dVertex
 10
93.18759356394268
 20
349.2744600906328
 30
0.0
  0
VERTEX
  5
1E1
330
1DE
100
AcDbEntity
  8
Layer 1
370
     0
100
AcDbVertex
100
AcDb2dVertex
 10
91.18116995333318
 20
349.2744600906328
 30
0.0
  0
VERTEX
  5
1E2
330
1DE
100
AcDbEntity
  8
Layer 1
370
     0
100
AcDbVertex
100
AcDb2dVertex
 10
90.17795814802844
 20
351.0121662533928
 30
0.0
  0
VERTEX
  5
1E3
330
1DE
100
AcDbEntity
  8
Layer 1
370
     0
100
AcDbVertex
100
AcDb2dVertex
 10
91.18116995333318
 20
352.7498724161528
 30
0.0
  0
VERTEX
  5
1E4
330
1DE
100
AcDbEntity
  8
Layer 1
370
     0
100
AcDbVertex
100
AcDb2dVertex
 10
93.18759356394268
 20
352.7498724161528
 30
0.0
  0
VERTEX
  5
1E5
330
1DE
100
AcDbEntity
  8
Layer 1
370
     0
100
AcDbVertex
100
AcDb2dVertex
 10
94.1914943883445
 20
351.0121662533928
 30
0.0
  0
SEQEND
  5
1E6
330
1DE
100
AcDbEntity
  8
Layer 1
370
     0
  0
POLYLINE
  5
1E7
330
3C
100
AcDbEntity
  8
Layer 1
370
     0
100
AcDb2dPolyline
 66
     1
 10
0.0
 20
0.0
 30
0.0
  0
VERTEX
  5
1E8
330
1E7
100
AcDbEntity
  8
Layer 1
370
     0
100
AcDbVertex
100
AcDb2dVertex
 10
94.1914943883445
 20
364.9961533375704
 30
0.0
  0
VERTEX
  5
1E9
330
1E7
100
AcDbEntity
  8
Layer 1
370
     0
100
AcDbVertex
100
AcDb2dVertex
 10
93.18759356394268
 20
363.2584471748104
 30
0.0
  0
VERTEX
  5
1EA
330
1E7
100
AcDbEntity
  8
Layer 1
370
     0
100
AcDbVertex
100
AcDb2dVertex
 10
91.18116995333318
 20
363.2584471748104
 30
0.0
  0
VERTEX
  5
1EB
330
1E7
100
AcDbEntity
  8
Layer 1
370
     0
100
AcDbVertex
100
AcDb2dVertex
 10
90.17795814802844
 20
364.9961533375704
 30
0.0
  0
VERTEX
  5
1EC
330
1E7
100
AcDbEntity
  8
Layer 1
370
     0
100
AcDbVertex
100
AcDb2dVertex
 10
91.18116995333318
 20
366.7338595003304
 30
0.0
  0
VERTEX
  5
1ED
330
1E7
100
AcDbEntity
  8
Layer 1
370
     0
100
AcDbVertex
100
AcDb2dVertex
 10
93.18759356394268
 20
366.7338595003304
 30
0.0
  0
VERTEX
  5
1EE
330
1E7
100
AcDbEntity
  8
Layer 1
370
     0
100
AcDbVertex
100
AcDb2dVertex
 10
94.1914943883445
 20
364.9961533375704
 30
0.0
  0
SEQEND
  5
1EF
330
1E7
100
AcDbEntity
  8
Layer 1
370
     0
  0
POLYLINE
  5
1F0
330
3C
100
AcDbEntity
  8
Layer 1
370
     0
100
AcDb2dPolyline
 66
     1
 10
0.0
 20
0.0
 30
0.0
  0
VERTEX
  5
1F1
330
1F0
100
AcDbEntity
  8
Layer 1
370
     0
100
AcDbVertex
100
AcDb2dVertex
 10
98.20503062866055
 20
358.0043320502559
 30
0.0
  0
VERTEX
  5
1F2
330
1F0
100
AcDbEntity
  8
Layer 1
370
     0
100
AcDbVertex
100
AcDb2dVertex
 10
97.2018188233558
 20
356.2662813779473
 30
0.0
  0
VERTEX
  5
1F3
330
1F0
100
AcDbEntity
  8
Layer 1
370
     0
100
AcDbVertex
100
AcDb2dVertex
 10
95.19470619364924
 20
356.2662813779473
 30
0.0
  0
VERTEX
  5
1F4
330
1F0
100
AcDbEntity
  8
Layer 1
370
     0
100
AcDbVertex
100
AcDb2dVertex
 10
94.1914943883445
 20
358.0043320502559
 30
0.0
  0
VERTEX
  5
1F5
330
1F0
100
AcDbEntity
  8
Layer 1
370
     0
100
AcDbVertex
100
AcDb2dVertex
 10
95.19470619364924
 20
359.7416937034674
 30
0.0
  0
VERTEX
  5
1F6
330
1F0
100
AcDbEntity
  8
Layer 1
370
     0
100
AcDbVertex
100
AcDb2dVertex
 10
97.2018188233558
 20
359.7416937034674
 30
0.0
  0
VERTEX
  5
1F7
330
1F0
100
AcDbEntity
  8
Layer 1
370
     0
100
AcDbVertex
100
AcDb2dVertex
 10
98.20503062866055
 20
358.0043320502559
 30
0.0
  0
SEQEND
  5
1F8
330
1F0
100
AcDbEntity
  8
Layer 1
370
     0
  0
POLYLINE
  5
1F9
330
3C
100
AcDbEntity
  8
Layer 1
370
     0
100
AcDb2dPolyline
 66
     1
 10
0.0
 20
0.0
 30
0.0
  0
VERTEX
  5
1FA
330
1F9
100
AcDbEntity
  8
Layer 1
370
     0
100
AcDbVertex
100
AcDb2dVertex
 10
98.20503062866055
 20
362.6469427261786
 30
0.0
  0
VERTEX
  5
1FB
330
1F9
100
AcDbEntity
  8
Layer 1
370
     0
100
AcDbVertex
100
AcDb2dVertex
 10
97.2018188233558
 20
360.9092365634185
 30
0.0
  0
VERTEX
  5
1FC
330
1F9
100
AcDbEntity
  8
Layer 1
370
     0
100
AcDbVertex
100
AcDb2dVertex
 10
95.19470619364924
 20
360.9092365634185
 30
0.0
  0
VERTEX
  5
1FD
330
1F9
100
AcDbEntity
  8
Layer 1
370
     0
100
AcDbVertex
100
AcDb2dVertex
 10
94.1914943883445
 20
362.6469427261786
 30
0.0
  0
VERTEX
  5
1FE
330
1F9
100
AcDbEntity
  8
Layer 1
370
     0
100
AcDbVertex
100
AcDb2dVertex
 10
95.19470619364924
 20
364.3849933984871
 30
0.0
  0
VERTEX
  5
1FF
330
1F9
100
AcDbEntity
  8
Layer 1
370
     0
100
AcDbVertex
100
AcDb2dVertex
 10
97.2018188233558
 20
364.3849933984871
 30
0.0
  0
VERTEX
  5
200
330
1F9
100
AcDbEntity
  8
Layer 1
370
     0
100
AcDbVertex
100
AcDb2dVertex
 10
98.20503062866055
 20
362.6469427261786
 30
0.0
  0
SEQEND
  5
201
330
1F9
100
AcDbEntity
  8
Layer 1
370
     0
  0
POLYLINE
  5
202
330
3C
100
AcDbEntity
  8
Layer 1
370
     0
100
AcDb2dPolyline
 66
     1
 10
0.0
 20
0.0
 30
0.0
  0
VERTEX
  5
203
330
202
100
AcDbEntity
  8
Layer 1
370
     0
100
AcDbVertex
100
AcDb2dVertex
 10
98.20503062866055
 20
353.2879963309488
 30
0.0
  0
VERTEX
  5
204
330
202
100
AcDbEntity
  8
Layer 1
370
     0
100
AcDbVertex
100
AcDb2dVertex
 10
97.2018188233558
 20
351.5502901681888
 30
0.0
  0
VERTEX
  5
205
330
202
100
AcDbEntity
  8
Layer 1
370
     0
100
AcDbVertex
100
AcDb2dVertex
 10
95.19470619364924
 20
351.5502901681888
 30
0.0
  0
VERTEX
  5
206
330
202
100
AcDbEntity
  8
Layer 1
370
     0
100
AcDbVertex
100
AcDb2dVertex
 10
94.1914943883445
 20
353.2879963309488
 30
0.0
  0
VERTEX
  5
207
330
202
100
AcDbEntity
  8
Layer 1
370
     0
100
AcDbVertex
100
AcDb2dVertex
 10
95.19470619364924
 20
355.0257024937089
 30
0.0
  0
VERTEX
  5
208
330
202
100
AcDbEntity
  8
Layer 1
370
     0
100
AcDbVertex
100
AcDb2dVertex
 10
97.2018188233558
 20
355.0257024937089
 30
0.0
  0
VERTEX
  5
209
330
202
100
AcDbEntity
  8
Layer 1
370
     0
100
AcDbVertex
100
AcDb2dVertex
 10
98.20503062866055
 20
353.2879963309488
 30
0.0
  0
SEQEND
  5
20A
330
202
100
AcDbEntity
  8
Layer 1
370
     0
  0
POLYLINE
  5
20B
330
3C
100
AcDbEntity
  8
Layer 1
370
     0
100
AcDb2dPolyline
 66
     1
 10
0.0
 20
0.0
 30
0.0
  0
VERTEX
  5
20C
330
20B
100
AcDbEntity
  8
Layer 1
370
     0
100
AcDbVertex
100
AcDb2dVertex
 10
98.20503062866055
 20
367.2719834151264
 30
0.0
  0
VERTEX
  5
20D
330
20B
100
AcDbEntity
  8
Layer 1
370
     0
100
AcDbVertex
100
AcDb2dVertex
 10
97.2018188233558
 20
365.5342772523665
 30
0.0
  0
VERTEX
  5
20E
330
20B
100
AcDbEntity
  8
Layer 1
370
     0
100
AcDbVertex
100
AcDb2dVertex
 10
95.19470619364924
 20
365.5342772523665
 30
0.0
  0
VERTEX
  5
20F
330
20B
100
AcDbEntity
  8
Layer 1
370
     0
100
AcDbVertex
100
AcDb2dVertex
 10
94.1914943883445
 20
367.2719834151264
 30
0.0
  0
VERTEX
  5
210
330
20B
100
AcDbEntity
  8
Layer 1
370
     0
100
AcDbVertex
100
AcDb2dVertex
 10
95.19470619364924
 20
369.0096895778865
 30
0.0
  0
VERTEX
  5
211
330
20B
100
AcDbEntity
  8
Layer 1
370
     0
100
AcDbVertex
100
AcDb2dVertex
 10
97.2018188233558
 20
369.0096895778865
 30
0.0
  0
VERTEX
  5
212
330
20B
100
AcDbEntity
  8
Layer 1
370
     0
100
AcDbVertex
100
AcDb2dVertex
 10
98.20503062866055
 20
367.2719834151264
 30
0.0
  0
SEQEND
  5
213
330
20B
100
AcDbEntity
  8
Layer 1
370
     0
  0
POLYLINE
  5
214
330
3C
100
AcDbEntity
  8
Layer 1
370
     0
100
AcDb2dPolyline
 66
     1
 10
0.0
 20
0.0
 30
0.0
  0
VERTEX
  5
215
330
214
100
AcDbEntity
  8
Layer 1
370
     0
100
AcDbVertex
100
AcDb2dVertex
 10
102.2185668689766
 20
355.7285019726999
 30
0.0
  0
VERTEX
  5
216
330
214
100
AcDbEntity
  8
Layer 1
370
     0
100
AcDbVertex
100
AcDb2dVertex
 10
101.2146660445748
 20
353.9901067908428
 30
0.0
  0
VERTEX
  5
217
330
214
100
AcDbEntity
  8
Layer 1
370
     0
100
AcDbVertex
100
AcDb2dVertex
 10
99.20824243396531
 20
353.9901067908428
 30
0.0
  0
VERTEX
  5
218
330
214
100
AcDbEntity
  8
Layer 1
370
     0
100
AcDbVertex
100
AcDb2dVertex
 10
98.20503062866055
 20
355.7285019726999
 30
0.0
  0
VERTEX
  5
219
330
214
100
AcDbEntity
  8
Layer 1
370
     0
100
AcDbVertex
100
AcDb2dVertex
 10
99.20824243396531
 20
357.4662081354599
 30
0.0
  0
VERTEX
  5
21A
330
214
100
AcDbEntity
  8
Layer 1
370
     0
100
AcDbVertex
100
AcDb2dVertex
 10
101.2146660445748
 20
357.4662081354599
 30
0.0
  0
VERTEX
  5
21B
330
214
100
AcDbEntity
  8
Layer 1
370
     0
100
AcDbVertex
100
AcDb2dVertex
 10
102.2185668689766
 20
355.7285019726999
 30
0.0
  0
SEQEND
  5
21C
330
214
100
AcDbEntity
  8
Layer 1
370
     0
  0
POLYLINE
  5
21D
330
3C
100
AcDbEntity
  8
Layer 1
370
     0
100
AcDb2dPolyline
 66
     1
 10
0.0
 20
0.0
 30
0.0
  0
VERTEX
  5
21E
330
21D
100
AcDbEntity
  8
Layer 1
370
     0
100
AcDbVertex
100
AcDb2dVertex
 10
102.2185668689766
 20
360.3711126486225
 30
0.0
  0
VERTEX
  5
21F
330
21D
100
AcDbEntity
  8
Layer 1
370
     0
100
AcDbVertex
100
AcDb2dVertex
 10
101.2146660445748
 20
358.633750995411
 30
0.0
  0
VERTEX
  5
220
330
21D
100
AcDbEntity
  8
Layer 1
370
     0
100
AcDbVertex
100
AcDb2dVertex
 10
99.20824243396531
 20
358.633750995411
 30
0.0
  0
VERTEX
  5
221
330
21D
100
AcDbEntity
  8
Layer 1
370
     0
100
AcDbVertex
100
AcDb2dVertex
 10
98.20503062866055
 20
360.3711126486225
 30
0.0
  0
VERTEX
  5
222
330
21D
100
AcDbEntity
  8
Layer 1
370
     0
100
AcDbVertex
100
AcDb2dVertex
 10
99.20824243396531
 20
362.1088188113825
 30
0.0
  0
VERTEX
  5
223
330
21D
100
AcDbEntity
  8
Layer 1
370
     0
100
AcDbVertex
100
AcDb2dVertex
 10
101.2146660445748
 20
362.1088188113825
 30
0.0
  0
VERTEX
  5
224
330
21D
100
AcDbEntity
  8
Layer 1
370
     0
100
AcDbVertex
100
AcDb2dVertex
 10
102.2185668689766
 20
360.3711126486225
 30
0.0
  0
SEQEND
  5
225
330
21D
100
AcDbEntity
  8
Layer 1
370
     0
  0
POLYLINE
  5
226
330
3C
100
AcDbEntity
  8
Layer 1
370
     0
100
AcDb2dPolyline
 66
     1
 10
0.0
 20
0.0
 30
0.0
  0
VERTEX
  5
227
330
226
100
AcDbEntity
  8
Layer 1
370
     0
100
AcDbVertex
100
AcDb2dVertex
 10
102.2185668689766
 20
351.0121662533928
 30
0.0
  0
VERTEX
  5
228
330
226
100
AcDbEntity
  8
Layer 1
370
     0
100
AcDbVertex
100
AcDb2dVertex
 10
101.2146660445748
 20
349.2744600906328
 30
0.0
  0
VERTEX
  5
229
330
226
100
AcDbEntity
  8
Layer 1
370
     0
100
AcDbVertex
100
AcDb2dVertex
 10
99.20824243396531
 20
349.2744600906328
 30
0.0
  0
VERTEX
  5
22A
330
226
100
AcDbEntity
  8
Layer 1
370
     0
100
AcDbVertex
100
AcDb2dVertex
 10
98.20503062866055
 20
351.0121662533928
 30
0.0
  0
VERTEX
  5
22B
330
226
100
AcDbEntity
  8
Layer 1
370
     0
100
AcDbVertex
100
AcDb2dVertex
 10
99.20824243396531
 20
352.7498724161528
 30
0.0
  0
VERTEX
  5
22C
330
226
100
AcDbEntity
  8
Layer 1
370
     0
100
AcDbVertex
100
AcDb2dVertex
 10
101.2146660445748
 20
352.7498724161528
 30
0.0
  0
VERTEX
  5
22D
330
226
100
AcDbEntity
  8
Layer 1
370
     0
100
AcDbVertex
100
AcDb2dVertex
 10
102.2185668689766
 20
351.0121662533928
 30
0.0
  0
SEQEND
  5
22E
330
226
100
AcDbEntity
  8
Layer 1
370
     0
  0
POLYLINE
  5
22F
330
3C
100
AcDbEntity
  8
Layer 1
370
     0
100
AcDb2dPolyline
 66
     1
 10
0.0
 20
0.0
 30
0.0
  0
VERTEX
  5
230
330
22F
100
AcDbEntity
  8
Layer 1
370
     0
100
AcDbVertex
100
AcDb2dVertex
 10
102.2185668689766
 20
364.9961533375704
 30
0.0
  0
VERTEX
  5
231
330
22F
100
AcDbEntity
  8
Layer 1
370
     0
100
AcDbVertex
100
AcDb2dVertex
 10
101.2146660445748
 20
363.2584471748104
 30
0.0
  0
VERTEX
  5
232
330
22F
100
AcDbEntity
  8
Layer 1
370
     0
100
AcDbVertex
100
AcDb2dVertex
 10
99.20824243396531
 20
363.2584471748104
 30
0.0
  0
VERTEX
  5
233
330
22F
100
AcDbEntity
  8
Layer 1
370
     0
100
AcDbVertex
100
AcDb2dVertex
 10
98.20503062866055
 20
364.9961533375704
 30
0.0
  0
VERTEX
  5
234
330
22F
100
AcDbEntity
  8
Layer 1
370
     0
100
AcDbVertex
100
AcDb2dVertex
 10
99.20824243396531
 20
366.7338595003304
 30
0.0
  0
VERTEX
  5
235
330
22F
100
AcDbEntity
  8
Layer 1
370
     0
100
AcDbVertex
100
AcDb2dVertex
 10
101.2146660445748
 20
366.7338595003304
 30
0.0
  0
VERTEX
  5
236
330
22F
100
AcDbEntity
  8
Layer 1
370
     0
100
AcDbVertex
100
AcDb2dVertex
 10
102.2185668689766
 20
364.9961533375704
 30
0.0
  0
SEQEND
  5
237
330
22F
100
AcDbEntity
  8
Layer 1
370
     0
  0
POLYLINE
  5
238
330
3C
100
AcDbEntity
  8
Layer 1
370
     0
100
AcDb2dPolyline
 66
     1
 10
0.0
 20
0.0
 30
0.0
  0
VERTEX
  5
239
330
238
100
AcDbEntity
  8
Layer 1
370
     0
100
AcDbVertex
100
AcDb2dVertex
 10
106.2321031092927
 20
358.0043320502559
 30
0.0
  0
VERTEX
  5
23A
330
238
100
AcDbEntity
  8
Layer 1
370
     0
100
AcDbVertex
100
AcDb2dVertex
 10
105.2282022848909
 20
356.2662813779473
 30
0.0
  0
VERTEX
  5
23B
330
238
100
AcDbEntity
  8
Layer 1
370
     0
100
AcDbVertex
100
AcDb2dVertex
 10
103.2217786742814
 20
356.2662813779473
 30
0.0
  0
VERTEX
  5
23C
330
238
100
AcDbEntity
  8
Layer 1
370
     0
100
AcDbVertex
100
AcDb2dVertex
 10
102.2185668689766
 20
358.0043320502559
 30
0.0
  0
VERTEX
  5
23D
330
238
100
AcDbEntity
  8
Layer 1
370
     0
100
AcDbVertex
100
AcDb2dVertex
 10
103.2217786742814
 20
359.7416937034674
 30
0.0
  0
VERTEX
  5
23E
330
238
100
AcDbEntity
  8
Layer 1
370
     0
100
AcDbVertex
100
AcDb2dVertex
 10
105.2282022848909
 20
359.7416937034674
 30
0.0
  0
VERTEX
  5
23F
330
238
100
AcDbEntity
  8
Layer 1
370
     0
100
AcDbVertex
100
AcDb2dVertex
 10
106.2321031092927
 20
358.0043320502559
 30
0.0
  0
SEQEND
  5
240
330
238
100
AcDbEntity
  8
Layer 1
370
     0
  0
POLYLINE
  5
241
330
3C
100
AcDbEntity
  8
Layer 1
370
     0
100
AcDb2dPolyline
 66
     1
 10
0.0
 20
0.0
 30
0.0
  0
VERTEX
  5
242
330
241
100
AcDbEntity
  8
Layer 1
370
     0
100
AcDbVertex
100
AcDb2dVertex
 10
106.2321031092927
 20
362.6469427261786
 30
0.0
  0
VERTEX
  5
243
330
241
100
AcDbEntity
  8
Layer 1
370
     0
100
AcDbVertex
100
AcDb2dVertex
 10
105.2282022848909
 20
360.9092365634185
 30
0.0
  0
VERTEX
  5
244
330
241
100
AcDbEntity
  8
Layer 1
370
     0
100
AcDbVertex
100
AcDb2dVertex
 10
103.2217786742814
 20
360.9092365634185
 30
0.0
  0
VERTEX
  5
245
330
241
100
AcDbEntity
  8
Layer 1
370
     0
100
AcDbVertex
100
AcDb2dVertex
 10
102.2185668689766
 20
362.6469427261786
 30
0.0
  0
VERTEX
  5
246
330
241
100
AcDbEntity
  8
Layer 1
370
     0
100
AcDbVertex
100
AcDb2dVertex
 10
103.2217786742814
 20
364.3849933984871
 30
0.0
  0
VERTEX
  5
247
330
241
100
AcDbEntity
  8
Layer 1
370
     0
100
AcDbVertex
100
AcDb2dVertex
 10
105.2282022848909
 20
364.3849933984871
 30
0.0
  0
VERTEX
  5
248
330
241
100
AcDbEntity
  8
Layer 1
370
     0
100
AcDbVertex
100
AcDb2dVertex
 10
106.2321031092927
 20
362.6469427261786
 30
0.0
  0
SEQEND
  5
249
330
241
100
AcDbEntity
  8
Layer 1
370
     0
  0
POLYLINE
  5
24A
330
3C
100
AcDbEntity
  8
Layer 1
370
     0
100
AcDb2dPolyline
 66
     1
 10
0.0
 20
0.0
 30
0.0
  0
VERTEX
  5
24B
330
24A
100
AcDbEntity
  8
Layer 1
370
     0
100
AcDbVertex
100
AcDb2dVertex
 10
106.2321031092927
 20
353.2879963309488
 30
0.0
  0
VERTEX
  5
24C
330
24A
100
AcDbEntity
  8
Layer 1
370
     0
100
AcDbVertex
100
AcDb2dVertex
 10
105.2282022848909
 20
351.5502901681888
 30
0.0
  0
VERTEX
  5
24D
330
24A
100
AcDbEntity
  8
Layer 1
370
     0
100
AcDbVertex
100
AcDb2dVertex
 10
103.2217786742814
 20
351.5502901681888
 30
0.0
  0
VERTEX
  5
24E
330
24A
100
AcDbEntity
  8
Layer 1
370
     0
100
AcDbVertex
100
AcDb2dVertex
 10
102.2185668689766
 20
353.2879963309488
 30
0.0
  0
VERTEX
  5
24F
330
24A
100
AcDbEntity
  8
Layer 1
370
     0
100
AcDbVertex
100
AcDb2dVertex
 10
103.2217786742814
 20
355.0257024937089
 30
0.0
  0
VERTEX
  5
250
330
24A
100
AcDbEntity
  8
Layer 1
370
     0
100
AcDbVertex
100
AcDb2dVertex
 10
105.2282022848909
 20
355.0257024937089
 30
0.0
  0
VERTEX
  5
251
330
24A
100
AcDbEntity
  8
Layer 1
370
     0
100
AcDbVertex
100
AcDb2dVertex
 10
106.2321031092927
 20
353.2879963309488
 30
0.0
  0
SEQEND
  5
252
330
24A
100
AcDbEntity
  8
Layer 1
370
     0
  0
POLYLINE
  5
253
330
3C
100
AcDbEntity
  8
Layer 1
370
     0
100
AcDb2dPolyline
 66
     1
 10
0.0
 20
0.0
 30
0.0
  0
VERTEX
  5
254
330
253
100
AcDbEntity
  8
Layer 1
370
     0
100
AcDbVertex
100
AcDb2dVertex
 10
106.2321031092927
 20
367.2719834151264
 30
0.0
  0
VERTEX
  5
255
330
253
100
AcDbEntity
  8
Layer 1
370
     0
100
AcDbVertex
100
AcDb2dVertex
 10
105.2282022848909
 20
365.5342772523665
 30
0.0
  0
VERTEX
  5
256
330
253
100
AcDbEntity
  8
Layer 1
370
     0
100
AcDbVertex
100
AcDb2dVertex
 10
103.2217786742814
 20
365.5342772523665
 30
0.0
  0
VERTEX
  5
257
330
253
100
AcDbEntity
  8
Layer 1
370
     0
100
AcDbVertex
100
AcDb2dVertex
 10
102.2185668689766
 20
367.2719834151264
 30
0.0
  0
VERTEX
  5
258
330
253
100
AcDbEntity
  8
Layer 1
370
     0
100
AcDbVertex
100
AcDb2dVertex
 10
103.2217786742814
 20
369.0096895778865
 30
0.0
  0
VERTEX
  5
259
330
253
100
AcDbEntity
  8
Layer 1
370
     0
100
AcDbVertex
100
AcDb2dVertex
 10
105.2282022848909
 20
369.0096895778865
 30
0.0
  0
VERTEX
  5
25A
330
253
100
AcDbEntity
  8
Layer 1
370
     0
100
AcDbVertex
100
AcDb2dVertex
 10
106.2321031092927
 20
367.2719834151264
 30
0.0
  0
SEQEND
  5
25B
330
253
100
AcDbEntity
  8
Layer 1
370
     0
  0
POLYLINE
  5
25C
330
3C
100
AcDbEntity
  8
Layer 1
370
     0
100
AcDb2dPolyline
 66
     1
 10
0.0
 20
0.0
 30
0.0
  0
VERTEX
  5
25D
330
25C
100
AcDbEntity
  8
Layer 1
370
     0
100
AcDbVertex
100
AcDb2dVertex
 10
110.1905178218447
 20
355.7285019726999
 30
0.0
  0
VERTEX
  5
25E
330
25C
100
AcDbEntity
  8
Layer 1
370
     0
100
AcDbVertex
100
AcDb2dVertex
 10
109.18730601654
 20
353.9901067908428
 30
0.0
  0
VERTEX
  5
25F
330
25C
100
AcDbEntity
  8
Layer 1
370
     0
100
AcDbVertex
100
AcDb2dVertex
 10
107.1801933868334
 20
353.9901067908428
 30
0.0
  0
VERTEX
  5
260
330
25C
100
AcDbEntity
  8
Layer 1
370
     0
100
AcDbVertex
100
AcDb2dVertex
 10
106.1769815815287
 20
355.7285019726999
 30
0.0
  0
VERTEX
  5
261
330
25C
100
AcDbEntity
  8
Layer 1
370
     0
100
AcDbVertex
100
AcDb2dVertex
 10
107.1801933868334
 20
357.4662081354599
 30
0.0
  0
VERTEX
  5
262
330
25C
100
AcDbEntity
  8
Layer 1
370
     0
100
AcDbVertex
100
AcDb2dVertex
 10
109.18730601654
 20
357.4662081354599
 30
0.0
  0
VERTEX
  5
263
330
25C
100
AcDbEntity
  8
Layer 1
370
     0
100
AcDbVertex
100
AcDb2dVertex
 10
110.1905178218447
 20
355.7285019726999
 30
0.0
  0
SEQEND
  5
264
330
25C
100
AcDbEntity
  8
Layer 1
370
     0
  0
POLYLINE
  5
265
330
3C
100
AcDbEntity
  8
Layer 1
370
     0
100
AcDb2dPolyline
 66
     1
 10
0.0
 20
0.0
 30
0.0
  0
VERTEX
  5
266
330
265
100
AcDbEntity
  8
Layer 1
370
     0
100
AcDbVertex
100
AcDb2dVertex
 10
110.1905178218447
 20
360.3711126486225
 30
0.0
  0
VERTEX
  5
267
330
265
100
AcDbEntity
  8
Layer 1
370
     0
100
AcDbVertex
100
AcDb2dVertex
 10
109.18730601654
 20
358.633750995411
 30
0.0
  0
VERTEX
  5
268
330
265
100
AcDbEntity
  8
Layer 1
370
     0
100
AcDbVertex
100
AcDb2dVertex
 10
107.1801933868334
 20
358.633750995411
 30
0.0
  0
VERTEX
  5
269
330
265
100
AcDbEntity
  8
Layer 1
370
     0
100
AcDbVertex
100
AcDb2dVertex
 10
106.1769815815287
 20
360.3711126486225
 30
0.0
  0
VERTEX
  5
26A
330
265
100
AcDbEntity
  8
Layer 1
370
     0
100
AcDbVertex
100
AcDb2dVertex
 10
107.1801933868334
 20
362.1088188113825
 30
0.0
  0
VERTEX
  5
26B
330
265
100
AcDbEntity
  8
Layer 1
370
     0
100
AcDbVertex
100
AcDb2dVertex
 10
109.18730601654
 20
362.1088188113825
 30
0.0
  0
VERTEX
  5
26C
330
265
100
AcDbEntity
  8
Layer 1
370
     0
100
AcDbVertex
100
AcDb2dVertex
 10
110.1905178218447
 20
360.3711126486225
 30
0.0
  0
SEQEND
  5
26D
330
265
100
AcDbEntity
  8
Layer 1
370
     0
  0
POLYLINE
  5
26E
330
3C
100
AcDbEntity
  8
Layer 1
370
     0
100
AcDb2dPolyline
 66
     1
 10
0.0
 20
0.0
 30
0.0
  0
VERTEX
  5
26F
330
26E
100
AcDbEntity
  8
Layer 1
370
     0
100
AcDbVertex
100
AcDb2dVertex
 10
110.1905178218447
 20
351.0121662533928
 30
0.0
  0
VERTEX
  5
270
330
26E
100
AcDbEntity
  8
Layer 1
370
     0
100
AcDbVertex
100
AcDb2dVertex
 10
109.18730601654
 20
349.2744600906328
 30
0.0
  0
VERTEX
  5
271
330
26E
100
AcDbEntity
  8
Layer 1
370
     0
100
AcDbVertex
100
AcDb2dVertex
 10
107.1801933868334
 20
349.2744600906328
 30
0.0
  0
VERTEX
  5
272
330
26E
100
AcDbEntity
  8
Layer 1
370
     0
100
AcDbVertex
100
AcDb2dVertex
 10
106.1769815815287
 20
351.0121662533928
 30
0.0
  0
VERTEX
  5
273
330
26E
100
AcDbEntity
  8
Layer 1
370
     0
100
AcDbVertex
100
AcDb2dVertex
 10
107.1801933868334
 20
352.7498724161528
 30
0.0
  0
VERTEX
  5
274
330
26E
100
AcDbEntity
  8
Layer 1
370
     0
100
AcDbVertex
100
AcDb2dVertex
 10
109.18730601654
 20
352.7498724161528
 30
0.0
  0
VERTEX
  5
275
330
26E
100
AcDbEntity
  8
Layer 1
370
     0
100
AcDbVertex
100
AcDb2dVertex
 10
110.1905178218447
 20
351.0121662533928
 30
0.0
  0
SEQEND
  5
276
330
26E
100
AcDbEntity
  8
Layer 1
370
     0
  0
POLYLINE
  5
277
330
3C
100
AcDbEntity
  8
Layer 1
370
     0
100
AcDb2dPolyline
 66
     1
 10
0.0
 20
0.0
 30
0.0
  0
VERTEX
  5
278
330
277
100
AcDbEntity
  8
Layer 1
370
     0
100
AcDbVertex
100
AcDb2dVertex
 10
110.1905178218447
 20
364.9961533375704
 30
0.0
  0
VERTEX
  5
279
330
277
100
AcDbEntity
  8
Layer 1
370
     0
100
AcDbVertex
100
AcDb2dVertex
 10
109.18730601654
 20
363.2584471748104
 30
0.0
  0
VERTEX
  5
27A
330
277
100
AcDbEntity
  8
Layer 1
370
     0
100
AcDbVertex
100
AcDb2dVertex
 10
107.1801933868334
 20
363.2584471748104
 30
0.0
  0
VERTEX
  5
27B
330
277
100
AcDbEntity
  8
Layer 1
370
     0
100
AcDbVertex
100
AcDb2dVertex
 10
106.1769815815287
 20
364.9961533375704
 30
0.0
  0
VERTEX
  5
27C
330
277
100
AcDbEntity
  8
Layer 1
370
     0
100
AcDbVertex
100
AcDb2dVertex
 10
107.1801933868334
 20
366.7338595003304
 30
0.0
  0
VERTEX
  5
27D
330
277
100
AcDbEntity
  8
Layer 1
370
     0
100
AcDbVertex
100
AcDb2dVertex
 10
109.18730601654
 20
366.7338595003304
 30
0.0
  0
VERTEX
  5
27E
330
277
100
AcDbEntity
  8
Layer 1
370
     0
100
AcDbVertex
100
AcDb2dVertex
 10
110.1905178218447
 20
364.9961533375704
 30
0.0
  0
SEQEND
  5
27F
330
277
100
AcDbEntity
  8
Layer 1
370
     0
  0
POLYLINE
  5
280
330
3C
100
AcDbEntity
  8
Layer 1
370
     0
100
AcDb2dPolyline
 66
     1
 10
0.0
 20
0.0
 30
0.0
  0
VERTEX
  5
281
330
280
100
AcDbEntity
  8
Layer 1
370
     0
100
AcDbVertex
100
AcDb2dVertex
 10
114.2812242010304
 20
372.1902017298692
 30
0.0
  0
VERTEX
  5
282
330
280
100
AcDbEntity
  8
Layer 1
370
     0
100
AcDbVertex
100
AcDb2dVertex
 10
113.2780123957256
 20
370.4528400766577
 30
0.0
  0
VERTEX
  5
283
330
280
100
AcDbEntity
  8
Layer 1
370
     0
100
AcDbVertex
100
AcDb2dVertex
 10
111.2715887851161
 20
370.4528400766577
 30
0.0
  0
VERTEX
  5
284
330
280
100
AcDbEntity
  8
Layer 1
370
     0
100
AcDbVertex
100
AcDb2dVertex
 10
110.2683769798114
 20
372.1902017298692
 30
0.0
  0
VERTEX
  5
285
330
280
100
AcDbEntity
  8
Layer 1
370
     0
100
AcDbVertex
100
AcDb2dVertex
 10
111.2715887851161
 20
373.9285969117262
 30
0.0
  0
VERTEX
  5
286
330
280
100
AcDbEntity
  8
Layer 1
370
     0
100
AcDbVertex
100
AcDb2dVertex
 10
113.2780123957256
 20
373.9285969117262
 30
0.0
  0
VERTEX
  5
287
330
280
100
AcDbEntity
  8
Layer 1
370
     0
100
AcDbVertex
100
AcDb2dVertex
 10
114.2812242010304
 20
372.1902017298692
 30
0.0
  0
SEQEND
  5
288
330
280
100
AcDbEntity
  8
Layer 1
370
     0
  0
POLYLINE
  5
289
330
3C
100
AcDbEntity
  8
Layer 1
370
     0
100
AcDb2dPolyline
 66
     1
 10
0.0
 20
0.0
 30
0.0
  0
VERTEX
  5
28A
330
289
100
AcDbEntity
  8
Layer 1
370
     0
100
AcDbVertex
100
AcDb2dVertex
 10
114.2812242010304
 20
376.8335014248889
 30
0.0
  0
VERTEX
  5
28B
330
289
100
AcDbEntity
  8
Layer 1
370
     0
100
AcDbVertex
100
AcDb2dVertex
 10
113.2780123957256
 20
375.0957952621288
 30
0.0
  0
VERTEX
  5
28C
330
289
100
AcDbEntity
  8
Layer 1
370
     0
100
AcDbVertex
100
AcDb2dVertex
 10
111.2715887851161
 20
375.0957952621288
 30
0.0
  0
VERTEX
  5
28D
330
289
100
AcDbEntity
  8
Layer 1
370
     0
100
AcDbVertex
100
AcDb2dVertex
 10
110.2683769798114
 20
376.8335014248889
 30
0.0
  0
VERTEX
  5
28E
330
289
100
AcDbEntity
  8
Layer 1
370
     0
100
AcDbVertex
100
AcDb2dVertex
 10
111.2715887851161
 20
378.571896606746
 30
0.0
  0
VERTEX
  5
28F
330
289
100
AcDbEntity
  8
Layer 1
370
     0
100
AcDbVertex
100
AcDb2dVertex
 10
113.2780123957256
 20
378.571896606746
 30
0.0
  0
VERTEX
  5
290
330
289
100
AcDbEntity
  8
Layer 1
370
     0
100
AcDbVertex
100
AcDb2dVertex
 10
114.2812242010304
 20
376.8335014248889
 30
0.0
  0
SEQEND
  5
291
330
289
100
AcDbEntity
  8
Layer 1
370
     0
  0
POLYLINE
  5
292
330
3C
100
AcDbEntity
  8
Layer 1
370
     0
100
AcDb2dPolyline
 66
     1
 10
0.0
 20
0.0
 30
0.0
  0
VERTEX
  5
293
330
292
100
AcDbEntity
  8
Layer 1
370
     0
100
AcDbVertex
100
AcDb2dVertex
 10
114.2812242010304
 20
367.4745550296591
 30
0.0
  0
VERTEX
  5
294
330
292
100
AcDbEntity
  8
Layer 1
370
     0
100
AcDbVertex
100
AcDb2dVertex
 10
113.2780123957256
 20
365.7361598478021
 30
0.0
  0
VERTEX
  5
295
330
292
100
AcDbEntity
  8
Layer 1
370
     0
100
AcDbVertex
100
AcDb2dVertex
 10
111.2715887851161
 20
365.7361598478021
 30
0.0
  0
VERTEX
  5
296
330
292
100
AcDbEntity
  8
Layer 1
370
     0
100
AcDbVertex
100
AcDb2dVertex
 10
110.2683769798114
 20
367.4745550296591
 30
0.0
  0
VERTEX
  5
297
330
292
100
AcDbEntity
  8
Layer 1
370
     0
100
AcDbVertex
100
AcDb2dVertex
 10
111.2715887851161
 20
369.2126057019677
 30
0.0
  0
VERTEX
  5
298
330
292
100
AcDbEntity
  8
Layer 1
370
     0
100
AcDbVertex
100
AcDb2dVertex
 10
113.2780123957256
 20
369.2126057019677
 30
0.0
  0
VERTEX
  5
299
330
292
100
AcDbEntity
  8
Layer 1
370
     0
100
AcDbVertex
100
AcDb2dVertex
 10
114.2812242010304
 20
367.4745550296591
 30
0.0
  0
SEQEND
  5
29A
330
292
100
AcDbEntity
  8
Layer 1
370
     0
  0
POLYLINE
  5
29B
330
3C
100
AcDbEntity
  8
Layer 1
370
     0
100
AcDb2dPolyline
 66
     1
 10
0.0
 20
0.0
 30
0.0
  0
VERTEX
  5
29C
330
29B
100
AcDbEntity
  8
Layer 1
370
     0
100
AcDbVertex
100
AcDb2dVertex
 10
114.2812242010304
 20
381.4588866233853
 30
0.0
  0
VERTEX
  5
29D
330
29B
100
AcDbEntity
  8
Layer 1
370
     0
100
AcDbVertex
100
AcDb2dVertex
 10
113.2780123957256
 20
379.7204914415282
 30
0.0
  0
VERTEX
  5
29E
330
29B
100
AcDbEntity
  8
Layer 1
370
     0
100
AcDbVertex
100
AcDb2dVertex
 10
111.2715887851161
 20
379.7204914415282
 30
0.0
  0
VERTEX
  5
29F
330
29B
100
AcDbEntity
  8
Layer 1
370
     0
100
AcDbVertex
100
AcDb2dVertex
 10
110.2683769798114
 20
381.4588866233853
 30
0.0
  0
VERTEX
  5
2A0
330
29B
100
AcDbEntity
  8
Layer 1
370
     0
100
AcDbVertex
100
AcDb2dVertex
 10
111.2715887851161
 20
383.1962482765968
 30
0.0
  0
VERTEX
  5
2A1
330
29B
100
AcDbEntity
  8
Layer 1
370
     0
100
AcDbVertex
100
AcDb2dVertex
 10
113.2780123957256
 20
383.1962482765968
 30
0.0
  0
VERTEX
  5
2A2
330
29B
100
AcDbEntity
  8
Layer 1
370
     0
100
AcDbVertex
100
AcDb2dVertex
 10
114.2812242010304
 20
381.4588866233853
 30
0.0
  0
SEQEND
  5
2A3
330
29B
100
AcDbEntity
  8
Layer 1
370
     0
  0
POLYLINE
  5
2A4
330
3C
100
AcDbEntity
  8
Layer 1
370
     0
100
AcDb2dPolyline
 66
     1
 10
0.0
 20
0.0
 30
0.0
  0
VERTEX
  5
2A5
330
2A4
100
AcDbEntity
  8
Layer 1
370
     0
100
AcDbVertex
100
AcDb2dVertex
 10
118.2947604413465
 20
374.5576713473328
 30
0.0
  0
VERTEX
  5
2A6
330
2A4
100
AcDbEntity
  8
Layer 1
370
     0
100
AcDbVertex
100
AcDb2dVertex
 10
117.2908596169447
 20
372.8199651845728
 30
0.0
  0
VERTEX
  5
2A7
330
2A4
100
AcDbEntity
  8
Layer 1
370
     0
100
AcDbVertex
100
AcDb2dVertex
 10
115.2851250254322
 20
372.8199651845728
 30
0.0
  0
VERTEX
  5
2A8
330
2A4
100
AcDbEntity
  8
Layer 1
370
     0
100
AcDbVertex
100
AcDb2dVertex
 10
114.2812242010304
 20
374.5576713473328
 30
0.0
  0
VERTEX
  5
2A9
330
2A4
100
AcDbEntity
  8
Layer 1
370
     0
100
AcDbVertex
100
AcDb2dVertex
 10
115.2851250254322
 20
376.2957220196413
 30
0.0
  0
VERTEX
  5
2AA
330
2A4
100
AcDbEntity
  8
Layer 1
370
     0
100
AcDbVertex
100
AcDb2dVertex
 10
117.2908596169447
 20
376.2957220196413
 30
0.0
  0
VERTEX
  5
2AB
330
2A4
100
AcDbEntity
  8
Layer 1
370
     0
100
AcDbVertex
100
AcDb2dVertex
 10
118.2947604413465
 20
374.5576713473328
 30
0.0
  0
SEQEND
  5
2AC
330
2A4
100
AcDbEntity
  8
Layer 1
370
     0
  0
POLYLINE
  5
2AD
330
3C
100
AcDbEntity
  8
Layer 1
370
     0
100
AcDb2dPolyline
 66
     1
 10
0.0
 20
0.0
 30
0.0
  0
VERTEX
  5
2AE
330
2AD
100
AcDbEntity
  8
Layer 1
370
     0
100
AcDbVertex
100
AcDb2dVertex
 10
118.2947604413465
 20
379.2009710423525
 30
0.0
  0
VERTEX
  5
2AF
330
2AD
100
AcDbEntity
  8
Layer 1
370
     0
100
AcDbVertex
100
AcDb2dVertex
 10
117.2908596169447
 20
377.462920370044
 30
0.0
  0
VERTEX
  5
2B0
330
2AD
100
AcDbEntity
  8
Layer 1
370
     0
100
AcDbVertex
100
AcDb2dVertex
 10
115.2851250254322
 20
377.462920370044
 30
0.0
  0
VERTEX
  5
2B1
330
2AD
100
AcDbEntity
  8
Layer 1
370
     0
100
AcDbVertex
100
AcDb2dVertex
 10
114.2812242010304
 20
379.2009710423525
 30
0.0
  0
VERTEX
  5
2B2
330
2AD
100
AcDbEntity
  8
Layer 1
370
     0
100
AcDbVertex
100
AcDb2dVertex
 10
115.2851250254322
 20
380.938332695564
 30
0.0
  0
VERTEX
  5
2B3
330
2AD
100
AcDbEntity
  8
Layer 1
370
     0
100
AcDbVertex
100
AcDb2dVertex
 10
117.2908596169447
 20
380.938332695564
 30
0.0
  0
VERTEX
  5
2B4
330
2AD
100
AcDbEntity
  8
Layer 1
370
     0
100
AcDbVertex
100
AcDb2dVertex
 10
118.2947604413465
 20
379.2009710423525
 30
0.0
  0
SEQEND
  5
2B5
330
2AD
100
AcDbEntity
  8
Layer 1
370
     0
  0
POLYLINE
  5
2B6
330
3C
100
AcDbEntity
  8
Layer 1
370
     0
100
AcDb2dPolyline
 66
     1
 10
0.0
 20
0.0
 30
0.0
  0
VERTEX
  5
2B7
330
2B6
100
AcDbEntity
  8
Layer 1
370
     0
100
AcDbVertex
100
AcDb2dVertex
 10
118.2947604413465
 20
369.8416801375743
 30
0.0
  0
VERTEX
  5
2B8
330
2B6
100
AcDbEntity
  8
Layer 1
370
     0
100
AcDbVertex
100
AcDb2dVertex
 10
117.2908596169447
 20
368.1036294652658
 30
0.0
  0
VERTEX
  5
2B9
330
2B6
100
AcDbEntity
  8
Layer 1
370
     0
100
AcDbVertex
100
AcDb2dVertex
 10
115.2851250254322
 20
368.1036294652658
 30
0.0
  0
VERTEX
  5
2BA
330
2B6
100
AcDbEntity
  8
Layer 1
370
     0
100
AcDbVertex
100
AcDb2dVertex
 10
114.2812242010304
 20
369.8416801375743
 30
0.0
  0
VERTEX
  5
2BB
330
2B6
100
AcDbEntity
  8
Layer 1
370
     0
100
AcDbVertex
100
AcDb2dVertex
 10
115.2851250254322
 20
371.5793863003344
 30
0.0
  0
VERTEX
  5
2BC
330
2B6
100
AcDbEntity
  8
Layer 1
370
     0
100
AcDbVertex
100
AcDb2dVertex
 10
117.2908596169447
 20
371.5793863003344
 30
0.0
  0
VERTEX
  5
2BD
330
2B6
100
AcDbEntity
  8
Layer 1
370
     0
100
AcDbVertex
100
AcDb2dVertex
 10
118.2947604413465
 20
369.8416801375743
 30
0.0
  0
SEQEND
  5
2BE
330
2B6
100
AcDbEntity
  8
Layer 1
370
     0
  0
POLYLINE
  5
2BF
330
3C
100
AcDbEntity
  8
Layer 1
370
     0
100
AcDb2dPolyline
 66
     1
 10
0.0
 20
0.0
 30
0.0
  0
VERTEX
  5
2C0
330
2BF
100
AcDbEntity
  8
Layer 1
370
     0
100
AcDbVertex
100
AcDb2dVertex
 10
118.2947604413465
 20
383.8260117313005
 30
0.0
  0
VERTEX
  5
2C1
330
2BF
100
AcDbEntity
  8
Layer 1
370
     0
100
AcDbVertex
100
AcDb2dVertex
 10
117.2908596169447
 20
382.0872720398949
 30
0.0
  0
VERTEX
  5
2C2
330
2BF
100
AcDbEntity
  8
Layer 1
370
     0
100
AcDbVertex
100
AcDb2dVertex
 10
115.2851250254322
 20
382.0872720398949
 30
0.0
  0
VERTEX
  5
2C3
330
2BF
100
AcDbEntity
  8
Layer 1
370
     0
100
AcDbVertex
100
AcDb2dVertex
 10
114.2812242010304
 20
383.8260117313005
 30
0.0
  0
VERTEX
  5
2C4
330
2BF
100
AcDbEntity
  8
Layer 1
370
     0
100
AcDbVertex
100
AcDb2dVertex
 10
115.2851250254322
 20
385.563373384512
 30
0.0
  0
VERTEX
  5
2C5
330
2BF
100
AcDbEntity
  8
Layer 1
370
     0
100
AcDbVertex
100
AcDb2dVertex
 10
117.2908596169447
 20
385.563373384512
 30
0.0
  0
VERTEX
  5
2C6
330
2BF
100
AcDbEntity
  8
Layer 1
370
     0
100
AcDbVertex
100
AcDb2dVertex
 10
118.2947604413465
 20
383.8260117313005
 30
0.0
  0
SEQEND
  5
2C7
330
2BF
100
AcDbEntity
  8
Layer 1
370
     0
  0
POLYLINE
  5
2C8
330
3C
100
AcDbEntity
  8
Layer 1
370
     0
100
AcDb2dPolyline
 66
     1
 10
0.0
 20
0.0
 30
0.0
  0
VERTEX
  5
2C9
330
2C8
100
AcDbEntity
  8
Layer 1
370
     0
100
AcDbVertex
100
AcDb2dVertex
 10
122.3089857007596
 20
372.2814967602283
 30
0.0
  0
VERTEX
  5
2CA
330
2C8
100
AcDbEntity
  8
Layer 1
370
     0
100
AcDbVertex
100
AcDb2dVertex
 10
121.3050848763578
 20
370.5437905974682
 30
0.0
  0
VERTEX
  5
2CB
330
2C8
100
AcDbEntity
  8
Layer 1
370
     0
100
AcDbVertex
100
AcDb2dVertex
 10
119.2979722466512
 20
370.5437905974682
 30
0.0
  0
VERTEX
  5
2CC
330
2C8
100
AcDbEntity
  8
Layer 1
370
     0
100
AcDbVertex
100
AcDb2dVertex
 10
118.2947604413465
 20
372.2814967602283
 30
0.0
  0
VERTEX
  5
2CD
330
2C8
100
AcDbEntity
  8
Layer 1
370
     0
100
AcDbVertex
100
AcDb2dVertex
 10
119.2979722466512
 20
374.0198919420853
 30
0.0
  0
VERTEX
  5
2CE
330
2C8
100
AcDbEntity
  8
Layer 1
370
     0
100
AcDbVertex
100
AcDb2dVertex
 10
121.3050848763578
 20
374.0198919420853
 30
0.0
  0
VERTEX
  5
2CF
330
2C8
100
AcDbEntity
  8
Layer 1
370
     0
100
AcDbVertex
100
AcDb2dVertex
 10
122.3089857007596
 20
372.2814967602283
 30
0.0
  0
SEQEND
  5
2D0
330
2C8
100
AcDbEntity
  8
Layer 1
370
     0
  0
POLYLINE
  5
2D1
330
3C
100
AcDbEntity
  8
Layer 1
370
     0
100
AcDb2dPolyline
 66
     1
 10
0.0
 20
0.0
 30
0.0
  0
VERTEX
  5
2D2
330
2D1
100
AcDbEntity
  8
Layer 1
370
     0
100
AcDbVertex
100
AcDb2dVertex
 10
122.3089857007596
 20
376.924796455248
 30
0.0
  0
VERTEX
  5
2D3
330
2D1
100
AcDbEntity
  8
Layer 1
370
     0
100
AcDbVertex
100
AcDb2dVertex
 10
121.3050848763578
 20
375.1867457829395
 30
0.0
  0
VERTEX
  5
2D4
330
2D1
100
AcDbEntity
  8
Layer 1
370
     0
100
AcDbVertex
100
AcDb2dVertex
 10
119.2979722466512
 20
375.1867457829395
 30
0.0
  0
VERTEX
  5
2D5
330
2D1
100
AcDbEntity
  8
Layer 1
370
     0
100
AcDbVertex
100
AcDb2dVertex
 10
118.2947604413465
 20
376.924796455248
 30
0.0
  0
VERTEX
  5
2D6
330
2D1
100
AcDbEntity
  8
Layer 1
370
     0
100
AcDbVertex
100
AcDb2dVertex
 10
119.2979722466512
 20
378.6628471275565
 30
0.0
  0
VERTEX
  5
2D7
330
2D1
100
AcDbEntity
  8
Layer 1
370
     0
100
AcDbVertex
100
AcDb2dVertex
 10
121.3050848763578
 20
378.6628471275565
 30
0.0
  0
VERTEX
  5
2D8
330
2D1
100
AcDbEntity
  8
Layer 1
370
     0
100
AcDbVertex
100
AcDb2dVertex
 10
122.3089857007596
 20
376.924796455248
 30
0.0
  0
SEQEND
  5
2D9
330
2D1
100
AcDbEntity
  8
Layer 1
370
     0
  0
POLYLINE
  5
2DA
330
3C
100
AcDbEntity
  8
Layer 1
370
     0
100
AcDb2dPolyline
 66
     1
 10
0.0
 20
0.0
 30
0.0
  0
VERTEX
  5
2DB
330
2DA
100
AcDbEntity
  8
Layer 1
370
     0
100
AcDbVertex
100
AcDb2dVertex
 10
122.3089857007596
 20
367.5658500600182
 30
0.0
  0
VERTEX
  5
2DC
330
2DA
100
AcDbEntity
  8
Layer 1
370
     0
100
AcDbVertex
100
AcDb2dVertex
 10
121.3050848763578
 20
365.8277993877097
 30
0.0
  0
VERTEX
  5
2DD
330
2DA
100
AcDbEntity
  8
Layer 1
370
     0
100
AcDbVertex
100
AcDb2dVertex
 10
119.2979722466512
 20
365.8277993877097
 30
0.0
  0
VERTEX
  5
2DE
330
2DA
100
AcDbEntity
  8
Layer 1
370
     0
100
AcDbVertex
100
AcDb2dVertex
 10
118.2947604413465
 20
367.5658500600182
 30
0.0
  0
VERTEX
  5
2DF
330
2DA
100
AcDbEntity
  8
Layer 1
370
     0
100
AcDbVertex
100
AcDb2dVertex
 10
119.2979722466512
 20
369.3035562227783
 30
0.0
  0
VERTEX
  5
2E0
330
2DA
100
AcDbEntity
  8
Layer 1
370
     0
100
AcDbVertex
100
AcDb2dVertex
 10
121.3050848763578
 20
369.3035562227783
 30
0.0
  0
VERTEX
  5
2E1
330
2DA
100
AcDbEntity
  8
Layer 1
370
     0
100
AcDbVertex
100
AcDb2dVertex
 10
122.3089857007596
 20
367.5658500600182
 30
0.0
  0
SEQEND
  5
2E2
330
2DA
100
AcDbEntity
  8
Layer 1
370
     0
  0
POLYLINE
  5
2E3
330
3C
100
AcDbEntity
  8
Layer 1
370
     0
100
AcDb2dPolyline
 66
     1
 10
0.0
 20
0.0
 30
0.0
  0
VERTEX
  5
2E4
330
2E3
100
AcDbEntity
  8
Layer 1
370
     0
100
AcDbVertex
100
AcDb2dVertex
 10
122.3089857007596
 20
381.5498371441959
 30
0.0
  0
VERTEX
  5
2E5
330
2E3
100
AcDbEntity
  8
Layer 1
370
     0
100
AcDbVertex
100
AcDb2dVertex
 10
121.3050848763578
 20
379.8121309814359
 30
0.0
  0
VERTEX
  5
2E6
330
2E3
100
AcDbEntity
  8
Layer 1
370
     0
100
AcDbVertex
100
AcDb2dVertex
 10
119.2979722466512
 20
379.8121309814359
 30
0.0
  0
VERTEX
  5
2E7
330
2E3
100
AcDbEntity
  8
Layer 1
370
     0
100
AcDbVertex
100
AcDb2dVertex
 10
118.2947604413465
 20
381.5498371441959
 30
0.0
  0
VERTEX
  5
2E8
330
2E3
100
AcDbEntity
  8
Layer 1
370
     0
100
AcDbVertex
100
AcDb2dVertex
 10
119.2979722466512
 20
383.2875433069559
 30
0.0
  0
VERTEX
  5
2E9
330
2E3
100
AcDbEntity
  8
Layer 1
370
     0
100
AcDbVertex
100
AcDb2dVertex
 10
121.3050848763578
 20
383.2875433069559
 30
0.0
  0
VERTEX
  5
2EA
330
2E3
100
AcDbEntity
  8
Layer 1
370
     0
100
AcDbVertex
100
AcDb2dVertex
 10
122.3089857007596
 20
381.5498371441959
 30
0.0
  0
SEQEND
  5
2EB
330
2E3
100
AcDbEntity
  8
Layer 1
370
     0
  0
POLYLINE
  5
2EC
330
3C
100
AcDbEntity
  8
Layer 1
370
     0
100
AcDb2dPolyline
 66
     1
 10
0.0
 20
0.0
 30
0.0
  0
VERTEX
  5
2ED
330
2EC
100
AcDbEntity
  8
Layer 1
370
     0
100
AcDbVertex
100
AcDb2dVertex
 10
126.3218329219786
 20
374.5576713473328
 30
0.0
  0
VERTEX
  5
2EE
330
2EC
100
AcDbEntity
  8
Layer 1
370
     0
100
AcDbVertex
100
AcDb2dVertex
 10
125.3186211166738
 20
372.8199651845728
 30
0.0
  0
VERTEX
  5
2EF
330
2EC
100
AcDbEntity
  8
Layer 1
370
     0
100
AcDbVertex
100
AcDb2dVertex
 10
123.3115084869673
 20
372.8199651845728
 30
0.0
  0
VERTEX
  5
2F0
330
2EC
100
AcDbEntity
  8
Layer 1
370
     0
100
AcDbVertex
100
AcDb2dVertex
 10
122.3089857007596
 20
374.5576713473328
 30
0.0
  0
VERTEX
  5
2F1
330
2EC
100
AcDbEntity
  8
Layer 1
370
     0
100
AcDbVertex
100
AcDb2dVertex
 10
123.3115084869673
 20
376.2957220196413
 30
0.0
  0
VERTEX
  5
2F2
330
2EC
100
AcDbEntity
  8
Layer 1
370
     0
100
AcDbVertex
100
AcDb2dVertex
 10
125.3186211166738
 20
376.2957220196413
 30
0.0
  0
VERTEX
  5
2F3
330
2EC
100
AcDbEntity
  8
Layer 1
370
     0
100
AcDbVertex
100
AcDb2dVertex
 10
126.3218329219786
 20
374.5576713473328
 30
0.0
  0
SEQEND
  5
2F4
330
2EC
100
AcDbEntity
  8
Layer 1
370
     0
  0
POLYLINE
  5
2F5
330
3C
100
AcDbEntity
  8
Layer 1
370
     0
100
AcDb2dPolyline
 66
     1
 10
0.0
 20
0.0
 30
0.0
  0
VERTEX
  5
2F6
330
2F5
100
AcDbEntity
  8
Layer 1
370
     0
100
AcDbVertex
100
AcDb2dVertex
 10
126.3218329219786
 20
379.2009710423525
 30
0.0
  0
VERTEX
  5
2F7
330
2F5
100
AcDbEntity
  8
Layer 1
370
     0
100
AcDbVertex
100
AcDb2dVertex
 10
125.3186211166738
 20
377.462920370044
 30
0.0
  0
VERTEX
  5
2F8
330
2F5
100
AcDbEntity
  8
Layer 1
370
     0
100
AcDbVertex
100
AcDb2dVertex
 10
123.3115084869673
 20
377.462920370044
 30
0.0
  0
VERTEX
  5
2F9
330
2F5
100
AcDbEntity
  8
Layer 1
370
     0
100
AcDbVertex
100
AcDb2dVertex
 10
122.3089857007596
 20
379.2009710423525
 30
0.0
  0
VERTEX
  5
2FA
330
2F5
100
AcDbEntity
  8
Layer 1
370
     0
100
AcDbVertex
100
AcDb2dVertex
 10
123.3115084869673
 20
380.938332695564
 30
0.0
  0
VERTEX
  5
2FB
330
2F5
100
AcDbEntity
  8
Layer 1
370
     0
100
AcDbVertex
100
AcDb2dVertex
 10
125.3186211166738
 20
380.938332695564
 30
0.0
  0
VERTEX
  5
2FC
330
2F5
100
AcDbEntity
  8
Layer 1
370
     0
100
AcDbVertex
100
AcDb2dVertex
 10
126.3218329219786
 20
379.2009710423525
 30
0.0
  0
SEQEND
  5
2FD
330
2F5
100
AcDbEntity
  8
Layer 1
370
     0
  0
POLYLINE
  5
2FE
330
3C
100
AcDbEntity
  8
Layer 1
370
     0
100
AcDb2dPolyline
 66
     1
 10
0.0
 20
0.0
 30
0.0
  0
VERTEX
  5
2FF
330
2FE
100
AcDbEntity
  8
Layer 1
370
     0
100
AcDbVertex
100
AcDb2dVertex
 10
126.3218329219786
 20
369.8416801375743
 30
0.0
  0
VERTEX
  5
300
330
2FE
100
AcDbEntity
  8
Layer 1
370
     0
100
AcDbVertex
100
AcDb2dVertex
 10
125.3186211166738
 20
368.1036294652658
 30
0.0
  0
VERTEX
  5
301
330
2FE
100
AcDbEntity
  8
Layer 1
370
     0
100
AcDbVertex
100
AcDb2dVertex
 10
123.3115084869673
 20
368.1036294652658
 30
0.0
  0
VERTEX
  5
302
330
2FE
100
AcDbEntity
  8
Layer 1
370
     0
100
AcDbVertex
100
AcDb2dVertex
 10
122.3089857007596
 20
369.8416801375743
 30
0.0
  0
VERTEX
  5
303
330
2FE
100
AcDbEntity
  8
Layer 1
370
     0
100
AcDbVertex
100
AcDb2dVertex
 10
123.3115084869673
 20
371.5793863003344
 30
0.0
  0
VERTEX
  5
304
330
2FE
100
AcDbEntity
  8
Layer 1
370
     0
100
AcDbVertex
100
AcDb2dVertex
 10
125.3186211166738
 20
371.5793863003344
 30
0.0
  0
VERTEX
  5
305
330
2FE
100
AcDbEntity
  8
Layer 1
370
     0
100
AcDbVertex
100
AcDb2dVertex
 10
126.3218329219786
 20
369.8416801375743
 30
0.0
  0
SEQEND
  5
306
330
2FE
100
AcDbEntity
  8
Layer 1
370
     0
  0
POLYLINE
  5
307
330
3C
100
AcDbEntity
  8
Layer 1
370
     0
100
AcDb2dPolyline
 66
     1
 10
0.0
 20
0.0
 30
0.0
  0
VERTEX
  5
308
330
307
100
AcDbEntity
  8
Layer 1
370
     0
100
AcDbVertex
100
AcDb2dVertex
 10
126.3218329219786
 20
383.8260117313005
 30
0.0
  0
VERTEX
  5
309
330
307
100
AcDbEntity
  8
Layer 1
370
     0
100
AcDbVertex
100
AcDb2dVertex
 10
125.3186211166738
 20
382.0872720398949
 30
0.0
  0
VERTEX
  5
30A
330
307
100
AcDbEntity
  8
Layer 1
370
     0
100
AcDbVertex
100
AcDb2dVertex
 10
123.3115084869673
 20
382.0872720398949
 30
0.0
  0
VERTEX
  5
30B
330
307
100
AcDbEntity
  8
Layer 1
370
     0
100
AcDbVertex
100
AcDb2dVertex
 10
122.3089857007596
 20
383.8260117313005
 30
0.0
  0
VERTEX
  5
30C
330
307
100
AcDbEntity
  8
Layer 1
370
     0
100
AcDbVertex
100
AcDb2dVertex
 10
123.3115084869673
 20
385.563373384512
 30
0.0
  0
VERTEX
  5
30D
330
307
100
AcDbEntity
  8
Layer 1
370
     0
100
AcDbVertex
100
AcDb2dVertex
 10
125.3186211166738
 20
385.563373384512
 30
0.0
  0
VERTEX
  5
30E
330
307
100
AcDbEntity
  8
Layer 1
370
     0
100
AcDbVertex
100
AcDb2dVertex
 10
126.3218329219786
 20
383.8260117313005
 30
0.0
  0
SEQEND
  5
30F
330
307
100
AcDbEntity
  8
Layer 1
370
     0
  0
POLYLINE
  5
310
330
3C
100
AcDbEntity
  8
Layer 1
370
     0
100
AcDb2dPolyline
 66
     1
 10
0.0
 20
0.0
 30
0.0
  0
VERTEX
  5
311
330
310
100
AcDbEntity
  8
Layer 1
370
     0
100
AcDbVertex
100
AcDb2dVertex
 10
130.3346801431976
 20
372.2814967602283
 30
0.0
  0
VERTEX
  5
312
330
310
100
AcDbEntity
  8
Layer 1
370
     0
100
AcDbVertex
100
AcDb2dVertex
 10
129.3314683378928
 20
370.5437905974682
 30
0.0
  0
VERTEX
  5
313
330
310
100
AcDbEntity
  8
Layer 1
370
     0
100
AcDbVertex
100
AcDb2dVertex
 10
127.3250447272833
 20
370.5437905974682
 30
0.0
  0
VERTEX
  5
314
330
310
100
AcDbEntity
  8
Layer 1
370
     0
100
AcDbVertex
100
AcDb2dVertex
 10
126.3218329219786
 20
372.2814967602283
 30
0.0
  0
VERTEX
  5
315
330
310
100
AcDbEntity
  8
Layer 1
370
     0
100
AcDbVertex
100
AcDb2dVertex
 10
127.3250447272833
 20
374.0198919420853
 30
0.0
  0
VERTEX
  5
316
330
310
100
AcDbEntity
  8
Layer 1
370
     0
100
AcDbVertex
100
AcDb2dVertex
 10
129.3314683378928
 20
374.0198919420853
 30
0.0
  0
VERTEX
  5
317
330
310
100
AcDbEntity
  8
Layer 1
370
     0
100
AcDbVertex
100
AcDb2dVertex
 10
130.3346801431976
 20
372.2814967602283
 30
0.0
  0
SEQEND
  5
318
330
310
100
AcDbEntity
  8
Layer 1
370
     0
  0
POLYLINE
  5
319
330
3C
100
AcDbEntity
  8
Layer 1
370
     0
100
AcDb2dPolyline
 66
     1
 10
0.0
 20
0.0
 30
0.0
  0
VERTEX
  5
31A
330
319
100
AcDbEntity
  8
Layer 1
370
     0
100
AcDbVertex
100
AcDb2dVertex
 10
130.3346801431976
 20
376.924796455248
 30
0.0
  0
VERTEX
  5
31B
330
319
100
AcDbEntity
  8
Layer 1
370
     0
100
AcDbVertex
100
AcDb2dVertex
 10
129.3314683378928
 20
375.1867457829395
 30
0.0
  0
VERTEX
  5
31C
330
319
100
AcDbEntity
  8
Layer 1
370
     0
100
AcDbVertex
100
AcDb2dVertex
 10
127.3250447272833
 20
375.1867457829395
 30
0.0
  0
VERTEX
  5
31D
330
319
100
AcDbEntity
  8
Layer 1
370
     0
100
AcDbVertex
100
AcDb2dVertex
 10
126.3218329219786
 20
376.924796455248
 30
0.0
  0
VERTEX
  5
31E
330
319
100
AcDbEntity
  8
Layer 1
370
     0
100
AcDbVertex
100
AcDb2dVertex
 10
127.3250447272833
 20
378.6628471275565
 30
0.0
  0
VERTEX
  5
31F
330
319
100
AcDbEntity
  8
Layer 1
370
     0
100
AcDbVertex
100
AcDb2dVertex
 10
129.3314683378928
 20
378.6628471275565
 30
0.0
  0
VERTEX
  5
320
330
319
100
AcDbEntity
  8
Layer 1
370
     0
100
AcDbVertex
100
AcDb2dVertex
 10
130.3346801431976
 20
376.924796455248
 30
0.0
  0
SEQEND
  5
321
330
319
100
AcDbEntity
  8
Layer 1
370
     0
  0
POLYLINE
  5
322
330
3C
100
AcDbEntity
  8
Layer 1
370
     0
100
AcDb2dPolyline
 66
     1
 10
0.0
 20
0.0
 30
0.0
  0
VERTEX
  5
323
330
322
100
AcDbEntity
  8
Layer 1
370
     0
100
AcDbVertex
100
AcDb2dVertex
 10
130.3346801431976
 20
367.5658500600182
 30
0.0
  0
VERTEX
  5
324
330
322
100
AcDbEntity
  8
Layer 1
370
     0
100
AcDbVertex
100
AcDb2dVertex
 10
129.3314683378928
 20
365.8277993877097
 30
0.0
  0
VERTEX
  5
325
330
322
100
AcDbEntity
  8
Layer 1
370
     0
100
AcDbVertex
100
AcDb2dVertex
 10
127.3250447272833
 20
365.8277993877097
 30
0.0
  0
VERTEX
  5
326
330
322
100
AcDbEntity
  8
Layer 1
370
     0
100
AcDbVertex
100
AcDb2dVertex
 10
126.3218329219786
 20
367.5658500600182
 30
0.0
  0
VERTEX
  5
327
330
322
100
AcDbEntity
  8
Layer 1
370
     0
100
AcDbVertex
100
AcDb2dVertex
 10
127.3250447272833
 20
369.3035562227783
 30
0.0
  0
VERTEX
  5
328
330
322
100
AcDbEntity
  8
Layer 1
370
     0
100
AcDbVertex
100
AcDb2dVertex
 10
129.3314683378928
 20
369.3035562227783
 30
0.0
  0
VERTEX
  5
329
330
322
100
AcDbEntity
  8
Layer 1
370
     0
100
AcDbVertex
100
AcDb2dVertex
 10
130.3346801431976
 20
367.5658500600182
 30
0.0
  0
SEQEND
  5
32A
330
322
100
AcDbEntity
  8
Layer 1
370
     0
  0
POLYLINE
  5
32B
330
3C
100
AcDbEntity
  8
Layer 1
370
     0
100
AcDb2dPolyline
 66
     1
 10
0.0
 20
0.0
 30
0.0
  0
VERTEX
  5
32C
330
32B
100
AcDbEntity
  8
Layer 1
370
     0
100
AcDbVertex
100
AcDb2dVertex
 10
130.3346801431976
 20
381.5498371441959
 30
0.0
  0
VERTEX
  5
32D
330
32B
100
AcDbEntity
  8
Layer 1
370
     0
100
AcDbVertex
100
AcDb2dVertex
 10
129.3314683378928
 20
379.8121309814359
 30
0.0
  0
VERTEX
  5
32E
330
32B
100
AcDbEntity
  8
Layer 1
370
     0
100
AcDbVertex
100
AcDb2dVertex
 10
127.3250447272833
 20
379.8121309814359
 30
0.0
  0
VERTEX
  5
32F
330
32B
100
AcDbEntity
  8
Layer 1
370
     0
100
AcDbVertex
100
AcDb2dVertex
 10
126.3218329219786
 20
381.5498371441959
 30
0.0
  0
VERTEX
  5
330
330
32B
100
AcDbEntity
  8
Layer 1
370
     0
100
AcDbVertex
100
AcDb2dVertex
 10
127.3250447272833
 20
383.2875433069559
 30
0.0
  0
VERTEX
  5
331
330
32B
100
AcDbEntity
  8
Layer 1
370
     0
100
AcDbVertex
100
AcDb2dVertex
 10
129.3314683378928
 20
383.2875433069559
 30
0.0
  0
VERTEX
  5
332
330
32B
100
AcDbEntity
  8
Layer 1
370
     0
100
AcDbVertex
100
AcDb2dVertex
 10
130.3346801431976
 20
381.5498371441959
 30
0.0
  0
SEQEND
  5
333
330
32B
100
AcDbEntity
  8
Layer 1
370
     0
  0
POLYLINE
  5
334
330
3C
100
AcDbEntity
  8
Layer 1
370
     0
100
AcDb2dPolyline
 66
     1
 10
0.0
 20
0.0
 30
0.0
  0
VERTEX
  5
335
330
334
100
AcDbEntity
  8
Layer 1
370
     0
100
AcDbVertex
100
AcDb2dVertex
 10
134.3482163835137
 20
374.5576713473328
 30
0.0
  0
VERTEX
  5
336
330
334
100
AcDbEntity
  8
Layer 1
370
     0
100
AcDbVertex
100
AcDb2dVertex
 10
133.3450045782089
 20
372.8199651845728
 30
0.0
  0
VERTEX
  5
337
330
334
100
AcDbEntity
  8
Layer 1
370
     0
100
AcDbVertex
100
AcDb2dVertex
 10
131.3378919485023
 20
372.8199651845728
 30
0.0
  0
VERTEX
  5
338
330
334
100
AcDbEntity
  8
Layer 1
370
     0
100
AcDbVertex
100
AcDb2dVertex
 10
130.3346801431976
 20
374.5576713473328
 30
0.0
  0
VERTEX
  5
339
330
334
100
AcDbEntity
  8
Layer 1
370
     0
100
AcDbVertex
100
AcDb2dVertex
 10
131.3378919485023
 20
376.2957220196413
 30
0.0
  0
VERTEX
  5
33A
330
334
100
AcDbEntity
  8
Layer 1
370
     0
100
AcDbVertex
100
AcDb2dVertex
 10
133.3450045782089
 20
376.2957220196413
 30
0.0
  0
VERTEX
  5
33B
330
334
100
AcDbEntity
  8
Layer 1
370
     0
100
AcDbVertex
100
AcDb2dVertex
 10
134.3482163835137
 20
374.5576713473328
 30
0.0
  0
SEQEND
  5
33C
330
334
100
AcDbEntity
  8
Layer 1
370
     0
  0
POLYLINE
  5
33D
330
3C
100
AcDbEntity
  8
Layer 1
370
     0
100
AcDb2dPolyline
 66
     1
 10
0.0
 20
0.0
 30
0.0
  0
VERTEX
  5
33E
330
33D
100
AcDbEntity
  8
Layer 1
370
     0
100
AcDbVertex
100
AcDb2dVertex
 10
134.3482163835137
 20
379.2009710423525
 30
0.0
  0
VERTEX
  5
33F
330
33D
100
AcDbEntity
  8
Layer 1
370
     0
100
AcDbVertex
100
AcDb2dVertex
 10
133.3450045782089
 20
377.462920370044
 30
0.0
  0
VERTEX
  5
340
330
33D
100
AcDbEntity
  8
Layer 1
370
     0
100
AcDbVertex
100
AcDb2dVertex
 10
131.3378919485023
 20
377.462920370044
 30
0.0
  0
VERTEX
  5
341
330
33D
100
AcDbEntity
  8
Layer 1
370
     0
100
AcDbVertex
100
AcDb2dVertex
 10
130.3346801431976
 20
379.2009710423525
 30
0.0
  0
VERTEX
  5
342
330
33D
100
AcDbEntity
  8
Layer 1
370
     0
100
AcDbVertex
100
AcDb2dVertex
 10
131.3378919485023
 20
380.938332695564
 30
0.0
  0
VERTEX
  5
343
330
33D
100
AcDbEntity
  8
Layer 1
370
     0
100
AcDbVertex
100
AcDb2dVertex
 10
133.3450045782089
 20
380.938332695564
 30
0.0
  0
VERTEX
  5
344
330
33D
100
AcDbEntity
  8
Layer 1
370
     0
100
AcDbVertex
100
AcDb2dVertex
 10
134.3482163835137
 20
379.2009710423525
 30
0.0
  0
SEQEND
  5
345
330
33D
100
AcDbEntity
  8
Layer 1
370
     0
  0
POLYLINE
  5
346
330
3C
100
AcDbEntity
  8
Layer 1
370
     0
100
AcDb2dPolyline
 66
     1
 10
0.0
 20
0.0
 30
0.0
  0
VERTEX
  5
347
330
346
100
AcDbEntity
  8
Layer 1
370
     0
100
AcDbVertex
100
AcDb2dVertex
 10
134.3482163835137
 20
369.8416801375743
 30
0.0
  0
VERTEX
  5
348
330
346
100
AcDbEntity
  8
Layer 1
370
     0
100
AcDbVertex
100
AcDb2dVertex
 10
133.3450045782089
 20
368.1036294652658
 30
0.0
  0
VERTEX
  5
349
330
346
100
AcDbEntity
  8
Layer 1
370
     0
100
AcDbVertex
100
AcDb2dVertex
 10
131.3378919485023
 20
368.1036294652658
 30
0.0
  0
VERTEX
  5
34A
330
346
100
AcDbEntity
  8
Layer 1
370
     0
100
AcDbVertex
100
AcDb2dVertex
 10
130.3346801431976
 20
369.8416801375743
 30
0.0
  0
VERTEX
  5
34B
330
346
100
AcDbEntity
  8
Layer 1
370
     0
100
AcDbVertex
100
AcDb2dVertex
 10
131.3378919485023
 20
371.5793863003344
 30
0.0
  0
VERTEX
  5
34C
330
346
100
AcDbEntity
  8
Layer 1
370
     0
100
AcDbVertex
100
AcDb2dVertex
 10
133.3450045782089
 20
371.5793863003344
 30
0.0
  0
VERTEX
  5
34D
330
346
100
AcDbEntity
  8
Layer 1
370
     0
100
AcDbVertex
100
AcDb2dVertex
 10
134.3482163835137
 20
369.8416801375743
 30
0.0
  0
SEQEND
  5
34E
330
346
100
AcDbEntity
  8
Layer 1
370
     0
  0
POLYLINE
  5
34F
330
3C
100
AcDbEntity
  8
Layer 1
370
     0
100
AcDb2dPolyline
 66
     1
 10
0.0
 20
0.0
 30
0.0
  0
VERTEX
  5
350
330
34F
100
AcDbEntity
  8
Layer 1
370
     0
100
AcDbVertex
100
AcDb2dVertex
 10
134.3482163835137
 20
383.8260117313005
 30
0.0
  0
VERTEX
  5
351
330
34F
100
AcDbEntity
  8
Layer 1
370
     0
100
AcDbVertex
100
AcDb2dVertex
 10
133.3450045782089
 20
382.0872720398949
 30
0.0
  0
VERTEX
  5
352
330
34F
100
AcDbEntity
  8
Layer 1
370
     0
100
AcDbVertex
100
AcDb2dVertex
 10
131.3378919485023
 20
382.0872720398949
 30
0.0
  0
VERTEX
  5
353
330
34F
100
AcDbEntity
  8
Layer 1
370
     0
100
AcDbVertex
100
AcDb2dVertex
 10
130.3346801431976
 20
383.8260117313005
 30
0.0
  0
VERTEX
  5
354
330
34F
100
AcDbEntity
  8
Layer 1
370
     0
100
AcDbVertex
100
AcDb2dVertex
 10
131.3378919485023
 20
385.563373384512
 30
0.0
  0
VERTEX
  5
355
330
34F
100
AcDbEntity
  8
Layer 1
370
     0
100
AcDbVertex
100
AcDb2dVertex
 10
133.3450045782089
 20
385.563373384512
 30
0.0
  0
VERTEX
  5
356
330
34F
100
AcDbEntity
  8
Layer 1
370
     0
100
AcDbVertex
100
AcDb2dVertex
 10
134.3482163835137
 20
383.8260117313005
 30
0.0
  0
SEQEND
  5
357
330
34F
100
AcDbEntity
  8
Layer 1
370
     0
  0
POLYLINE
  5
358
330
3C
100
AcDbEntity
  8
Layer 1
370
     0
100
AcDb2dPolyline
 66
     1
 10
0.0
 20
0.0
 30
0.0
  0
VERTEX
  5
359
330
358
100
AcDbEntity
  8
Layer 1
370
     0
100
AcDbVertex
100
AcDb2dVertex
 10
138.3078368794855
 20
372.2814967602283
 30
0.0
  0
VERTEX
  5
35A
330
358
100
AcDbEntity
  8
Layer 1
370
     0
100
AcDbVertex
100
AcDb2dVertex
 10
137.304108309858
 20
370.5437905974682
 30
0.0
  0
VERTEX
  5
35B
330
358
100
AcDbEntity
  8
Layer 1
370
     0
100
AcDbVertex
100
AcDb2dVertex
 10
135.2969956801514
 20
370.5437905974682
 30
0.0
  0
VERTEX
  5
35C
330
358
100
AcDbEntity
  8
Layer 1
370
     0
100
AcDbVertex
100
AcDb2dVertex
 10
134.2937838748467
 20
372.2814967602283
 30
0.0
  0
VERTEX
  5
35D
330
358
100
AcDbEntity
  8
Layer 1
370
     0
100
AcDbVertex
100
AcDb2dVertex
 10
135.2969956801514
 20
374.0198919420853
 30
0.0
  0
VERTEX
  5
35E
330
358
100
AcDbEntity
  8
Layer 1
370
     0
100
AcDbVertex
100
AcDb2dVertex
 10
137.304108309858
 20
374.0198919420853
 30
0.0
  0
VERTEX
  5
35F
330
358
100
AcDbEntity
  8
Layer 1
370
     0
100
AcDbVertex
100
AcDb2dVertex
 10
138.3078368794855
 20
372.2814967602283
 30
0.0
  0
SEQEND
  5
360
330
358
100
AcDbEntity
  8
Layer 1
370
     0
  0
POLYLINE
  5
361
330
3C
100
AcDbEntity
  8
Layer 1
370
     0
100
AcDb2dPolyline
 66
     1
 10
0.0
 20
0.0
 30
0.0
  0
VERTEX
  5
362
330
361
100
AcDbEntity
  8
Layer 1
370
     0
100
AcDbVertex
100
AcDb2dVertex
 10
138.3078368794855
 20
376.924796455248
 30
0.0
  0
VERTEX
  5
363
330
361
100
AcDbEntity
  8
Layer 1
370
     0
100
AcDbVertex
100
AcDb2dVertex
 10
137.304108309858
 20
375.1867457829395
 30
0.0
  0
VERTEX
  5
364
330
361
100
AcDbEntity
  8
Layer 1
370
     0
100
AcDbVertex
100
AcDb2dVertex
 10
135.2969956801514
 20
375.1867457829395
 30
0.0
  0
VERTEX
  5
365
330
361
100
AcDbEntity
  8
Layer 1
370
     0
100
AcDbVertex
100
AcDb2dVertex
 10
134.2937838748467
 20
376.924796455248
 30
0.0
  0
VERTEX
  5
366
330
361
100
AcDbEntity
  8
Layer 1
370
     0
100
AcDbVertex
100
AcDb2dVertex
 10
135.2969956801514
 20
378.6628471275565
 30
0.0
  0
VERTEX
  5
367
330
361
100
AcDbEntity
  8
Layer 1
370
     0
100
AcDbVertex
100
AcDb2dVertex
 10
137.304108309858
 20
378.6628471275565
 30
0.0
  0
VERTEX
  5
368
330
361
100
AcDbEntity
  8
Layer 1
370
     0
100
AcDbVertex
100
AcDb2dVertex
 10
138.3078368794855
 20
376.924796455248
 30
0.0
  0
SEQEND
  5
369
330
361
100
AcDbEntity
  8
Layer 1
370
     0
  0
POLYLINE
  5
36A
330
3C
100
AcDbEntity
  8
Layer 1
370
     0
100
AcDb2dPolyline
 66
     1
 10
0.0
 20
0.0
 30
0.0
  0
VERTEX
  5
36B
330
36A
100
AcDbEntity
  8
Layer 1
370
     0
100
AcDbVertex
100
AcDb2dVertex
 10
138.3078368794855
 20
367.5658500600182
 30
0.0
  0
VERTEX
  5
36C
330
36A
100
AcDbEntity
  8
Layer 1
370
     0
100
AcDbVertex
100
AcDb2dVertex
 10
137.304108309858
 20
365.8277993877097
 30
0.0
  0
VERTEX
  5
36D
330
36A
100
AcDbEntity
  8
Layer 1
370
     0
100
AcDbVertex
100
AcDb2dVertex
 10
135.2969956801514
 20
365.8277993877097
 30
0.0
  0
VERTEX
  5
36E
330
36A
100
AcDbEntity
  8
Layer 1
370
     0
100
AcDbVertex
100
AcDb2dVertex
 10
134.2937838748467
 20
367.5658500600182
 30
0.0
  0
VERTEX
  5
36F
330
36A
100
AcDbEntity
  8
Layer 1
370
     0
100
AcDbVertex
100
AcDb2dVertex
 10
135.2969956801514
 20
369.3035562227783
 30
0.0
  0
VERTEX
  5
370
330
36A
100
AcDbEntity
  8
Layer 1
370
     0
100
AcDbVertex
100
AcDb2dVertex
 10
137.304108309858
 20
369.3035562227783
 30
0.0
  0
VERTEX
  5
371
330
36A
100
AcDbEntity
  8
Layer 1
370
     0
100
AcDbVertex
100
AcDb2dVertex
 10
138.3078368794855
 20
367.5658500600182
 30
0.0
  0
SEQEND
  5
372
330
36A
100
AcDbEntity
  8
Layer 1
370
     0
  0
POLYLINE
  5
373
330
3C
100
AcDbEntity
  8
Layer 1
370
     0
100
AcDb2dPolyline
 66
     1
 10
0.0
 20
0.0
 30
0.0
  0
VERTEX
  5
374
330
373
100
AcDbEntity
  8
Layer 1
370
     0
100
AcDbVertex
100
AcDb2dVertex
 10
138.3078368794855
 20
381.5498371441959
 30
0.0
  0
VERTEX
  5
375
330
373
100
AcDbEntity
  8
Layer 1
370
     0
100
AcDbVertex
100
AcDb2dVertex
 10
137.304108309858
 20
379.8121309814359
 30
0.0
  0
VERTEX
  5
376
330
373
100
AcDbEntity
  8
Layer 1
370
     0
100
AcDbVertex
100
AcDb2dVertex
 10
135.2969956801514
 20
379.8121309814359
 30
0.0
  0
VERTEX
  5
377
330
373
100
AcDbEntity
  8
Layer 1
370
     0
100
AcDbVertex
100
AcDb2dVertex
 10
134.2937838748467
 20
381.5498371441959
 30
0.0
  0
VERTEX
  5
378
330
373
100
AcDbEntity
  8
Layer 1
370
     0
100
AcDbVertex
100
AcDb2dVertex
 10
135.2969956801514
 20
383.2875433069559
 30
0.0
  0
VERTEX
  5
379
330
373
100
AcDbEntity
  8
Layer 1
370
     0
100
AcDbVertex
100
AcDb2dVertex
 10
137.304108309858
 20
383.2875433069559
 30
0.0
  0
VERTEX
  5
37A
330
373
100
AcDbEntity
  8
Layer 1
370
     0
100
AcDbVertex
100
AcDb2dVertex
 10
138.3078368794855
 20
381.5498371441959
 30
0.0
  0
SEQEND
  5
37B
330
373
100
AcDbEntity
  8
Layer 1
370
     0
  0
POLYLINE
  5
37C
330
3C
100
AcDbEntity
  8
Layer 1
370
     0
100
AcDb2dPolyline
 66
     1
 10
0.0
 20
0.0
 30
0.0
  0
VERTEX
  5
37D
330
37C
100
AcDbEntity
  8
Layer 1
370
     0
100
AcDbVertex
100
AcDb2dVertex
 10
114.3356567096973
 20
353.3172796425735
 30
0.0
  0
VERTEX
  5
37E
330
37C
100
AcDbEntity
  8
Layer 1
370
     0
100
AcDbVertex
100
AcDb2dVertex
 10
113.3317558852955
 20
351.5795734798135
 30
0.0
  0
VERTEX
  5
37F
330
37C
100
AcDbEntity
  8
Layer 1
370
     0
100
AcDbVertex
100
AcDb2dVertex
 10
111.325332274686
 20
351.5795734798135
 30
0.0
  0
VERTEX
  5
380
330
37C
100
AcDbEntity
  8
Layer 1
370
     0
100
AcDbVertex
100
AcDb2dVertex
 10
110.3221204693813
 20
353.3172796425735
 30
0.0
  0
VERTEX
  5
381
330
37C
100
AcDbEntity
  8
Layer 1
370
     0
100
AcDbVertex
100
AcDb2dVertex
 10
111.325332274686
 20
355.055330314882
 30
0.0
  0
VERTEX
  5
382
330
37C
100
AcDbEntity
  8
Layer 1
370
     0
100
AcDbVertex
100
AcDb2dVertex
 10
113.3317558852955
 20
355.055330314882
 30
0.0
  0
VERTEX
  5
383
330
37C
100
AcDbEntity
  8
Layer 1
370
     0
100
AcDbVertex
100
AcDb2dVertex
 10
114.3356567096973
 20
353.3172796425735
 30
0.0
  0
SEQEND
  5
384
330
37C
100
AcDbEntity
  8
Layer 1
370
     0
  0
POLYLINE
  5
385
330
3C
100
AcDbEntity
  8
Layer 1
370
     0
100
AcDb2dPolyline
 66
     1
 10
0.0
 20
0.0
 30
0.0
  0
VERTEX
  5
386
330
385
100
AcDbEntity
  8
Layer 1
370
     0
100
AcDbVertex
100
AcDb2dVertex
 10
114.3356567096973
 20
357.9605793375932
 30
0.0
  0
VERTEX
  5
387
330
385
100
AcDbEntity
  8
Layer 1
370
     0
100
AcDbVertex
100
AcDb2dVertex
 10
113.3317558852955
 20
356.2225286652846
 30
0.0
  0
VERTEX
  5
388
330
385
100
AcDbEntity
  8
Layer 1
370
     0
100
AcDbVertex
100
AcDb2dVertex
 10
111.325332274686
 20
356.2225286652846
 30
0.0
  0
VERTEX
  5
389
330
385
100
AcDbEntity
  8
Layer 1
370
     0
100
AcDbVertex
100
AcDb2dVertex
 10
110.3221204693813
 20
357.9605793375932
 30
0.0
  0
VERTEX
  5
38A
330
385
100
AcDbEntity
  8
Layer 1
370
     0
100
AcDbVertex
100
AcDb2dVertex
 10
111.325332274686
 20
359.6982855003532
 30
0.0
  0
VERTEX
  5
38B
330
385
100
AcDbEntity
  8
Layer 1
370
     0
100
AcDbVertex
100
AcDb2dVertex
 10
113.3317558852955
 20
359.6982855003532
 30
0.0
  0
VERTEX
  5
38C
330
385
100
AcDbEntity
  8
Layer 1
370
     0
100
AcDbVertex
100
AcDb2dVertex
 10
114.3356567096973
 20
357.9605793375932
 30
0.0
  0
SEQEND
  5
38D
330
385
100
AcDbEntity
  8
Layer 1
370
     0
  0
POLYLINE
  5
38E
330
3C
100
AcDbEntity
  8
Layer 1
370
     0
100
AcDb2dPolyline
 66
     1
 10
0.0
 20
0.0
 30
0.0
  0
VERTEX
  5
38F
330
38E
100
AcDbEntity
  8
Layer 1
370
     0
100
AcDbVertex
100
AcDb2dVertex
 10
114.3356567096973
 20
348.6016329423635
 30
0.0
  0
VERTEX
  5
390
330
38E
100
AcDbEntity
  8
Layer 1
370
     0
100
AcDbVertex
100
AcDb2dVertex
 10
113.3317558852955
 20
346.863582270055
 30
0.0
  0
VERTEX
  5
391
330
38E
100
AcDbEntity
  8
Layer 1
370
     0
100
AcDbVertex
100
AcDb2dVertex
 10
111.325332274686
 20
346.863582270055
 30
0.0
  0
VERTEX
  5
392
330
38E
100
AcDbEntity
  8
Layer 1
370
     0
100
AcDbVertex
100
AcDb2dVertex
 10
110.3221204693813
 20
348.6016329423635
 30
0.0
  0
VERTEX
  5
393
330
38E
100
AcDbEntity
  8
Layer 1
370
     0
100
AcDbVertex
100
AcDb2dVertex
 10
111.325332274686
 20
350.338994595575
 30
0.0
  0
VERTEX
  5
394
330
38E
100
AcDbEntity
  8
Layer 1
370
     0
100
AcDbVertex
100
AcDb2dVertex
 10
113.3317558852955
 20
350.338994595575
 30
0.0
  0
VERTEX
  5
395
330
38E
100
AcDbEntity
  8
Layer 1
370
     0
100
AcDbVertex
100
AcDb2dVertex
 10
114.3356567096973
 20
348.6016329423635
 30
0.0
  0
SEQEND
  5
396
330
38E
100
AcDbEntity
  8
Layer 1
370
     0
  0
POLYLINE
  5
397
330
3C
100
AcDbEntity
  8
Layer 1
370
     0
100
AcDb2dPolyline
 66
     1
 10
0.0
 20
0.0
 30
0.0
  0
VERTEX
  5
398
330
397
100
AcDbEntity
  8
Layer 1
370
     0
100
AcDbVertex
100
AcDb2dVertex
 10
114.3356567096973
 20
362.5856200265411
 30
0.0
  0
VERTEX
  5
399
330
397
100
AcDbEntity
  8
Layer 1
370
     0
100
AcDbVertex
100
AcDb2dVertex
 10
113.3317558852955
 20
360.847224844684
 30
0.0
  0
VERTEX
  5
39A
330
397
100
AcDbEntity
  8
Layer 1
370
     0
100
AcDbVertex
100
AcDb2dVertex
 10
111.325332274686
 20
360.847224844684
 30
0.0
  0
VERTEX
  5
39B
330
397
100
AcDbEntity
  8
Layer 1
370
     0
100
AcDbVertex
100
AcDb2dVertex
 10
110.3221204693813
 20
362.5856200265411
 30
0.0
  0
VERTEX
  5
39C
330
397
100
AcDbEntity
  8
Layer 1
370
     0
100
AcDbVertex
100
AcDb2dVertex
 10
111.325332274686
 20
364.3229816797526
 30
0.0
  0
VERTEX
  5
39D
330
397
100
AcDbEntity
  8
Layer 1
370
     0
100
AcDbVertex
100
AcDb2dVertex
 10
113.3317558852955
 20
364.3229816797526
 30
0.0
  0
VERTEX
  5
39E
330
397
100
AcDbEntity
  8
Layer 1
370
     0
100
AcDbVertex
100
AcDb2dVertex
 10
114.3356567096973
 20
362.5856200265411
 30
0.0
  0
SEQEND
  5
39F
330
397
100
AcDbEntity
  8
Layer 1
370
     0
  0
POLYLINE
  5
3A0
330
3C
100
AcDbEntity
  8
Layer 1
370
     0
100
AcDb2dPolyline
 66
     1
 10
0.0
 20
0.0
 30
0.0
  0
VERTEX
  5
3A1
330
3A0
100
AcDbEntity
  8
Layer 1
370
     0
100
AcDbVertex
100
AcDb2dVertex
 10
118.3491929500134
 20
355.6847492600372
 30
0.0
  0
VERTEX
  5
3A2
330
3A0
100
AcDbEntity
  8
Layer 1
370
     0
100
AcDbVertex
100
AcDb2dVertex
 10
117.3452921256116
 20
353.9466985877286
 30
0.0
  0
VERTEX
  5
3A3
330
3A0
100
AcDbEntity
  8
Layer 1
370
     0
100
AcDbVertex
100
AcDb2dVertex
 10
115.3388685150021
 20
353.9466985877286
 30
0.0
  0
VERTEX
  5
3A4
330
3A0
100
AcDbEntity
  8
Layer 1
370
     0
100
AcDbVertex
100
AcDb2dVertex
 10
114.3356567096973
 20
355.6847492600372
 30
0.0
  0
VERTEX
  5
3A5
330
3A0
100
AcDbEntity
  8
Layer 1
370
     0
100
AcDbVertex
100
AcDb2dVertex
 10
115.3388685150021
 20
357.4221109132487
 30
0.0
  0
VERTEX
  5
3A6
330
3A0
100
AcDbEntity
  8
Layer 1
370
     0
100
AcDbVertex
100
AcDb2dVertex
 10
117.3452921256116
 20
357.4221109132487
 30
0.0
  0
VERTEX
  5
3A7
330
3A0
100
AcDbEntity
  8
Layer 1
370
     0
100
AcDbVertex
100
AcDb2dVertex
 10
118.3491929500134
 20
355.6847492600372
 30
0.0
  0
SEQEND
  5
3A8
330
3A0
100
AcDbEntity
  8
Layer 1
370
     0
  0
POLYLINE
  5
3A9
330
3C
100
AcDbEntity
  8
Layer 1
370
     0
100
AcDb2dPolyline
 66
     1
 10
0.0
 20
0.0
 30
0.0
  0
VERTEX
  5
3AA
330
3A9
100
AcDbEntity
  8
Layer 1
370
     0
100
AcDbVertex
100
AcDb2dVertex
 10
118.3491929500134
 20
360.3273599359599
 30
0.0
  0
VERTEX
  5
3AB
330
3A9
100
AcDbEntity
  8
Layer 1
370
     0
100
AcDbVertex
100
AcDb2dVertex
 10
117.3452921256116
 20
358.5899982827484
 30
0.0
  0
VERTEX
  5
3AC
330
3A9
100
AcDbEntity
  8
Layer 1
370
     0
100
AcDbVertex
100
AcDb2dVertex
 10
115.3388685150021
 20
358.5899982827484
 30
0.0
  0
VERTEX
  5
3AD
330
3A9
100
AcDbEntity
  8
Layer 1
370
     0
100
AcDbVertex
100
AcDb2dVertex
 10
114.3356567096973
 20
360.3273599359599
 30
0.0
  0
VERTEX
  5
3AE
330
3A9
100
AcDbEntity
  8
Layer 1
370
     0
100
AcDbVertex
100
AcDb2dVertex
 10
115.3388685150021
 20
362.0654106082684
 30
0.0
  0
VERTEX
  5
3AF
330
3A9
100
AcDbEntity
  8
Layer 1
370
     0
100
AcDbVertex
100
AcDb2dVertex
 10
117.3452921256116
 20
362.0654106082684
 30
0.0
  0
VERTEX
  5
3B0
330
3A9
100
AcDbEntity
  8
Layer 1
370
     0
100
AcDbVertex
100
AcDb2dVertex
 10
118.3491929500134
 20
360.3273599359599
 30
0.0
  0
SEQEND
  5
3B1
330
3A9
100
AcDbEntity
  8
Layer 1
370
     0
  0
POLYLINE
  5
3B2
330
3C
100
AcDbEntity
  8
Layer 1
370
     0
100
AcDb2dPolyline
 66
     1
 10
0.0
 20
0.0
 30
0.0
  0
VERTEX
  5
3B3
330
3B2
100
AcDbEntity
  8
Layer 1
370
     0
100
AcDbVertex
100
AcDb2dVertex
 10
118.3491929500134
 20
350.9684135407301
 30
0.0
  0
VERTEX
  5
3B4
330
3B2
100
AcDbEntity
  8
Layer 1
370
     0
100
AcDbVertex
100
AcDb2dVertex
 10
117.3452921256116
 20
349.2307073779701
 30
0.0
  0
VERTEX
  5
3B5
330
3B2
100
AcDbEntity
  8
Layer 1
370
     0
100
AcDbVertex
100
AcDb2dVertex
 10
115.3388685150021
 20
349.2307073779701
 30
0.0
  0
VERTEX
  5
3B6
330
3B2
100
AcDbEntity
  8
Layer 1
370
     0
100
AcDbVertex
100
AcDb2dVertex
 10
114.3356567096973
 20
350.9684135407301
 30
0.0
  0
VERTEX
  5
3B7
330
3B2
100
AcDbEntity
  8
Layer 1
370
     0
100
AcDbVertex
100
AcDb2dVertex
 10
115.3388685150021
 20
352.7061197034902
 30
0.0
  0
VERTEX
  5
3B8
330
3B2
100
AcDbEntity
  8
Layer 1
370
     0
100
AcDbVertex
100
AcDb2dVertex
 10
117.3452921256116
 20
352.7061197034902
 30
0.0
  0
VERTEX
  5
3B9
330
3B2
100
AcDbEntity
  8
Layer 1
370
     0
100
AcDbVertex
100
AcDb2dVertex
 10
118.3491929500134
 20
350.9684135407301
 30
0.0
  0
SEQEND
  5
3BA
330
3B2
100
AcDbEntity
  8
Layer 1
370
     0
  0
POLYLINE
  5
3BB
330
3C
100
AcDbEntity
  8
Layer 1
370
     0
100
AcDb2dPolyline
 66
     1
 10
0.0
 20
0.0
 30
0.0
  0
VERTEX
  5
3BC
330
3BB
100
AcDbEntity
  8
Layer 1
370
     0
100
AcDbVertex
100
AcDb2dVertex
 10
118.3491929500134
 20
364.9524006249077
 30
0.0
  0
VERTEX
  5
3BD
330
3BB
100
AcDbEntity
  8
Layer 1
370
     0
100
AcDbVertex
100
AcDb2dVertex
 10
117.3452921256116
 20
363.2143499525992
 30
0.0
  0
VERTEX
  5
3BE
330
3BB
100
AcDbEntity
  8
Layer 1
370
     0
100
AcDbVertex
100
AcDb2dVertex
 10
115.3388685150021
 20
363.2143499525992
 30
0.0
  0
VERTEX
  5
3BF
330
3BB
100
AcDbEntity
  8
Layer 1
370
     0
100
AcDbVertex
100
AcDb2dVertex
 10
114.3356567096973
 20
364.9524006249077
 30
0.0
  0
VERTEX
  5
3C0
330
3BB
100
AcDbEntity
  8
Layer 1
370
     0
100
AcDbVertex
100
AcDb2dVertex
 10
115.3388685150021
 20
366.6901067876678
 30
0.0
  0
VERTEX
  5
3C1
330
3BB
100
AcDbEntity
  8
Layer 1
370
     0
100
AcDbVertex
100
AcDb2dVertex
 10
117.3452921256116
 20
366.6901067876678
 30
0.0
  0
VERTEX
  5
3C2
330
3BB
100
AcDbEntity
  8
Layer 1
370
     0
100
AcDbVertex
100
AcDb2dVertex
 10
118.3491929500134
 20
364.9524006249077
 30
0.0
  0
SEQEND
  5
3C3
330
3BB
100
AcDbEntity
  8
Layer 1
370
     0
  0
POLYLINE
  5
3C4
330
3C
100
AcDbEntity
  8
Layer 1
370
     0
100
AcDb2dPolyline
 66
     1
 10
0.0
 20
0.0
 30
0.0
  0
VERTEX
  5
3C5
330
3C4
100
AcDbEntity
  8
Layer 1
370
     0
100
AcDbVertex
100
AcDb2dVertex
 10
122.3627291903295
 20
353.4089191824811
 30
0.0
  0
VERTEX
  5
3C6
330
3C4
100
AcDbEntity
  8
Layer 1
370
     0
100
AcDbVertex
100
AcDb2dVertex
 10
121.3595173850247
 20
351.670524000624
 30
0.0
  0
VERTEX
  5
3C7
330
3C4
100
AcDbEntity
  8
Layer 1
370
     0
100
AcDbVertex
100
AcDb2dVertex
 10
119.3530937744152
 20
351.670524000624
 30
0.0
  0
VERTEX
  5
3C8
330
3C4
100
AcDbEntity
  8
Layer 1
370
     0
100
AcDbVertex
100
AcDb2dVertex
 10
118.3491929500134
 20
353.4089191824811
 30
0.0
  0
VERTEX
  5
3C9
330
3C4
100
AcDbEntity
  8
Layer 1
370
     0
100
AcDbVertex
100
AcDb2dVertex
 10
119.3530937744152
 20
355.1466253452411
 30
0.0
  0
VERTEX
  5
3CA
330
3C4
100
AcDbEntity
  8
Layer 1
370
     0
100
AcDbVertex
100
AcDb2dVertex
 10
121.3595173850247
 20
355.1466253452411
 30
0.0
  0
VERTEX
  5
3CB
330
3C4
100
AcDbEntity
  8
Layer 1
370
     0
100
AcDbVertex
100
AcDb2dVertex
 10
122.3627291903295
 20
353.4089191824811
 30
0.0
  0
SEQEND
  5
3CC
330
3C4
100
AcDbEntity
  8
Layer 1
370
     0
  0
POLYLINE
  5
3CD
330
3C
100
AcDbEntity
  8
Layer 1
370
     0
100
AcDb2dPolyline
 66
     1
 10
0.0
 20
0.0
 30
0.0
  0
VERTEX
  5
3CE
330
3CD
100
AcDbEntity
  8
Layer 1
370
     0
100
AcDbVertex
100
AcDb2dVertex
 10
122.3627291903295
 20
358.0515298584038
 30
0.0
  0
VERTEX
  5
3CF
330
3CD
100
AcDbEntity
  8
Layer 1
370
     0
100
AcDbVertex
100
AcDb2dVertex
 10
121.3595173850247
 20
356.3138236956438
 30
0.0
  0
VERTEX
  5
3D0
330
3CD
100
AcDbEntity
  8
Layer 1
370
     0
100
AcDbVertex
100
AcDb2dVertex
 10
119.3530937744152
 20
356.3138236956438
 30
0.0
  0
VERTEX
  5
3D1
330
3CD
100
AcDbEntity
  8
Layer 1
370
     0
100
AcDbVertex
100
AcDb2dVertex
 10
118.3491929500134
 20
358.0515298584038
 30
0.0
  0
VERTEX
  5
3D2
330
3CD
100
AcDbEntity
  8
Layer 1
370
     0
100
AcDbVertex
100
AcDb2dVertex
 10
119.3530937744152
 20
359.7895805307123
 30
0.0
  0
VERTEX
  5
3D3
330
3CD
100
AcDbEntity
  8
Layer 1
370
     0
100
AcDbVertex
100
AcDb2dVertex
 10
121.3595173850247
 20
359.7895805307123
 30
0.0
  0
VERTEX
  5
3D4
330
3CD
100
AcDbEntity
  8
Layer 1
370
     0
100
AcDbVertex
100
AcDb2dVertex
 10
122.3627291903295
 20
358.0515298584038
 30
0.0
  0
SEQEND
  5
3D5
330
3CD
100
AcDbEntity
  8
Layer 1
370
     0
  0
POLYLINE
  5
3D6
330
3C
100
AcDbEntity
  8
Layer 1
370
     0
100
AcDb2dPolyline
 66
     1
 10
0.0
 20
0.0
 30
0.0
  0
VERTEX
  5
3D7
330
3D6
100
AcDbEntity
  8
Layer 1
370
     0
100
AcDbVertex
100
AcDb2dVertex
 10
122.3627291903295
 20
348.6925834631741
 30
0.0
  0
VERTEX
  5
3D8
330
3D6
100
AcDbEntity
  8
Layer 1
370
     0
100
AcDbVertex
100
AcDb2dVertex
 10
121.3595173850247
 20
346.9545327908655
 30
0.0
  0
VERTEX
  5
3D9
330
3D6
100
AcDbEntity
  8
Layer 1
370
     0
100
AcDbVertex
100
AcDb2dVertex
 10
119.3530937744152
 20
346.9545327908655
 30
0.0
  0
VERTEX
  5
3DA
330
3D6
100
AcDbEntity
  8
Layer 1
370
     0
100
AcDbVertex
100
AcDb2dVertex
 10
118.3491929500134
 20
348.6925834631741
 30
0.0
  0
VERTEX
  5
3DB
330
3D6
100
AcDbEntity
  8
Layer 1
370
     0
100
AcDbVertex
100
AcDb2dVertex
 10
119.3530937744152
 20
350.4306341354826
 30
0.0
  0
VERTEX
  5
3DC
330
3D6
100
AcDbEntity
  8
Layer 1
370
     0
100
AcDbVertex
100
AcDb2dVertex
 10
121.3595173850247
 20
350.4306341354826
 30
0.0
  0
VERTEX
  5
3DD
330
3D6
100
AcDbEntity
  8
Layer 1
370
     0
100
AcDbVertex
100
AcDb2dVertex
 10
122.3627291903295
 20
348.6925834631741
 30
0.0
  0
SEQEND
  5
3DE
330
3D6
100
AcDbEntity
  8
Layer 1
370
     0
  0
POLYLINE
  5
3DF
330
3C
100
AcDbEntity
  8
Layer 1
370
     0
100
AcDb2dPolyline
 66
     1
 10
0.0
 20
0.0
 30
0.0
  0
VERTEX
  5
3E0
330
3DF
100
AcDbEntity
  8
Layer 1
370
     0
100
AcDbVertex
100
AcDb2dVertex
 10
122.3627291903295
 20
362.6765705473517
 30
0.0
  0
VERTEX
  5
3E1
330
3DF
100
AcDbEntity
  8
Layer 1
370
     0
100
AcDbVertex
100
AcDb2dVertex
 10
121.3595173850247
 20
360.9388643845917
 30
0.0
  0
VERTEX
  5
3E2
330
3DF
100
AcDbEntity
  8
Layer 1
370
     0
100
AcDbVertex
100
AcDb2dVertex
 10
119.3530937744152
 20
360.9388643845917
 30
0.0
  0
VERTEX
  5
3E3
330
3DF
100
AcDbEntity
  8
Layer 1
370
     0
100
AcDbVertex
100
AcDb2dVertex
 10
118.3491929500134
 20
362.6765705473517
 30
0.0
  0
VERTEX
  5
3E4
330
3DF
100
AcDbEntity
  8
Layer 1
370
     0
100
AcDbVertex
100
AcDb2dVertex
 10
119.3530937744152
 20
364.4142767101117
 30
0.0
  0
VERTEX
  5
3E5
330
3DF
100
AcDbEntity
  8
Layer 1
370
     0
100
AcDbVertex
100
AcDb2dVertex
 10
121.3595173850247
 20
364.4142767101117
 30
0.0
  0
VERTEX
  5
3E6
330
3DF
100
AcDbEntity
  8
Layer 1
370
     0
100
AcDbVertex
100
AcDb2dVertex
 10
122.3627291903295
 20
362.6765705473517
 30
0.0
  0
SEQEND
  5
3E7
330
3DF
100
AcDbEntity
  8
Layer 1
370
     0
  0
POLYLINE
  5
3E8
330
3C
100
AcDbEntity
  8
Layer 1
370
     0
100
AcDb2dPolyline
 66
     1
 10
0.0
 20
0.0
 30
0.0
  0
VERTEX
  5
3E9
330
3E8
100
AcDbEntity
  8
Layer 1
370
     0
100
AcDbVertex
100
AcDb2dVertex
 10
126.3762654306455
 20
355.6847492600372
 30
0.0
  0
VERTEX
  5
3EA
330
3E8
100
AcDbEntity
  8
Layer 1
370
     0
100
AcDbVertex
100
AcDb2dVertex
 10
125.3730536253408
 20
353.9466985877286
 30
0.0
  0
VERTEX
  5
3EB
330
3E8
100
AcDbEntity
  8
Layer 1
370
     0
100
AcDbVertex
100
AcDb2dVertex
 10
123.3659409956342
 20
353.9466985877286
 30
0.0
  0
VERTEX
  5
3EC
330
3E8
100
AcDbEntity
  8
Layer 1
370
     0
100
AcDbVertex
100
AcDb2dVertex
 10
122.3627291903295
 20
355.6847492600372
 30
0.0
  0
VERTEX
  5
3ED
330
3E8
100
AcDbEntity
  8
Layer 1
370
     0
100
AcDbVertex
100
AcDb2dVertex
 10
123.3659409956342
 20
357.4221109132487
 30
0.0
  0
VERTEX
  5
3EE
330
3E8
100
AcDbEntity
  8
Layer 1
370
     0
100
AcDbVertex
100
AcDb2dVertex
 10
125.3730536253408
 20
357.4221109132487
 30
0.0
  0
VERTEX
  5
3EF
330
3E8
100
AcDbEntity
  8
Layer 1
370
     0
100
AcDbVertex
100
AcDb2dVertex
 10
126.3762654306455
 20
355.6847492600372
 30
0.0
  0
SEQEND
  5
3F0
330
3E8
100
AcDbEntity
  8
Layer 1
370
     0
  0
POLYLINE
  5
3F1
330
3C
100
AcDbEntity
  8
Layer 1
370
     0
100
AcDb2dPolyline
 66
     1
 10
0.0
 20
0.0
 30
0.0
  0
VERTEX
  5
3F2
330
3F1
100
AcDbEntity
  8
Layer 1
370
     0
100
AcDbVertex
100
AcDb2dVertex
 10
126.3762654306455
 20
360.3273599359599
 30
0.0
  0
VERTEX
  5
3F3
330
3F1
100
AcDbEntity
  8
Layer 1
370
     0
100
AcDbVertex
100
AcDb2dVertex
 10
125.3730536253408
 20
358.5899982827484
 30
0.0
  0
VERTEX
  5
3F4
330
3F1
100
AcDbEntity
  8
Layer 1
370
     0
100
AcDbVertex
100
AcDb2dVertex
 10
123.3659409956342
 20
358.5899982827484
 30
0.0
  0
VERTEX
  5
3F5
330
3F1
100
AcDbEntity
  8
Layer 1
370
     0
100
AcDbVertex
100
AcDb2dVertex
 10
122.3627291903295
 20
360.3273599359599
 30
0.0
  0
VERTEX
  5
3F6
330
3F1
100
AcDbEntity
  8
Layer 1
370
     0
100
AcDbVertex
100
AcDb2dVertex
 10
123.3659409956342
 20
362.0654106082684
 30
0.0
  0
VERTEX
  5
3F7
330
3F1
100
AcDbEntity
  8
Layer 1
370
     0
100
AcDbVertex
100
AcDb2dVertex
 10
125.3730536253408
 20
362.0654106082684
 30
0.0
  0
VERTEX
  5
3F8
330
3F1
100
AcDbEntity
  8
Layer 1
370
     0
100
AcDbVertex
100
AcDb2dVertex
 10
126.3762654306455
 20
360.3273599359599
 30
0.0
  0
SEQEND
  5
3F9
330
3F1
100
AcDbEntity
  8
Layer 1
370
     0
  0
POLYLINE
  5
3FA
330
3C
100
AcDbEntity
  8
Layer 1
370
     0
100
AcDb2dPolyline
 66
     1
 10
0.0
 20
0.0
 30
0.0
  0
VERTEX
  5
3FB
330
3FA
100
AcDbEntity
  8
Layer 1
370
     0
100
AcDbVertex
100
AcDb2dVertex
 10
126.3762654306455
 20
350.9684135407301
 30
0.0
  0
VERTEX
  5
3FC
330
3FA
100
AcDbEntity
  8
Layer 1
370
     0
100
AcDbVertex
100
AcDb2dVertex
 10
125.3730536253408
 20
349.2307073779701
 30
0.0
  0
VERTEX
  5
3FD
330
3FA
100
AcDbEntity
  8
Layer 1
370
     0
100
AcDbVertex
100
AcDb2dVertex
 10
123.3659409956342
 20
349.2307073779701
 30
0.0
  0
VERTEX
  5
3FE
330
3FA
100
AcDbEntity
  8
Layer 1
370
     0
100
AcDbVertex
100
AcDb2dVertex
 10
122.3627291903295
 20
350.9684135407301
 30
0.0
  0
VERTEX
  5
3FF
330
3FA
100
AcDbEntity
  8
Layer 1
370
     0
100
AcDbVertex
100
AcDb2dVertex
 10
123.3659409956342
 20
352.7061197034902
 30
0.0
  0
VERTEX
  5
400
330
3FA
100
AcDbEntity
  8
Layer 1
370
     0
100
AcDbVertex
100
AcDb2dVertex
 10
125.3730536253408
 20
352.7061197034902
 30
0.0
  0
VERTEX
  5
401
330
3FA
100
AcDbEntity
  8
Layer 1
370
     0
100
AcDbVertex
100
AcDb2dVertex
 10
126.3762654306455
 20
350.9684135407301
 30
0.0
  0
SEQEND
  5
402
330
3FA
100
AcDbEntity
  8
Layer 1
370
     0
  0
POLYLINE
  5
403
330
3C
100
AcDbEntity
  8
Layer 1
370
     0
100
AcDb2dPolyline
 66
     1
 10
0.0
 20
0.0
 30
0.0
  0
VERTEX
  5
404
330
403
100
AcDbEntity
  8
Layer 1
370
     0
100
AcDbVertex
100
AcDb2dVertex
 10
126.3762654306455
 20
364.9524006249077
 30
0.0
  0
VERTEX
  5
405
330
403
100
AcDbEntity
  8
Layer 1
370
     0
100
AcDbVertex
100
AcDb2dVertex
 10
125.3730536253408
 20
363.2143499525992
 30
0.0
  0
VERTEX
  5
406
330
403
100
AcDbEntity
  8
Layer 1
370
     0
100
AcDbVertex
100
AcDb2dVertex
 10
123.3659409956342
 20
363.2143499525992
 30
0.0
  0
VERTEX
  5
407
330
403
100
AcDbEntity
  8
Layer 1
370
     0
100
AcDbVertex
100
AcDb2dVertex
 10
122.3627291903295
 20
364.9524006249077
 30
0.0
  0
VERTEX
  5
408
330
403
100
AcDbEntity
  8
Layer 1
370
     0
100
AcDbVertex
100
AcDb2dVertex
 10
123.3659409956342
 20
366.6901067876678
 30
0.0
  0
VERTEX
  5
409
330
403
100
AcDbEntity
  8
Layer 1
370
     0
100
AcDbVertex
100
AcDb2dVertex
 10
125.3730536253408
 20
366.6901067876678
 30
0.0
  0
VERTEX
  5
40A
330
403
100
AcDbEntity
  8
Layer 1
370
     0
100
AcDbVertex
100
AcDb2dVertex
 10
126.3762654306455
 20
364.9524006249077
 30
0.0
  0
SEQEND
  5
40B
330
403
100
AcDbEntity
  8
Layer 1
370
     0
  0
POLYLINE
  5
40C
330
3C
100
AcDbEntity
  8
Layer 1
370
     0
100
AcDb2dPolyline
 66
     1
 10
0.0
 20
0.0
 30
0.0
  0
VERTEX
  5
40D
330
40C
100
AcDbEntity
  8
Layer 1
370
     0
100
AcDbVertex
100
AcDb2dVertex
 10
130.3898016709616
 20
353.4089191824811
 30
0.0
  0
VERTEX
  5
40E
330
40C
100
AcDbEntity
  8
Layer 1
370
     0
100
AcDbVertex
100
AcDb2dVertex
 10
129.3859008465598
 20
351.670524000624
 30
0.0
  0
VERTEX
  5
40F
330
40C
100
AcDbEntity
  8
Layer 1
370
     0
100
AcDbVertex
100
AcDb2dVertex
 10
127.3794772359503
 20
351.670524000624
 30
0.0
  0
VERTEX
  5
410
330
40C
100
AcDbEntity
  8
Layer 1
370
     0
100
AcDbVertex
100
AcDb2dVertex
 10
126.3762654306455
 20
353.4089191824811
 30
0.0
  0
VERTEX
  5
411
330
40C
100
AcDbEntity
  8
Layer 1
370
     0
100
AcDbVertex
100
AcDb2dVertex
 10
127.3794772359503
 20
355.1466253452411
 30
0.0
  0
VERTEX
  5
412
330
40C
100
AcDbEntity
  8
Layer 1
370
     0
100
AcDbVertex
100
AcDb2dVertex
 10
129.3859008465598
 20
355.1466253452411
 30
0.0
  0
VERTEX
  5
413
330
40C
100
AcDbEntity
  8
Layer 1
370
     0
100
AcDbVertex
100
AcDb2dVertex
 10
130.3898016709616
 20
353.4089191824811
 30
0.0
  0
SEQEND
  5
414
330
40C
100
AcDbEntity
  8
Layer 1
370
     0
  0
POLYLINE
  5
415
330
3C
100
AcDbEntity
  8
Layer 1
370
     0
100
AcDb2dPolyline
 66
     1
 10
0.0
 20
0.0
 30
0.0
  0
VERTEX
  5
416
330
415
100
AcDbEntity
  8
Layer 1
370
     0
100
AcDbVertex
100
AcDb2dVertex
 10
130.3898016709616
 20
358.0515298584038
 30
0.0
  0
VERTEX
  5
417
330
415
100
AcDbEntity
  8
Layer 1
370
     0
100
AcDbVertex
100
AcDb2dVertex
 10
129.3859008465598
 20
356.3138236956438
 30
0.0
  0
VERTEX
  5
418
330
415
100
AcDbEntity
  8
Layer 1
370
     0
100
AcDbVertex
100
AcDb2dVertex
 10
127.3794772359503
 20
356.3138236956438
 30
0.0
  0
VERTEX
  5
419
330
415
100
AcDbEntity
  8
Layer 1
370
     0
100
AcDbVertex
100
AcDb2dVertex
 10
126.3762654306455
 20
358.0515298584038
 30
0.0
  0
VERTEX
  5
41A
330
415
100
AcDbEntity
  8
Layer 1
370
     0
100
AcDbVertex
100
AcDb2dVertex
 10
127.3794772359503
 20
359.7895805307123
 30
0.0
  0
VERTEX
  5
41B
330
415
100
AcDbEntity
  8
Layer 1
370
     0
100
AcDbVertex
100
AcDb2dVertex
 10
129.3859008465598
 20
359.7895805307123
 30
0.0
  0
VERTEX
  5
41C
330
415
100
AcDbEntity
  8
Layer 1
370
     0
100
AcDbVertex
100
AcDb2dVertex
 10
130.3898016709616
 20
358.0515298584038
 30
0.0
  0
SEQEND
  5
41D
330
415
100
AcDbEntity
  8
Layer 1
370
     0
  0
POLYLINE
  5
41E
330
3C
100
AcDbEntity
  8
Layer 1
370
     0
100
AcDb2dPolyline
 66
     1
 10
0.0
 20
0.0
 30
0.0
  0
VERTEX
  5
41F
330
41E
100
AcDbEntity
  8
Layer 1
370
     0
100
AcDbVertex
100
AcDb2dVertex
 10
130.3898016709616
 20
362.6765705473517
 30
0.0
  0
VERTEX
  5
420
330
41E
100
AcDbEntity
  8
Layer 1
370
     0
100
AcDbVertex
100
AcDb2dVertex
 10
129.3859008465598
 20
360.9388643845917
 30
0.0
  0
VERTEX
  5
421
330
41E
100
AcDbEntity
  8
Layer 1
370
     0
100
AcDbVertex
100
AcDb2dVertex
 10
127.3794772359503
 20
360.9388643845917
 30
0.0
  0
VERTEX
  5
422
330
41E
100
AcDbEntity
  8
Layer 1
370
     0
100
AcDbVertex
100
AcDb2dVertex
 10
126.3762654306455
 20
362.6765705473517
 30
0.0
  0
VERTEX
  5
423
330
41E
100
AcDbEntity
  8
Layer 1
370
     0
100
AcDbVertex
100
AcDb2dVertex
 10
127.3794772359503
 20
364.4142767101117
 30
0.0
  0
VERTEX
  5
424
330
41E
100
AcDbEntity
  8
Layer 1
370
     0
100
AcDbVertex
100
AcDb2dVertex
 10
129.3859008465598
 20
364.4142767101117
 30
0.0
  0
VERTEX
  5
425
330
41E
100
AcDbEntity
  8
Layer 1
370
     0
100
AcDbVertex
100
AcDb2dVertex
 10
130.3898016709616
 20
362.6765705473517
 30
0.0
  0
SEQEND
  5
426
330
41E
100
AcDbEntity
  8
Layer 1
370
     0
  0
POLYLINE
  5
427
330
3C
100
AcDbEntity
  8
Layer 1
370
     0
100
AcDb2dPolyline
 66
     1
 10
0.0
 20
0.0
 30
0.0
  0
VERTEX
  5
428
330
427
100
AcDbEntity
  8
Layer 1
370
     0
100
AcDbVertex
100
AcDb2dVertex
 10
134.4026488921806
 20
355.6847492600372
 30
0.0
  0
VERTEX
  5
429
330
427
100
AcDbEntity
  8
Layer 1
370
     0
100
AcDbVertex
100
AcDb2dVertex
 10
133.3994370868758
 20
353.9466985877286
 30
0.0
  0
VERTEX
  5
42A
330
427
100
AcDbEntity
  8
Layer 1
370
     0
100
AcDbVertex
100
AcDb2dVertex
 10
131.3930134762663
 20
353.9466985877286
 30
0.0
  0
VERTEX
  5
42B
330
427
100
AcDbEntity
  8
Layer 1
370
     0
100
AcDbVertex
100
AcDb2dVertex
 10
130.3898016709616
 20
355.6847492600372
 30
0.0
  0
VERTEX
  5
42C
330
427
100
AcDbEntity
  8
Layer 1
370
     0
100
AcDbVertex
100
AcDb2dVertex
 10
131.3930134762663
 20
357.4221109132487
 30
0.0
  0
VERTEX
  5
42D
330
427
100
AcDbEntity
  8
Layer 1
370
     0
100
AcDbVertex
100
AcDb2dVertex
 10
133.3994370868758
 20
357.4221109132487
 30
0.0
  0
VERTEX
  5
42E
330
427
100
AcDbEntity
  8
Layer 1
370
     0
100
AcDbVertex
100
AcDb2dVertex
 10
134.4026488921806
 20
355.6847492600372
 30
0.0
  0
SEQEND
  5
42F
330
427
100
AcDbEntity
  8
Layer 1
370
     0
  0
POLYLINE
  5
430
330
3C
100
AcDbEntity
  8
Layer 1
370
     0
100
AcDb2dPolyline
 66
     1
 10
0.0
 20
0.0
 30
0.0
  0
VERTEX
  5
431
330
430
100
AcDbEntity
  8
Layer 1
370
     0
100
AcDbVertex
100
AcDb2dVertex
 10
134.4026488921806
 20
360.3273599359599
 30
0.0
  0
VERTEX
  5
432
330
430
100
AcDbEntity
  8
Layer 1
370
     0
100
AcDbVertex
100
AcDb2dVertex
 10
133.3994370868758
 20
358.5899982827484
 30
0.0
  0
VERTEX
  5
433
330
430
100
AcDbEntity
  8
Layer 1
370
     0
100
AcDbVertex
100
AcDb2dVertex
 10
131.3930134762663
 20
358.5899982827484
 30
0.0
  0
VERTEX
  5
434
330
430
100
AcDbEntity
  8
Layer 1
370
     0
100
AcDbVertex
100
AcDb2dVertex
 10
130.3898016709616
 20
360.3273599359599
 30
0.0
  0
VERTEX
  5
435
330
430
100
AcDbEntity
  8
Layer 1
370
     0
100
AcDbVertex
100
AcDb2dVertex
 10
131.3930134762663
 20
362.0654106082684
 30
0.0
  0
VERTEX
  5
436
330
430
100
AcDbEntity
  8
Layer 1
370
     0
100
AcDbVertex
100
AcDb2dVertex
 10
133.3994370868758
 20
362.0654106082684
 30
0.0
  0
VERTEX
  5
437
330
430
100
AcDbEntity
  8
Layer 1
370
     0
100
AcDbVertex
100
AcDb2dVertex
 10
134.4026488921806
 20
360.3273599359599
 30
0.0
  0
SEQEND
  5
438
330
430
100
AcDbEntity
  8
Layer 1
370
     0
  0
POLYLINE
  5
439
330
3C
100
AcDbEntity
  8
Layer 1
370
     0
100
AcDb2dPolyline
 66
     1
 10
0.0
 20
0.0
 30
0.0
  0
VERTEX
  5
43A
330
439
100
AcDbEntity
  8
Layer 1
370
     0
100
AcDbVertex
100
AcDb2dVertex
 10
134.4026488921806
 20
350.9684135407301
 30
0.0
  0
VERTEX
  5
43B
330
439
100
AcDbEntity
  8
Layer 1
370
     0
100
AcDbVertex
100
AcDb2dVertex
 10
133.3994370868758
 20
349.2307073779701
 30
0.0
  0
VERTEX
  5
43C
330
439
100
AcDbEntity
  8
Layer 1
370
     0
100
AcDbVertex
100
AcDb2dVertex
 10
131.3930134762663
 20
349.2307073779701
 30
0.0
  0
VERTEX
  5
43D
330
439
100
AcDbEntity
  8
Layer 1
370
     0
100
AcDbVertex
100
AcDb2dVertex
 10
130.3898016709616
 20
350.9684135407301
 30
0.0
  0
VERTEX
  5
43E
330
439
100
AcDbEntity
  8
Layer 1
370
     0
100
AcDbVertex
100
AcDb2dVertex
 10
131.3930134762663
 20
352.7061197034902
 30
0.0
  0
VERTEX
  5
43F
330
439
100
AcDbEntity
  8
Layer 1
370
     0
100
AcDbVertex
100
AcDb2dVertex
 10
133.3994370868758
 20
352.7061197034902
 30
0.0
  0
VERTEX
  5
440
330
439
100
AcDbEntity
  8
Layer 1
370
     0
100
AcDbVertex
100
AcDb2dVertex
 10
134.4026488921806
 20
350.9684135407301
 30
0.0
  0
SEQEND
  5
441
330
439
100
AcDbEntity
  8
Layer 1
370
     0
  0
POLYLINE
  5
442
330
3C
100
AcDbEntity
  8
Layer 1
370
     0
100
AcDb2dPolyline
 66
     1
 10
0.0
 20
0.0
 30
0.0
  0
VERTEX
  5
443
330
442
100
AcDbEntity
  8
Layer 1
370
     0
100
AcDbVertex
100
AcDb2dVertex
 10
134.4026488921806
 20
364.9524006249077
 30
0.0
  0
VERTEX
  5
444
330
442
100
AcDbEntity
  8
Layer 1
370
     0
100
AcDbVertex
100
AcDb2dVertex
 10
133.3994370868758
 20
363.2143499525992
 30
0.0
  0
VERTEX
  5
445
330
442
100
AcDbEntity
  8
Layer 1
370
     0
100
AcDbVertex
100
AcDb2dVertex
 10
131.3930134762663
 20
363.2143499525992
 30
0.0
  0
VERTEX
  5
446
330
442
100
AcDbEntity
  8
Layer 1
370
     0
100
AcDbVertex
100
AcDb2dVertex
 10
130.3898016709616
 20
364.9524006249077
 30
0.0
  0
VERTEX
  5
447
330
442
100
AcDbEntity
  8
Layer 1
370
     0
100
AcDbVertex
100
AcDb2dVertex
 10
131.3930134762663
 20
366.6901067876678
 30
0.0
  0
VERTEX
  5
448
330
442
100
AcDbEntity
  8
Layer 1
370
     0
100
AcDbVertex
100
AcDb2dVertex
 10
133.3994370868758
 20
366.6901067876678
 30
0.0
  0
VERTEX
  5
449
330
442
100
AcDbEntity
  8
Layer 1
370
     0
100
AcDbVertex
100
AcDb2dVertex
 10
134.4026488921806
 20
364.9524006249077
 30
0.0
  0
SEQEND
  5
44A
330
442
100
AcDbEntity
  8
Layer 1
370
     0
  0
POLYLINE
  5
44B
330
3C
100
AcDbEntity
  8
Layer 1
370
     0
100
AcDb2dPolyline
 66
     1
 10
0.0
 20
0.0
 30
0.0
  0
VERTEX
  5
44C
330
44B
100
AcDbEntity
  8
Layer 1
370
     0
100
AcDbVertex
100
AcDb2dVertex
 10
138.3622693881525
 20
353.4089191824811
 30
0.0
  0
VERTEX
  5
44D
330
44B
100
AcDbEntity
  8
Layer 1
370
     0
100
AcDbVertex
100
AcDb2dVertex
 10
137.3585408185249
 20
351.670524000624
 30
0.0
  0
VERTEX
  5
44E
330
44B
100
AcDbEntity
  8
Layer 1
370
     0
100
AcDbVertex
100
AcDb2dVertex
 10
135.3521172079155
 20
351.670524000624
 30
0.0
  0
VERTEX
  5
44F
330
44B
100
AcDbEntity
  8
Layer 1
370
     0
100
AcDbVertex
100
AcDb2dVertex
 10
134.3482163835137
 20
353.4089191824811
 30
0.0
  0
VERTEX
  5
450
330
44B
100
AcDbEntity
  8
Layer 1
370
     0
100
AcDbVertex
100
AcDb2dVertex
 10
135.3521172079155
 20
355.1466253452411
 30
0.0
  0
VERTEX
  5
451
330
44B
100
AcDbEntity
  8
Layer 1
370
     0
100
AcDbVertex
100
AcDb2dVertex
 10
137.3585408185249
 20
355.1466253452411
 30
0.0
  0
VERTEX
  5
452
330
44B
100
AcDbEntity
  8
Layer 1
370
     0
100
AcDbVertex
100
AcDb2dVertex
 10
138.3622693881525
 20
353.4089191824811
 30
0.0
  0
SEQEND
  5
453
330
44B
100
AcDbEntity
  8
Layer 1
370
     0
  0
POLYLINE
  5
454
330
3C
100
AcDbEntity
  8
Layer 1
370
     0
100
AcDb2dPolyline
 66
     1
 10
0.0
 20
0.0
 30
0.0
  0
VERTEX
  5
455
330
454
100
AcDbEntity
  8
Layer 1
370
     0
100
AcDbVertex
100
AcDb2dVertex
 10
138.3622693881525
 20
358.0515298584038
 30
0.0
  0
VERTEX
  5
456
330
454
100
AcDbEntity
  8
Layer 1
370
     0
100
AcDbVertex
100
AcDb2dVertex
 10
137.3585408185249
 20
356.3138236956438
 30
0.0
  0
VERTEX
  5
457
330
454
100
AcDbEntity
  8
Layer 1
370
     0
100
AcDbVertex
100
AcDb2dVertex
 10
135.3521172079155
 20
356.3138236956438
 30
0.0
  0
VERTEX
  5
458
330
454
100
AcDbEntity
  8
Layer 1
370
     0
100
AcDbVertex
100
AcDb2dVertex
 10
134.3482163835137
 20
358.0515298584038
 30
0.0
  0
VERTEX
  5
459
330
454
100
AcDbEntity
  8
Layer 1
370
     0
100
AcDbVertex
100
AcDb2dVertex
 10
135.3521172079155
 20
359.7895805307123
 30
0.0
  0
VERTEX
  5
45A
330
454
100
AcDbEntity
  8
Layer 1
370
     0
100
AcDbVertex
100
AcDb2dVertex
 10
137.3585408185249
 20
359.7895805307123
 30
0.0
  0
VERTEX
  5
45B
330
454
100
AcDbEntity
  8
Layer 1
370
     0
100
AcDbVertex
100
AcDb2dVertex
 10
138.3622693881525
 20
358.0515298584038
 30
0.0
  0
SEQEND
  5
45C
330
454
100
AcDbEntity
  8
Layer 1
370
     0
  0
POLYLINE
  5
45D
330
3C
100
AcDbEntity
  8
Layer 1
370
     0
100
AcDb2dPolyline
 66
     1
 10
0.0
 20
0.0
 30
0.0
  0
VERTEX
  5
45E
330
45D
100
AcDbEntity
  8
Layer 1
370
     0
100
AcDbVertex
100
AcDb2dVertex
 10
138.3622693881525
 20
348.6925834631741
 30
0.0
  0
VERTEX
  5
45F
330
45D
100
AcDbEntity
  8
Layer 1
370
     0
100
AcDbVertex
100
AcDb2dVertex
 10
137.3585408185249
 20
346.9545327908655
 30
0.0
  0
VERTEX
  5
460
330
45D
100
AcDbEntity
  8
Layer 1
370
     0
100
AcDbVertex
100
AcDb2dVertex
 10
135.3521172079155
 20
346.9545327908655
 30
0.0
  0
VERTEX
  5
461
330
45D
100
AcDbEntity
  8
Layer 1
370
     0
100
AcDbVertex
100
AcDb2dVertex
 10
134.3482163835137
 20
348.6925834631741
 30
0.0
  0
VERTEX
  5
462
330
45D
100
AcDbEntity
  8
Layer 1
370
     0
100
AcDbVertex
100
AcDb2dVertex
 10
135.3521172079155
 20
350.4306341354826
 30
0.0
  0
VERTEX
  5
463
330
45D
100
AcDbEntity
  8
Layer 1
370
     0
100
AcDbVertex
100
AcDb2dVertex
 10
137.3585408185249
 20
350.4306341354826
 30
0.0
  0
VERTEX
  5
464
330
45D
100
AcDbEntity
  8
Layer 1
370
     0
100
AcDbVertex
100
AcDb2dVertex
 10
138.3622693881525
 20
348.6925834631741
 30
0.0
  0
SEQEND
  5
465
330
45D
100
AcDbEntity
  8
Layer 1
370
     0
  0
POLYLINE
  5
466
330
3C
100
AcDbEntity
  8
Layer 1
370
     0
100
AcDb2dPolyline
 66
     1
 10
0.0
 20
0.0
 30
0.0
  0
VERTEX
  5
467
330
466
100
AcDbEntity
  8
Layer 1
370
     0
100
AcDbVertex
100
AcDb2dVertex
 10
138.3622693881525
 20
362.6765705473517
 30
0.0
  0
VERTEX
  5
468
330
466
100
AcDbEntity
  8
Layer 1
370
     0
100
AcDbVertex
100
AcDb2dVertex
 10
137.3585408185249
 20
360.9388643845917
 30
0.0
  0
VERTEX
  5
469
330
466
100
AcDbEntity
  8
Layer 1
370
     0
100
AcDbVertex
100
AcDb2dVertex
 10
135.3521172079155
 20
360.9388643845917
 30
0.0
  0
VERTEX
  5
46A
330
466
100
AcDbEntity
  8
Layer 1
370
     0
100
AcDbVertex
100
AcDb2dVertex
 10
134.3482163835137
 20
362.6765705473517
 30
0.0
  0
VERTEX
  5
46B
330
466
100
AcDbEntity
  8
Layer 1
370
     0
100
AcDbVertex
100
AcDb2dVertex
 10
135.3521172079155
 20
364.4142767101117
 30
0.0
  0
VERTEX
  5
46C
330
466
100
AcDbEntity
  8
Layer 1
370
     0
100
AcDbVertex
100
AcDb2dVertex
 10
137.3585408185249
 20
364.4142767101117
 30
0.0
  0
VERTEX
  5
46D
330
466
100
AcDbEntity
  8
Layer 1
370
     0
100
AcDbVertex
100
AcDb2dVertex
 10
138.3622693881525
 20
362.6765705473517
 30
0.0
  0
SEQEND
  5
46E
330
466
100
AcDbEntity
  8
Layer 1
370
     0
  0
POLYLINE
  5
46F
330
3C
100
AcDbEntity
  8
Layer 1
370
     0
100
AcDb2dPolyline
 66
     1
 10
0.0
 20
0.0
 30
0.0
  0
VERTEX
  5
470
330
46F
100
AcDbEntity
  8
Layer 1
370
     0
100
AcDbVertex
100
AcDb2dVertex
 10
58.12547877236099
 20
371.9097709573698
 30
0.0
  0
VERTEX
  5
471
330
46F
100
AcDbEntity
  8
Layer 1
370
     0
100
AcDbVertex
100
AcDb2dVertex
 10
57.12192245750771
 20
370.1720647946098
 30
0.0
  0
VERTEX
  5
472
330
46F
100
AcDbEntity
  8
Layer 1
370
     0
100
AcDbVertex
100
AcDb2dVertex
 10
55.11515433734969
 20
370.1720647946098
 30
0.0
  0
VERTEX
  5
473
330
46F
100
AcDbEntity
  8
Layer 1
370
     0
100
AcDbVertex
100
AcDb2dVertex
 10
54.11194253204494
 20
371.9097709573698
 30
0.0
  0
VERTEX
  5
474
330
46F
100
AcDbEntity
  8
Layer 1
370
     0
100
AcDbVertex
100
AcDb2dVertex
 10
55.11515433734969
 20
373.6478216296783
 30
0.0
  0
VERTEX
  5
475
330
46F
100
AcDbEntity
  8
Layer 1
370
     0
100
AcDbVertex
100
AcDb2dVertex
 10
57.12192245750771
 20
373.6478216296783
 30
0.0
  0
VERTEX
  5
476
330
46F
100
AcDbEntity
  8
Layer 1
370
     0
100
AcDbVertex
100
AcDb2dVertex
 10
58.12547877236099
 20
371.9097709573698
 30
0.0
  0
SEQEND
  5
477
330
46F
100
AcDbEntity
  8
Layer 1
370
     0
  0
POLYLINE
  5
478
330
3C
100
AcDbEntity
  8
Layer 1
370
     0
100
AcDb2dPolyline
 66
     1
 10
0.0
 20
0.0
 30
0.0
  0
VERTEX
  5
479
330
478
100
AcDbEntity
  8
Layer 1
370
     0
100
AcDbVertex
100
AcDb2dVertex
 10
58.12547877236099
 20
376.5530706523895
 30
0.0
  0
VERTEX
  5
47A
330
478
100
AcDbEntity
  8
Layer 1
370
     0
100
AcDbVertex
100
AcDb2dVertex
 10
57.12192245750771
 20
374.815019980081
 30
0.0
  0
VERTEX
  5
47B
330
478
100
AcDbEntity
  8
Layer 1
370
     0
100
AcDbVertex
100
AcDb2dVertex
 10
55.11515433734969
 20
374.815019980081
 30
0.0
  0
VERTEX
  5
47C
330
478
100
AcDbEntity
  8
Layer 1
370
     0
100
AcDbVertex
100
AcDb2dVertex
 10
54.11194253204494
 20
376.5530706523895
 30
0.0
  0
VERTEX
  5
47D
330
478
100
AcDbEntity
  8
Layer 1
370
     0
100
AcDbVertex
100
AcDb2dVertex
 10
55.11515433734969
 20
378.290432305601
 30
0.0
  0
VERTEX
  5
47E
330
478
100
AcDbEntity
  8
Layer 1
370
     0
100
AcDbVertex
100
AcDb2dVertex
 10
57.12192245750771
 20
378.290432305601
 30
0.0
  0
VERTEX
  5
47F
330
478
100
AcDbEntity
  8
Layer 1
370
     0
100
AcDbVertex
100
AcDb2dVertex
 10
58.12547877236099
 20
376.5530706523895
 30
0.0
  0
SEQEND
  5
480
330
478
100
AcDbEntity
  8
Layer 1
370
     0
  0
POLYLINE
  5
481
330
3C
100
AcDbEntity
  8
Layer 1
370
     0
100
AcDb2dPolyline
 66
     1
 10
0.0
 20
0.0
 30
0.0
  0
VERTEX
  5
482
330
481
100
AcDbEntity
  8
Layer 1
370
     0
100
AcDbVertex
100
AcDb2dVertex
 10
58.12547877236099
 20
367.1937797476113
 30
0.0
  0
VERTEX
  5
483
330
481
100
AcDbEntity
  8
Layer 1
370
     0
100
AcDbVertex
100
AcDb2dVertex
 10
57.12192245750771
 20
365.4560735848513
 30
0.0
  0
VERTEX
  5
484
330
481
100
AcDbEntity
  8
Layer 1
370
     0
100
AcDbVertex
100
AcDb2dVertex
 10
55.11515433734969
 20
365.4560735848513
 30
0.0
  0
VERTEX
  5
485
330
481
100
AcDbEntity
  8
Layer 1
370
     0
100
AcDbVertex
100
AcDb2dVertex
 10
54.11194253204494
 20
367.1937797476113
 30
0.0
  0
VERTEX
  5
486
330
481
100
AcDbEntity
  8
Layer 1
370
     0
100
AcDbVertex
100
AcDb2dVertex
 10
55.11515433734969
 20
368.9314859103713
 30
0.0
  0
VERTEX
  5
487
330
481
100
AcDbEntity
  8
Layer 1
370
     0
100
AcDbVertex
100
AcDb2dVertex
 10
57.12192245750771
 20
368.9314859103713
 30
0.0
  0
VERTEX
  5
488
330
481
100
AcDbEntity
  8
Layer 1
370
     0
100
AcDbVertex
100
AcDb2dVertex
 10
58.12547877236099
 20
367.1937797476113
 30
0.0
  0
SEQEND
  5
489
330
481
100
AcDbEntity
  8
Layer 1
370
     0
  0
POLYLINE
  5
48A
330
3C
100
AcDbEntity
  8
Layer 1
370
     0
100
AcDb2dPolyline
 66
     1
 10
0.0
 20
0.0
 30
0.0
  0
VERTEX
  5
48B
330
48A
100
AcDbEntity
  8
Layer 1
370
     0
100
AcDbVertex
100
AcDb2dVertex
 10
62.13867050312853
 20
374.2772405748335
 30
0.0
  0
VERTEX
  5
48C
330
48A
100
AcDbEntity
  8
Layer 1
370
     0
100
AcDbVertex
100
AcDb2dVertex
 10
61.13545869782378
 20
372.5388453929764
 30
0.0
  0
VERTEX
  5
48D
330
48A
100
AcDbEntity
  8
Layer 1
370
     0
100
AcDbVertex
100
AcDb2dVertex
 10
59.12869057766574
 20
372.5388453929764
 30
0.0
  0
VERTEX
  5
48E
330
48A
100
AcDbEntity
  8
Layer 1
370
     0
100
AcDbVertex
100
AcDb2dVertex
 10
58.12547877236099
 20
374.2772405748335
 30
0.0
  0
VERTEX
  5
48F
330
48A
100
AcDbEntity
  8
Layer 1
370
     0
100
AcDbVertex
100
AcDb2dVertex
 10
59.12869057766574
 20
376.014602228045
 30
0.0
  0
VERTEX
  5
490
330
48A
100
AcDbEntity
  8
Layer 1
370
     0
100
AcDbVertex
100
AcDb2dVertex
 10
61.13545869782378
 20
376.014602228045
 30
0.0
  0
VERTEX
  5
491
330
48A
100
AcDbEntity
  8
Layer 1
370
     0
100
AcDbVertex
100
AcDb2dVertex
 10
62.13867050312853
 20
374.2772405748335
 30
0.0
  0
SEQEND
  5
492
330
48A
100
AcDbEntity
  8
Layer 1
370
     0
  0
POLYLINE
  5
493
330
3C
100
AcDbEntity
  8
Layer 1
370
     0
100
AcDb2dPolyline
 66
     1
 10
0.0
 20
0.0
 30
0.0
  0
VERTEX
  5
494
330
493
100
AcDbEntity
  8
Layer 1
370
     0
100
AcDbVertex
100
AcDb2dVertex
 10
62.13867050312853
 20
378.9201957603047
 30
0.0
  0
VERTEX
  5
495
330
493
100
AcDbEntity
  8
Layer 1
370
     0
100
AcDbVertex
100
AcDb2dVertex
 10
61.13545869782378
 20
377.1818005784476
 30
0.0
  0
VERTEX
  5
496
330
493
100
AcDbEntity
  8
Layer 1
370
     0
100
AcDbVertex
100
AcDb2dVertex
 10
59.12869057766574
 20
377.1818005784476
 30
0.0
  0
VERTEX
  5
497
330
493
100
AcDbEntity
  8
Layer 1
370
     0
100
AcDbVertex
100
AcDb2dVertex
 10
58.12547877236099
 20
378.9201957603047
 30
0.0
  0
VERTEX
  5
498
330
493
100
AcDbEntity
  8
Layer 1
370
     0
100
AcDbVertex
100
AcDb2dVertex
 10
59.12869057766574
 20
380.6575574135162
 30
0.0
  0
VERTEX
  5
499
330
493
100
AcDbEntity
  8
Layer 1
370
     0
100
AcDbVertex
100
AcDb2dVertex
 10
61.13545869782378
 20
380.6575574135162
 30
0.0
  0
VERTEX
  5
49A
330
493
100
AcDbEntity
  8
Layer 1
370
     0
100
AcDbVertex
100
AcDb2dVertex
 10
62.13867050312853
 20
378.9201957603047
 30
0.0
  0
SEQEND
  5
49B
330
493
100
AcDbEntity
  8
Layer 1
370
     0
  0
POLYLINE
  5
49C
330
3C
100
AcDbEntity
  8
Layer 1
370
     0
100
AcDb2dPolyline
 66
     1
 10
0.0
 20
0.0
 30
0.0
  0
VERTEX
  5
49D
330
49C
100
AcDbEntity
  8
Layer 1
370
     0
100
AcDbVertex
100
AcDb2dVertex
 10
62.13867050312853
 20
369.5609048555265
 30
0.0
  0
VERTEX
  5
49E
330
49C
100
AcDbEntity
  8
Layer 1
370
     0
100
AcDbVertex
100
AcDb2dVertex
 10
61.13545869782378
 20
367.8228541832179
 30
0.0
  0
VERTEX
  5
49F
330
49C
100
AcDbEntity
  8
Layer 1
370
     0
100
AcDbVertex
100
AcDb2dVertex
 10
59.12869057766574
 20
367.8228541832179
 30
0.0
  0
VERTEX
  5
4A0
330
49C
100
AcDbEntity
  8
Layer 1
370
     0
100
AcDbVertex
100
AcDb2dVertex
 10
58.12547877236099
 20
369.5609048555265
 30
0.0
  0
VERTEX
  5
4A1
330
49C
100
AcDbEntity
  8
Layer 1
370
     0
100
AcDbVertex
100
AcDb2dVertex
 10
59.12869057766574
 20
371.2982665087379
 30
0.0
  0
VERTEX
  5
4A2
330
49C
100
AcDbEntity
  8
Layer 1
370
     0
100
AcDbVertex
100
AcDb2dVertex
 10
61.13545869782378
 20
371.2982665087379
 30
0.0
  0
VERTEX
  5
4A3
330
49C
100
AcDbEntity
  8
Layer 1
370
     0
100
AcDbVertex
100
AcDb2dVertex
 10
62.13867050312853
 20
369.5609048555265
 30
0.0
  0
SEQEND
  5
4A4
330
49C
100
AcDbEntity
  8
Layer 1
370
     0
  0
POLYLINE
  5
4A5
330
3C
100
AcDbEntity
  8
Layer 1
370
     0
100
AcDb2dPolyline
 66
     1
 10
0.0
 20
0.0
 30
0.0
  0
VERTEX
  5
4A6
330
4A5
100
AcDbEntity
  8
Layer 1
370
     0
100
AcDbVertex
100
AcDb2dVertex
 10
62.13867050312853
 20
383.5445474301555
 30
0.0
  0
VERTEX
  5
4A7
330
4A5
100
AcDbEntity
  8
Layer 1
370
     0
100
AcDbVertex
100
AcDb2dVertex
 10
61.13545869782378
 20
381.807185776944
 30
0.0
  0
VERTEX
  5
4A8
330
4A5
100
AcDbEntity
  8
Layer 1
370
     0
100
AcDbVertex
100
AcDb2dVertex
 10
59.12869057766574
 20
381.807185776944
 30
0.0
  0
VERTEX
  5
4A9
330
4A5
100
AcDbEntity
  8
Layer 1
370
     0
100
AcDbVertex
100
AcDb2dVertex
 10
58.12547877236099
 20
383.5445474301555
 30
0.0
  0
VERTEX
  5
4AA
330
4A5
100
AcDbEntity
  8
Layer 1
370
     0
100
AcDbVertex
100
AcDb2dVertex
 10
59.12869057766574
 20
385.2822535929155
 30
0.0
  0
VERTEX
  5
4AB
330
4A5
100
AcDbEntity
  8
Layer 1
370
     0
100
AcDbVertex
100
AcDb2dVertex
 10
61.13545869782378
 20
385.2822535929155
 30
0.0
  0
VERTEX
  5
4AC
330
4A5
100
AcDbEntity
  8
Layer 1
370
     0
100
AcDbVertex
100
AcDb2dVertex
 10
62.13867050312853
 20
383.5445474301555
 30
0.0
  0
SEQEND
  5
4AD
330
4A5
100
AcDbEntity
  8
Layer 1
370
     0
  0
POLYLINE
  5
4AE
330
3C
100
AcDbEntity
  8
Layer 1
370
     0
100
AcDb2dPolyline
 66
     1
 10
0.0
 20
0.0
 30
0.0
  0
VERTEX
  5
4AF
330
4AE
100
AcDbEntity
  8
Layer 1
370
     0
100
AcDbVertex
100
AcDb2dVertex
 10
66.1522067434446
 20
372.0010659877289
 30
0.0
  0
VERTEX
  5
4B0
330
4AE
100
AcDbEntity
  8
Layer 1
370
     0
100
AcDbVertex
100
AcDb2dVertex
 10
65.14865042859131
 20
370.2630153154204
 30
0.0
  0
VERTEX
  5
4B1
330
4AE
100
AcDbEntity
  8
Layer 1
370
     0
100
AcDbVertex
100
AcDb2dVertex
 10
63.14188230843328
 20
370.2630153154204
 30
0.0
  0
VERTEX
  5
4B2
330
4AE
100
AcDbEntity
  8
Layer 1
370
     0
100
AcDbVertex
100
AcDb2dVertex
 10
62.13867050312853
 20
372.0010659877289
 30
0.0
  0
VERTEX
  5
4B3
330
4AE
100
AcDbEntity
  8
Layer 1
370
     0
100
AcDbVertex
100
AcDb2dVertex
 10
63.14188230843328
 20
373.738772150489
 30
0.0
  0
VERTEX
  5
4B4
330
4AE
100
AcDbEntity
  8
Layer 1
370
     0
100
AcDbVertex
100
AcDb2dVertex
 10
65.14865042859131
 20
373.738772150489
 30
0.0
  0
VERTEX
  5
4B5
330
4AE
100
AcDbEntity
  8
Layer 1
370
     0
100
AcDbVertex
100
AcDb2dVertex
 10
66.1522067434446
 20
372.0010659877289
 30
0.0
  0
SEQEND
  5
4B6
330
4AE
100
AcDbEntity
  8
Layer 1
370
     0
  0
POLYLINE
  5
4B7
330
3C
100
AcDbEntity
  8
Layer 1
370
     0
100
AcDb2dPolyline
 66
     1
 10
0.0
 20
0.0
 30
0.0
  0
VERTEX
  5
4B8
330
4B7
100
AcDbEntity
  8
Layer 1
370
     0
100
AcDbVertex
100
AcDb2dVertex
 10
66.1522067434446
 20
376.6440211732001
 30
0.0
  0
VERTEX
  5
4B9
330
4B7
100
AcDbEntity
  8
Layer 1
370
     0
100
AcDbVertex
100
AcDb2dVertex
 10
65.14865042859131
 20
374.9066595199886
 30
0.0
  0
VERTEX
  5
4BA
330
4B7
100
AcDbEntity
  8
Layer 1
370
     0
100
AcDbVertex
100
AcDb2dVertex
 10
63.14188230843328
 20
374.9066595199886
 30
0.0
  0
VERTEX
  5
4BB
330
4B7
100
AcDbEntity
  8
Layer 1
370
     0
100
AcDbVertex
100
AcDb2dVertex
 10
62.13867050312853
 20
376.6440211732001
 30
0.0
  0
VERTEX
  5
4BC
330
4B7
100
AcDbEntity
  8
Layer 1
370
     0
100
AcDbVertex
100
AcDb2dVertex
 10
63.14188230843328
 20
378.3813828264116
 30
0.0
  0
VERTEX
  5
4BD
330
4B7
100
AcDbEntity
  8
Layer 1
370
     0
100
AcDbVertex
100
AcDb2dVertex
 10
65.14865042859131
 20
378.3813828264116
 30
0.0
  0
VERTEX
  5
4BE
330
4B7
100
AcDbEntity
  8
Layer 1
370
     0
100
AcDbVertex
100
AcDb2dVertex
 10
66.1522067434446
 20
376.6440211732001
 30
0.0
  0
SEQEND
  5
4BF
330
4B7
100
AcDbEntity
  8
Layer 1
370
     0
  0
POLYLINE
  5
4C0
330
3C
100
AcDbEntity
  8
Layer 1
370
     0
100
AcDb2dPolyline
 66
     1
 10
0.0
 20
0.0
 30
0.0
  0
VERTEX
  5
4C1
330
4C0
100
AcDbEntity
  8
Layer 1
370
     0
100
AcDbVertex
100
AcDb2dVertex
 10
66.1522067434446
 20
367.2850747779704
 30
0.0
  0
VERTEX
  5
4C2
330
4C0
100
AcDbEntity
  8
Layer 1
370
     0
100
AcDbVertex
100
AcDb2dVertex
 10
65.14865042859131
 20
365.5470241056619
 30
0.0
  0
VERTEX
  5
4C3
330
4C0
100
AcDbEntity
  8
Layer 1
370
     0
100
AcDbVertex
100
AcDb2dVertex
 10
63.14188230843328
 20
365.5470241056619
 30
0.0
  0
VERTEX
  5
4C4
330
4C0
100
AcDbEntity
  8
Layer 1
370
     0
100
AcDbVertex
100
AcDb2dVertex
 10
62.13867050312853
 20
367.2850747779704
 30
0.0
  0
VERTEX
  5
4C5
330
4C0
100
AcDbEntity
  8
Layer 1
370
     0
100
AcDbVertex
100
AcDb2dVertex
 10
63.14188230843328
 20
369.0231254502789
 30
0.0
  0
VERTEX
  5
4C6
330
4C0
100
AcDbEntity
  8
Layer 1
370
     0
100
AcDbVertex
100
AcDb2dVertex
 10
65.14865042859131
 20
369.0231254502789
 30
0.0
  0
VERTEX
  5
4C7
330
4C0
100
AcDbEntity
  8
Layer 1
370
     0
100
AcDbVertex
100
AcDb2dVertex
 10
66.1522067434446
 20
367.2850747779704
 30
0.0
  0
SEQEND
  5
4C8
330
4C0
100
AcDbEntity
  8
Layer 1
370
     0
  0
POLYLINE
  5
4C9
330
3C
100
AcDbEntity
  8
Layer 1
370
     0
100
AcDb2dPolyline
 66
     1
 10
0.0
 20
0.0
 30
0.0
  0
VERTEX
  5
4CA
330
4C9
100
AcDbEntity
  8
Layer 1
370
     0
100
AcDbVertex
100
AcDb2dVertex
 10
66.1522067434446
 20
381.269061862148
 30
0.0
  0
VERTEX
  5
4CB
330
4C9
100
AcDbEntity
  8
Layer 1
370
     0
100
AcDbVertex
100
AcDb2dVertex
 10
65.14865042859131
 20
379.5310111898395
 30
0.0
  0
VERTEX
  5
4CC
330
4C9
100
AcDbEntity
  8
Layer 1
370
     0
100
AcDbVertex
100
AcDb2dVertex
 10
63.14188230843328
 20
379.5310111898395
 30
0.0
  0
VERTEX
  5
4CD
330
4C9
100
AcDbEntity
  8
Layer 1
370
     0
100
AcDbVertex
100
AcDb2dVertex
 10
62.13867050312853
 20
381.269061862148
 30
0.0
  0
VERTEX
  5
4CE
330
4C9
100
AcDbEntity
  8
Layer 1
370
     0
100
AcDbVertex
100
AcDb2dVertex
 10
63.14188230843328
 20
383.0064235153595
 30
0.0
  0
VERTEX
  5
4CF
330
4C9
100
AcDbEntity
  8
Layer 1
370
     0
100
AcDbVertex
100
AcDb2dVertex
 10
65.14865042859131
 20
383.0064235153595
 30
0.0
  0
VERTEX
  5
4D0
330
4C9
100
AcDbEntity
  8
Layer 1
370
     0
100
AcDbVertex
100
AcDb2dVertex
 10
66.1522067434446
 20
381.269061862148
 30
0.0
  0
SEQEND
  5
4D1
330
4C9
100
AcDbEntity
  8
Layer 1
370
     0
  0
POLYLINE
  5
4D2
330
3C
100
AcDbEntity
  8
Layer 1
370
     0
100
AcDb2dPolyline
 66
     1
 10
0.0
 20
0.0
 30
0.0
  0
VERTEX
  5
4D3
330
4D2
100
AcDbEntity
  8
Layer 1
370
     0
100
AcDbVertex
100
AcDb2dVertex
 10
70.16539847421213
 20
374.2772405748335
 30
0.0
  0
VERTEX
  5
4D4
330
4D2
100
AcDbEntity
  8
Layer 1
370
     0
100
AcDbVertex
100
AcDb2dVertex
 10
69.16218666890737
 20
372.5388453929764
 30
0.0
  0
VERTEX
  5
4D5
330
4D2
100
AcDbEntity
  8
Layer 1
370
     0
100
AcDbVertex
100
AcDb2dVertex
 10
67.15507403920081
 20
372.5388453929764
 30
0.0
  0
VERTEX
  5
4D6
330
4D2
100
AcDbEntity
  8
Layer 1
370
     0
100
AcDbVertex
100
AcDb2dVertex
 10
66.1522067434446
 20
374.2772405748335
 30
0.0
  0
VERTEX
  5
4D7
330
4D2
100
AcDbEntity
  8
Layer 1
370
     0
100
AcDbVertex
100
AcDb2dVertex
 10
67.15507403920081
 20
376.014602228045
 30
0.0
  0
VERTEX
  5
4D8
330
4D2
100
AcDbEntity
  8
Layer 1
370
     0
100
AcDbVertex
100
AcDb2dVertex
 10
69.16218666890737
 20
376.014602228045
 30
0.0
  0
VERTEX
  5
4D9
330
4D2
100
AcDbEntity
  8
Layer 1
370
     0
100
AcDbVertex
100
AcDb2dVertex
 10
70.16539847421213
 20
374.2772405748335
 30
0.0
  0
SEQEND
  5
4DA
330
4D2
100
AcDbEntity
  8
Layer 1
370
     0
  0
POLYLINE
  5
4DB
330
3C
100
AcDbEntity
  8
Layer 1
370
     0
100
AcDb2dPolyline
 66
     1
 10
0.0
 20
0.0
 30
0.0
  0
VERTEX
  5
4DC
330
4DB
100
AcDbEntity
  8
Layer 1
370
     0
100
AcDbVertex
100
AcDb2dVertex
 10
70.16539847421213
 20
378.9201957603047
 30
0.0
  0
VERTEX
  5
4DD
330
4DB
100
AcDbEntity
  8
Layer 1
370
     0
100
AcDbVertex
100
AcDb2dVertex
 10
69.16218666890737
 20
377.1818005784476
 30
0.0
  0
VERTEX
  5
4DE
330
4DB
100
AcDbEntity
  8
Layer 1
370
     0
100
AcDbVertex
100
AcDb2dVertex
 10
67.15507403920081
 20
377.1818005784476
 30
0.0
  0
VERTEX
  5
4DF
330
4DB
100
AcDbEntity
  8
Layer 1
370
     0
100
AcDbVertex
100
AcDb2dVertex
 10
66.1522067434446
 20
378.9201957603047
 30
0.0
  0
VERTEX
  5
4E0
330
4DB
100
AcDbEntity
  8
Layer 1
370
     0
100
AcDbVertex
100
AcDb2dVertex
 10
67.15507403920081
 20
380.6575574135162
 30
0.0
  0
VERTEX
  5
4E1
330
4DB
100
AcDbEntity
  8
Layer 1
370
     0
100
AcDbVertex
100
AcDb2dVertex
 10
69.16218666890737
 20
380.6575574135162
 30
0.0
  0
VERTEX
  5
4E2
330
4DB
100
AcDbEntity
  8
Layer 1
370
     0
100
AcDbVertex
100
AcDb2dVertex
 10
70.16539847421213
 20
378.9201957603047
 30
0.0
  0
SEQEND
  5
4E3
330
4DB
100
AcDbEntity
  8
Layer 1
370
     0
  0
POLYLINE
  5
4E4
330
3C
100
AcDbEntity
  8
Layer 1
370
     0
100
AcDb2dPolyline
 66
     1
 10
0.0
 20
0.0
 30
0.0
  0
VERTEX
  5
4E5
330
4E4
100
AcDbEntity
  8
Layer 1
370
     0
100
AcDbVertex
100
AcDb2dVertex
 10
70.16539847421213
 20
369.5609048555265
 30
0.0
  0
VERTEX
  5
4E6
330
4E4
100
AcDbEntity
  8
Layer 1
370
     0
100
AcDbVertex
100
AcDb2dVertex
 10
69.16218666890737
 20
367.8228541832179
 30
0.0
  0
VERTEX
  5
4E7
330
4E4
100
AcDbEntity
  8
Layer 1
370
     0
100
AcDbVertex
100
AcDb2dVertex
 10
67.15507403920081
 20
367.8228541832179
 30
0.0
  0
VERTEX
  5
4E8
330
4E4
100
AcDbEntity
  8
Layer 1
370
     0
100
AcDbVertex
100
AcDb2dVertex
 10
66.1522067434446
 20
369.5609048555265
 30
0.0
  0
VERTEX
  5
4E9
330
4E4
100
AcDbEntity
  8
Layer 1
370
     0
100
AcDbVertex
100
AcDb2dVertex
 10
67.15507403920081
 20
371.2982665087379
 30
0.0
  0
VERTEX
  5
4EA
330
4E4
100
AcDbEntity
  8
Layer 1
370
     0
100
AcDbVertex
100
AcDb2dVertex
 10
69.16218666890737
 20
371.2982665087379
 30
0.0
  0
VERTEX
  5
4EB
330
4E4
100
AcDbEntity
  8
Layer 1
370
     0
100
AcDbVertex
100
AcDb2dVertex
 10
70.16539847421213
 20
369.5609048555265
 30
0.0
  0
SEQEND
  5
4EC
330
4E4
100
AcDbEntity
  8
Layer 1
370
     0
  0
POLYLINE
  5
4ED
330
3C
100
AcDbEntity
  8
Layer 1
370
     0
100
AcDb2dPolyline
 66
     1
 10
0.0
 20
0.0
 30
0.0
  0
VERTEX
  5
4EE
330
4ED
100
AcDbEntity
  8
Layer 1
370
     0
100
AcDbVertex
100
AcDb2dVertex
 10
70.16539847421213
 20
383.5445474301555
 30
0.0
  0
VERTEX
  5
4EF
330
4ED
100
AcDbEntity
  8
Layer 1
370
     0
100
AcDbVertex
100
AcDb2dVertex
 10
69.16218666890737
 20
381.807185776944
 30
0.0
  0
VERTEX
  5
4F0
330
4ED
100
AcDbEntity
  8
Layer 1
370
     0
100
AcDbVertex
100
AcDb2dVertex
 10
67.15507403920081
 20
381.807185776944
 30
0.0
  0
VERTEX
  5
4F1
330
4ED
100
AcDbEntity
  8
Layer 1
370
     0
100
AcDbVertex
100
AcDb2dVertex
 10
66.1522067434446
 20
383.5445474301555
 30
0.0
  0
VERTEX
  5
4F2
330
4ED
100
AcDbEntity
  8
Layer 1
370
     0
100
AcDbVertex
100
AcDb2dVertex
 10
67.15507403920081
 20
385.2822535929155
 30
0.0
  0
VERTEX
  5
4F3
330
4ED
100
AcDbEntity
  8
Layer 1
370
     0
100
AcDbVertex
100
AcDb2dVertex
 10
69.16218666890737
 20
385.2822535929155
 30
0.0
  0
VERTEX
  5
4F4
330
4ED
100
AcDbEntity
  8
Layer 1
370
     0
100
AcDbVertex
100
AcDb2dVertex
 10
70.16539847421213
 20
383.5445474301555
 30
0.0
  0
SEQEND
  5
4F5
330
4ED
100
AcDbEntity
  8
Layer 1
370
     0
  0
POLYLINE
  5
4F6
330
3C
100
AcDbEntity
  8
Layer 1
370
     0
100
AcDb2dPolyline
 66
     1
 10
0.0
 20
0.0
 30
0.0
  0
VERTEX
  5
4F7
330
4F6
100
AcDbEntity
  8
Layer 1
370
     0
100
AcDbVertex
100
AcDb2dVertex
 10
74.17893471452818
 20
372.0010659877289
 30
0.0
  0
VERTEX
  5
4F8
330
4F6
100
AcDbEntity
  8
Layer 1
370
     0
100
AcDbVertex
100
AcDb2dVertex
 10
73.17503389012639
 20
370.2630153154204
 30
0.0
  0
VERTEX
  5
4F9
330
4F6
100
AcDbEntity
  8
Layer 1
370
     0
100
AcDbVertex
100
AcDb2dVertex
 10
71.16895478906541
 20
370.2630153154204
 30
0.0
  0
VERTEX
  5
4FA
330
4F6
100
AcDbEntity
  8
Layer 1
370
     0
100
AcDbVertex
100
AcDb2dVertex
 10
70.16539847421213
 20
372.0010659877289
 30
0.0
  0
VERTEX
  5
4FB
330
4F6
100
AcDbEntity
  8
Layer 1
370
     0
100
AcDbVertex
100
AcDb2dVertex
 10
71.16895478906541
 20
373.738772150489
 30
0.0
  0
VERTEX
  5
4FC
330
4F6
100
AcDbEntity
  8
Layer 1
370
     0
100
AcDbVertex
100
AcDb2dVertex
 10
73.17503389012639
 20
373.738772150489
 30
0.0
  0
VERTEX
  5
4FD
330
4F6
100
AcDbEntity
  8
Layer 1
370
     0
100
AcDbVertex
100
AcDb2dVertex
 10
74.17893471452818
 20
372.0010659877289
 30
0.0
  0
SEQEND
  5
4FE
330
4F6
100
AcDbEntity
  8
Layer 1
370
     0
  0
POLYLINE
  5
4FF
330
3C
100
AcDbEntity
  8
Layer 1
370
     0
100
AcDb2dPolyline
 66
     1
 10
0.0
 20
0.0
 30
0.0
  0
VERTEX
  5
500
330
4FF
100
AcDbEntity
  8
Layer 1
370
     0
100
AcDbVertex
100
AcDb2dVertex
 10
74.17893471452818
 20
376.6440211732001
 30
0.0
  0
VERTEX
  5
501
330
4FF
100
AcDbEntity
  8
Layer 1
370
     0
100
AcDbVertex
100
AcDb2dVertex
 10
73.17503389012639
 20
374.9066595199886
 30
0.0
  0
VERTEX
  5
502
330
4FF
100
AcDbEntity
  8
Layer 1
370
     0
100
AcDbVertex
100
AcDb2dVertex
 10
71.16895478906541
 20
374.9066595199886
 30
0.0
  0
VERTEX
  5
503
330
4FF
100
AcDbEntity
  8
Layer 1
370
     0
100
AcDbVertex
100
AcDb2dVertex
 10
70.16539847421213
 20
376.6440211732001
 30
0.0
  0
VERTEX
  5
504
330
4FF
100
AcDbEntity
  8
Layer 1
370
     0
100
AcDbVertex
100
AcDb2dVertex
 10
71.16895478906541
 20
378.3813828264116
 30
0.0
  0
VERTEX
  5
505
330
4FF
100
AcDbEntity
  8
Layer 1
370
     0
100
AcDbVertex
100
AcDb2dVertex
 10
73.17503389012639
 20
378.3813828264116
 30
0.0
  0
VERTEX
  5
506
330
4FF
100
AcDbEntity
  8
Layer 1
370
     0
100
AcDbVertex
100
AcDb2dVertex
 10
74.17893471452818
 20
376.6440211732001
 30
0.0
  0
SEQEND
  5
507
330
4FF
100
AcDbEntity
  8
Layer 1
370
     0
  0
POLYLINE
  5
508
330
3C
100
AcDbEntity
  8
Layer 1
370
     0
100
AcDb2dPolyline
 66
     1
 10
0.0
 20
0.0
 30
0.0
  0
VERTEX
  5
509
330
508
100
AcDbEntity
  8
Layer 1
370
     0
100
AcDbVertex
100
AcDb2dVertex
 10
74.17893471452818
 20
367.2850747779704
 30
0.0
  0
VERTEX
  5
50A
330
508
100
AcDbEntity
  8
Layer 1
370
     0
100
AcDbVertex
100
AcDb2dVertex
 10
73.17503389012639
 20
365.5470241056619
 30
0.0
  0
VERTEX
  5
50B
330
508
100
AcDbEntity
  8
Layer 1
370
     0
100
AcDbVertex
100
AcDb2dVertex
 10
71.16895478906541
 20
365.5470241056619
 30
0.0
  0
VERTEX
  5
50C
330
508
100
AcDbEntity
  8
Layer 1
370
     0
100
AcDbVertex
100
AcDb2dVertex
 10
70.16539847421213
 20
367.2850747779704
 30
0.0
  0
VERTEX
  5
50D
330
508
100
AcDbEntity
  8
Layer 1
370
     0
100
AcDbVertex
100
AcDb2dVertex
 10
71.16895478906541
 20
369.0231254502789
 30
0.0
  0
VERTEX
  5
50E
330
508
100
AcDbEntity
  8
Layer 1
370
     0
100
AcDbVertex
100
AcDb2dVertex
 10
73.17503389012639
 20
369.0231254502789
 30
0.0
  0
VERTEX
  5
50F
330
508
100
AcDbEntity
  8
Layer 1
370
     0
100
AcDbVertex
100
AcDb2dVertex
 10
74.17893471452818
 20
367.2850747779704
 30
0.0
  0
SEQEND
  5
510
330
508
100
AcDbEntity
  8
Layer 1
370
     0
  0
POLYLINE
  5
511
330
3C
100
AcDbEntity
  8
Layer 1
370
     0
100
AcDb2dPolyline
 66
     1
 10
0.0
 20
0.0
 30
0.0
  0
VERTEX
  5
512
330
511
100
AcDbEntity
  8
Layer 1
370
     0
100
AcDbVertex
100
AcDb2dVertex
 10
74.17893471452818
 20
381.269061862148
 30
0.0
  0
VERTEX
  5
513
330
511
100
AcDbEntity
  8
Layer 1
370
     0
100
AcDbVertex
100
AcDb2dVertex
 10
73.17503389012639
 20
379.5310111898395
 30
0.0
  0
VERTEX
  5
514
330
511
100
AcDbEntity
  8
Layer 1
370
     0
100
AcDbVertex
100
AcDb2dVertex
 10
71.16895478906541
 20
379.5310111898395
 30
0.0
  0
VERTEX
  5
515
330
511
100
AcDbEntity
  8
Layer 1
370
     0
100
AcDbVertex
100
AcDb2dVertex
 10
70.16539847421213
 20
381.269061862148
 30
0.0
  0
VERTEX
  5
516
330
511
100
AcDbEntity
  8
Layer 1
370
     0
100
AcDbVertex
100
AcDb2dVertex
 10
71.16895478906541
 20
383.0064235153595
 30
0.0
  0
VERTEX
  5
517
330
511
100
AcDbEntity
  8
Layer 1
370
     0
100
AcDbVertex
100
AcDb2dVertex
 10
73.17503389012639
 20
383.0064235153595
 30
0.0
  0
VERTEX
  5
518
330
511
100
AcDbEntity
  8
Layer 1
370
     0
100
AcDbVertex
100
AcDb2dVertex
 10
74.17893471452818
 20
381.269061862148
 30
0.0
  0
SEQEND
  5
519
330
511
100
AcDbEntity
  8
Layer 1
370
     0
  0
POLYLINE
  5
51A
330
3C
100
AcDbEntity
  8
Layer 1
370
     0
100
AcDb2dPolyline
 66
     1
 10
0.0
 20
0.0
 30
0.0
  0
VERTEX
  5
51B
330
51A
100
AcDbEntity
  8
Layer 1
370
     0
100
AcDbVertex
100
AcDb2dVertex
 10
78.19247095484425
 20
374.2772405748335
 30
0.0
  0
VERTEX
  5
51C
330
51A
100
AcDbEntity
  8
Layer 1
370
     0
100
AcDbVertex
100
AcDb2dVertex
 10
77.18857013044244
 20
372.5388453929764
 30
0.0
  0
VERTEX
  5
51D
330
51A
100
AcDbEntity
  8
Layer 1
370
     0
100
AcDbVertex
100
AcDb2dVertex
 10
75.18249102938147
 20
372.5388453929764
 30
0.0
  0
VERTEX
  5
51E
330
51A
100
AcDbEntity
  8
Layer 1
370
     0
100
AcDbVertex
100
AcDb2dVertex
 10
74.17893471452818
 20
374.2772405748335
 30
0.0
  0
VERTEX
  5
51F
330
51A
100
AcDbEntity
  8
Layer 1
370
     0
100
AcDbVertex
100
AcDb2dVertex
 10
75.18249102938147
 20
376.014602228045
 30
0.0
  0
VERTEX
  5
520
330
51A
100
AcDbEntity
  8
Layer 1
370
     0
100
AcDbVertex
100
AcDb2dVertex
 10
77.18857013044244
 20
376.014602228045
 30
0.0
  0
VERTEX
  5
521
330
51A
100
AcDbEntity
  8
Layer 1
370
     0
100
AcDbVertex
100
AcDb2dVertex
 10
78.19247095484425
 20
374.2772405748335
 30
0.0
  0
SEQEND
  5
522
330
51A
100
AcDbEntity
  8
Layer 1
370
     0
  0
POLYLINE
  5
523
330
3C
100
AcDbEntity
  8
Layer 1
370
     0
100
AcDb2dPolyline
 66
     1
 10
0.0
 20
0.0
 30
0.0
  0
VERTEX
  5
524
330
523
100
AcDbEntity
  8
Layer 1
370
     0
100
AcDbVertex
100
AcDb2dVertex
 10
78.19247095484425
 20
378.9201957603047
 30
0.0
  0
VERTEX
  5
525
330
523
100
AcDbEntity
  8
Layer 1
370
     0
100
AcDbVertex
100
AcDb2dVertex
 10
77.18857013044244
 20
377.1818005784476
 30
0.0
  0
VERTEX
  5
526
330
523
100
AcDbEntity
  8
Layer 1
370
     0
100
AcDbVertex
100
AcDb2dVertex
 10
75.18249102938147
 20
377.1818005784476
 30
0.0
  0
VERTEX
  5
527
330
523
100
AcDbEntity
  8
Layer 1
370
     0
100
AcDbVertex
100
AcDb2dVertex
 10
74.17893471452818
 20
378.9201957603047
 30
0.0
  0
VERTEX
  5
528
330
523
100
AcDbEntity
  8
Layer 1
370
     0
100
AcDbVertex
100
AcDb2dVertex
 10
75.18249102938147
 20
380.6575574135162
 30
0.0
  0
VERTEX
  5
529
330
523
100
AcDbEntity
  8
Layer 1
370
     0
100
AcDbVertex
100
AcDb2dVertex
 10
77.18857013044244
 20
380.6575574135162
 30
0.0
  0
VERTEX
  5
52A
330
523
100
AcDbEntity
  8
Layer 1
370
     0
100
AcDbVertex
100
AcDb2dVertex
 10
78.19247095484425
 20
378.9201957603047
 30
0.0
  0
SEQEND
  5
52B
330
523
100
AcDbEntity
  8
Layer 1
370
     0
  0
POLYLINE
  5
52C
330
3C
100
AcDbEntity
  8
Layer 1
370
     0
100
AcDb2dPolyline
 66
     1
 10
0.0
 20
0.0
 30
0.0
  0
VERTEX
  5
52D
330
52C
100
AcDbEntity
  8
Layer 1
370
     0
100
AcDbVertex
100
AcDb2dVertex
 10
78.19247095484425
 20
369.5609048555265
 30
0.0
  0
VERTEX
  5
52E
330
52C
100
AcDbEntity
  8
Layer 1
370
     0
100
AcDbVertex
100
AcDb2dVertex
 10
77.18857013044244
 20
367.8228541832179
 30
0.0
  0
VERTEX
  5
52F
330
52C
100
AcDbEntity
  8
Layer 1
370
     0
100
AcDbVertex
100
AcDb2dVertex
 10
75.18249102938147
 20
367.8228541832179
 30
0.0
  0
VERTEX
  5
530
330
52C
100
AcDbEntity
  8
Layer 1
370
     0
100
AcDbVertex
100
AcDb2dVertex
 10
74.17893471452818
 20
369.5609048555265
 30
0.0
  0
VERTEX
  5
531
330
52C
100
AcDbEntity
  8
Layer 1
370
     0
100
AcDbVertex
100
AcDb2dVertex
 10
75.18249102938147
 20
371.2982665087379
 30
0.0
  0
VERTEX
  5
532
330
52C
100
AcDbEntity
  8
Layer 1
370
     0
100
AcDbVertex
100
AcDb2dVertex
 10
77.18857013044244
 20
371.2982665087379
 30
0.0
  0
VERTEX
  5
533
330
52C
100
AcDbEntity
  8
Layer 1
370
     0
100
AcDbVertex
100
AcDb2dVertex
 10
78.19247095484425
 20
369.5609048555265
 30
0.0
  0
SEQEND
  5
534
330
52C
100
AcDbEntity
  8
Layer 1
370
     0
  0
POLYLINE
  5
535
330
3C
100
AcDbEntity
  8
Layer 1
370
     0
100
AcDb2dPolyline
 66
     1
 10
0.0
 20
0.0
 30
0.0
  0
VERTEX
  5
536
330
535
100
AcDbEntity
  8
Layer 1
370
     0
100
AcDbVertex
100
AcDb2dVertex
 10
78.19247095484425
 20
383.5445474301555
 30
0.0
  0
VERTEX
  5
537
330
535
100
AcDbEntity
  8
Layer 1
370
     0
100
AcDbVertex
100
AcDb2dVertex
 10
77.18857013044244
 20
381.807185776944
 30
0.0
  0
VERTEX
  5
538
330
535
100
AcDbEntity
  8
Layer 1
370
     0
100
AcDbVertex
100
AcDb2dVertex
 10
75.18249102938147
 20
381.807185776944
 30
0.0
  0
VERTEX
  5
539
330
535
100
AcDbEntity
  8
Layer 1
370
     0
100
AcDbVertex
100
AcDb2dVertex
 10
74.17893471452818
 20
383.5445474301555
 30
0.0
  0
VERTEX
  5
53A
330
535
100
AcDbEntity
  8
Layer 1
370
     0
100
AcDbVertex
100
AcDb2dVertex
 10
75.18249102938147
 20
385.2822535929155
 30
0.0
  0
VERTEX
  5
53B
330
535
100
AcDbEntity
  8
Layer 1
370
     0
100
AcDbVertex
100
AcDb2dVertex
 10
77.18857013044244
 20
385.2822535929155
 30
0.0
  0
VERTEX
  5
53C
330
535
100
AcDbEntity
  8
Layer 1
370
     0
100
AcDbVertex
100
AcDb2dVertex
 10
78.19247095484425
 20
383.5445474301555
 30
0.0
  0
SEQEND
  5
53D
330
535
100
AcDbEntity
  8
Layer 1
370
     0
  0
POLYLINE
  5
53E
330
3C
100
AcDbEntity
  8
Layer 1
370
     0
100
AcDb2dPolyline
 66
     1
 10
0.0
 20
0.0
 30
0.0
  0
VERTEX
  5
53F
330
53E
100
AcDbEntity
  8
Layer 1
370
     0
100
AcDbVertex
100
AcDb2dVertex
 10
82.15123017694484
 20
372.0010659877289
 30
0.0
  0
VERTEX
  5
540
330
53E
100
AcDbEntity
  8
Layer 1
370
     0
100
AcDbVertex
100
AcDb2dVertex
 10
81.1483628811886
 20
370.2630153154204
 30
0.0
  0
VERTEX
  5
541
330
53E
100
AcDbEntity
  8
Layer 1
370
     0
100
AcDbVertex
100
AcDb2dVertex
 10
79.14125025148205
 20
370.2630153154204
 30
0.0
  0
VERTEX
  5
542
330
53E
100
AcDbEntity
  8
Layer 1
370
     0
100
AcDbVertex
100
AcDb2dVertex
 10
78.13769393662878
 20
372.0010659877289
 30
0.0
  0
VERTEX
  5
543
330
53E
100
AcDbEntity
  8
Layer 1
370
     0
100
AcDbVertex
100
AcDb2dVertex
 10
79.14125025148205
 20
373.738772150489
 30
0.0
  0
VERTEX
  5
544
330
53E
100
AcDbEntity
  8
Layer 1
370
     0
100
AcDbVertex
100
AcDb2dVertex
 10
81.1483628811886
 20
373.738772150489
 30
0.0
  0
VERTEX
  5
545
330
53E
100
AcDbEntity
  8
Layer 1
370
     0
100
AcDbVertex
100
AcDb2dVertex
 10
82.15123017694484
 20
372.0010659877289
 30
0.0
  0
SEQEND
  5
546
330
53E
100
AcDbEntity
  8
Layer 1
370
     0
  0
POLYLINE
  5
547
330
3C
100
AcDbEntity
  8
Layer 1
370
     0
100
AcDb2dPolyline
 66
     1
 10
0.0
 20
0.0
 30
0.0
  0
VERTEX
  5
548
330
547
100
AcDbEntity
  8
Layer 1
370
     0
100
AcDbVertex
100
AcDb2dVertex
 10
82.15123017694484
 20
376.6440211732001
 30
0.0
  0
VERTEX
  5
549
330
547
100
AcDbEntity
  8
Layer 1
370
     0
100
AcDbVertex
100
AcDb2dVertex
 10
81.1483628811886
 20
374.9066595199886
 30
0.0
  0
VERTEX
  5
54A
330
547
100
AcDbEntity
  8
Layer 1
370
     0
100
AcDbVertex
100
AcDb2dVertex
 10
79.14125025148205
 20
374.9066595199886
 30
0.0
  0
VERTEX
  5
54B
330
547
100
AcDbEntity
  8
Layer 1
370
     0
100
AcDbVertex
100
AcDb2dVertex
 10
78.13769393662878
 20
376.6440211732001
 30
0.0
  0
VERTEX
  5
54C
330
547
100
AcDbEntity
  8
Layer 1
370
     0
100
AcDbVertex
100
AcDb2dVertex
 10
79.14125025148205
 20
378.3813828264116
 30
0.0
  0
VERTEX
  5
54D
330
547
100
AcDbEntity
  8
Layer 1
370
     0
100
AcDbVertex
100
AcDb2dVertex
 10
81.1483628811886
 20
378.3813828264116
 30
0.0
  0
VERTEX
  5
54E
330
547
100
AcDbEntity
  8
Layer 1
370
     0
100
AcDbVertex
100
AcDb2dVertex
 10
82.15123017694484
 20
376.6440211732001
 30
0.0
  0
SEQEND
  5
54F
330
547
100
AcDbEntity
  8
Layer 1
370
     0
  0
POLYLINE
  5
550
330
3C
100
AcDbEntity
  8
Layer 1
370
     0
100
AcDb2dPolyline
 66
     1
 10
0.0
 20
0.0
 30
0.0
  0
VERTEX
  5
551
330
550
100
AcDbEntity
  8
Layer 1
370
     0
100
AcDbVertex
100
AcDb2dVertex
 10
82.15123017694484
 20
367.2850747779704
 30
0.0
  0
VERTEX
  5
552
330
550
100
AcDbEntity
  8
Layer 1
370
     0
100
AcDbVertex
100
AcDb2dVertex
 10
81.1483628811886
 20
365.5470241056619
 30
0.0
  0
VERTEX
  5
553
330
550
100
AcDbEntity
  8
Layer 1
370
     0
100
AcDbVertex
100
AcDb2dVertex
 10
79.14125025148205
 20
365.5470241056619
 30
0.0
  0
VERTEX
  5
554
330
550
100
AcDbEntity
  8
Layer 1
370
     0
100
AcDbVertex
100
AcDb2dVertex
 10
78.13769393662878
 20
367.2850747779704
 30
0.0
  0
VERTEX
  5
555
330
550
100
AcDbEntity
  8
Layer 1
370
     0
100
AcDbVertex
100
AcDb2dVertex
 10
79.14125025148205
 20
369.0231254502789
 30
0.0
  0
VERTEX
  5
556
330
550
100
AcDbEntity
  8
Layer 1
370
     0
100
AcDbVertex
100
AcDb2dVertex
 10
81.1483628811886
 20
369.0231254502789
 30
0.0
  0
VERTEX
  5
557
330
550
100
AcDbEntity
  8
Layer 1
370
     0
100
AcDbVertex
100
AcDb2dVertex
 10
82.15123017694484
 20
367.2850747779704
 30
0.0
  0
SEQEND
  5
558
330
550
100
AcDbEntity
  8
Layer 1
370
     0
  0
POLYLINE
  5
559
330
3C
100
AcDbEntity
  8
Layer 1
370
     0
100
AcDb2dPolyline
 66
     1
 10
0.0
 20
0.0
 30
0.0
  0
VERTEX
  5
55A
330
559
100
AcDbEntity
  8
Layer 1
370
     0
100
AcDbVertex
100
AcDb2dVertex
 10
82.15123017694484
 20
381.269061862148
 30
0.0
  0
VERTEX
  5
55B
330
559
100
AcDbEntity
  8
Layer 1
370
     0
100
AcDbVertex
100
AcDb2dVertex
 10
81.1483628811886
 20
379.5310111898395
 30
0.0
  0
VERTEX
  5
55C
330
559
100
AcDbEntity
  8
Layer 1
370
     0
100
AcDbVertex
100
AcDb2dVertex
 10
79.14125025148205
 20
379.5310111898395
 30
0.0
  0
VERTEX
  5
55D
330
559
100
AcDbEntity
  8
Layer 1
370
     0
100
AcDbVertex
100
AcDb2dVertex
 10
78.13769393662878
 20
381.269061862148
 30
0.0
  0
VERTEX
  5
55E
330
559
100
AcDbEntity
  8
Layer 1
370
     0
100
AcDbVertex
100
AcDb2dVertex
 10
79.14125025148205
 20
383.0064235153595
 30
0.0
  0
VERTEX
  5
55F
330
559
100
AcDbEntity
  8
Layer 1
370
     0
100
AcDbVertex
100
AcDb2dVertex
 10
81.1483628811886
 20
383.0064235153595
 30
0.0
  0
VERTEX
  5
560
330
559
100
AcDbEntity
  8
Layer 1
370
     0
100
AcDbVertex
100
AcDb2dVertex
 10
82.15123017694484
 20
381.269061862148
 30
0.0
  0
SEQEND
  5
561
330
559
100
AcDbEntity
  8
Layer 1
370
     0
  0
POLYLINE
  5
562
330
3C
100
AcDbEntity
  8
Layer 1
370
     0
100
AcDb2dPolyline
 66
     1
 10
0.0
 20
0.0
 30
0.0
  0
VERTEX
  5
563
330
562
100
AcDbEntity
  8
Layer 1
370
     0
100
AcDbVertex
100
AcDb2dVertex
 10
62.165886757462
 20
360.2746499750355
 30
0.0
  0
VERTEX
  5
564
330
562
100
AcDbEntity
  8
Layer 1
370
     0
100
AcDbVertex
100
AcDb2dVertex
 10
61.16233044260873
 20
358.536599302727
 30
0.0
  0
VERTEX
  5
565
330
562
100
AcDbEntity
  8
Layer 1
370
     0
100
AcDbVertex
100
AcDb2dVertex
 10
59.1555623224507
 20
358.536599302727
 30
0.0
  0
VERTEX
  5
566
330
562
100
AcDbEntity
  8
Layer 1
370
     0
100
AcDbVertex
100
AcDb2dVertex
 10
58.15235051714594
 20
360.2746499750355
 30
0.0
  0
VERTEX
  5
567
330
562
100
AcDbEntity
  8
Layer 1
370
     0
100
AcDbVertex
100
AcDb2dVertex
 10
59.1555623224507
 20
362.0123561377956
 30
0.0
  0
VERTEX
  5
568
330
562
100
AcDbEntity
  8
Layer 1
370
     0
100
AcDbVertex
100
AcDb2dVertex
 10
61.16233044260873
 20
362.0123561377956
 30
0.0
  0
VERTEX
  5
569
330
562
100
AcDbEntity
  8
Layer 1
370
     0
100
AcDbVertex
100
AcDb2dVertex
 10
62.165886757462
 20
360.2746499750355
 30
0.0
  0
SEQEND
  5
56A
330
562
100
AcDbEntity
  8
Layer 1
370
     0
  0
POLYLINE
  5
56B
330
3C
100
AcDbEntity
  8
Layer 1
370
     0
100
AcDb2dPolyline
 66
     1
 10
0.0
 20
0.0
 30
0.0
  0
VERTEX
  5
56C
330
56B
100
AcDbEntity
  8
Layer 1
370
     0
100
AcDbVertex
100
AcDb2dVertex
 10
62.165886757462
 20
364.8993461544349
 30
0.0
  0
VERTEX
  5
56D
330
56B
100
AcDbEntity
  8
Layer 1
370
     0
100
AcDbVertex
100
AcDb2dVertex
 10
61.16233044260873
 20
363.1619845012234
 30
0.0
  0
VERTEX
  5
56E
330
56B
100
AcDbEntity
  8
Layer 1
370
     0
100
AcDbVertex
100
AcDb2dVertex
 10
59.1555623224507
 20
363.1619845012234
 30
0.0
  0
VERTEX
  5
56F
330
56B
100
AcDbEntity
  8
Layer 1
370
     0
100
AcDbVertex
100
AcDb2dVertex
 10
58.15235051714594
 20
364.8993461544349
 30
0.0
  0
VERTEX
  5
570
330
56B
100
AcDbEntity
  8
Layer 1
370
     0
100
AcDbVertex
100
AcDb2dVertex
 10
59.1555623224507
 20
366.6373968267434
 30
0.0
  0
VERTEX
  5
571
330
56B
100
AcDbEntity
  8
Layer 1
370
     0
100
AcDbVertex
100
AcDb2dVertex
 10
61.16233044260873
 20
366.6373968267434
 30
0.0
  0
VERTEX
  5
572
330
56B
100
AcDbEntity
  8
Layer 1
370
     0
100
AcDbVertex
100
AcDb2dVertex
 10
62.165886757462
 20
364.8993461544349
 30
0.0
  0
SEQEND
  5
573
330
56B
100
AcDbEntity
  8
Layer 1
370
     0
  0
POLYLINE
  5
574
330
3C
100
AcDbEntity
  8
Layer 1
370
     0
100
AcDb2dPolyline
 66
     1
 10
0.0
 20
0.0
 30
0.0
  0
VERTEX
  5
575
330
574
100
AcDbEntity
  8
Layer 1
370
     0
100
AcDbVertex
100
AcDb2dVertex
 10
66.17942299777806
 20
353.3558647120083
 30
0.0
  0
VERTEX
  5
576
330
574
100
AcDbEntity
  8
Layer 1
370
     0
100
AcDbVertex
100
AcDb2dVertex
 10
65.17586668292479
 20
351.6178140396997
 30
0.0
  0
VERTEX
  5
577
330
574
100
AcDbEntity
  8
Layer 1
370
     0
100
AcDbVertex
100
AcDb2dVertex
 10
63.16909856276676
 20
351.6178140396997
 30
0.0
  0
VERTEX
  5
578
330
574
100
AcDbEntity
  8
Layer 1
370
     0
100
AcDbVertex
100
AcDb2dVertex
 10
62.165886757462
 20
353.3558647120083
 30
0.0
  0
VERTEX
  5
579
330
574
100
AcDbEntity
  8
Layer 1
370
     0
100
AcDbVertex
100
AcDb2dVertex
 10
63.16909856276676
 20
355.0935708747683
 30
0.0
  0
VERTEX
  5
57A
330
574
100
AcDbEntity
  8
Layer 1
370
     0
100
AcDbVertex
100
AcDb2dVertex
 10
65.17586668292479
 20
355.0935708747683
 30
0.0
  0
VERTEX
  5
57B
330
574
100
AcDbEntity
  8
Layer 1
370
     0
100
AcDbVertex
100
AcDb2dVertex
 10
66.17942299777806
 20
353.3558647120083
 30
0.0
  0
SEQEND
  5
57C
330
574
100
AcDbEntity
  8
Layer 1
370
     0
  0
POLYLINE
  5
57D
330
3C
100
AcDbEntity
  8
Layer 1
370
     0
100
AcDb2dPolyline
 66
     1
 10
0.0
 20
0.0
 30
0.0
  0
VERTEX
  5
57E
330
57D
100
AcDbEntity
  8
Layer 1
370
     0
100
AcDbVertex
100
AcDb2dVertex
 10
66.17942299777806
 20
357.999164407028
 30
0.0
  0
VERTEX
  5
57F
330
57D
100
AcDbEntity
  8
Layer 1
370
     0
100
AcDbVertex
100
AcDb2dVertex
 10
65.17586668292479
 20
356.2607692251709
 30
0.0
  0
VERTEX
  5
580
330
57D
100
AcDbEntity
  8
Layer 1
370
     0
100
AcDbVertex
100
AcDb2dVertex
 10
63.16909856276676
 20
356.2607692251709
 30
0.0
  0
VERTEX
  5
581
330
57D
100
AcDbEntity
  8
Layer 1
370
     0
100
AcDbVertex
100
AcDb2dVertex
 10
62.165886757462
 20
357.999164407028
 30
0.0
  0
VERTEX
  5
582
330
57D
100
AcDbEntity
  8
Layer 1
370
     0
100
AcDbVertex
100
AcDb2dVertex
 10
63.16909856276676
 20
359.7365260602395
 30
0.0
  0
VERTEX
  5
583
330
57D
100
AcDbEntity
  8
Layer 1
370
     0
100
AcDbVertex
100
AcDb2dVertex
 10
65.17586668292479
 20
359.7365260602395
 30
0.0
  0
VERTEX
  5
584
330
57D
100
AcDbEntity
  8
Layer 1
370
     0
100
AcDbVertex
100
AcDb2dVertex
 10
66.17942299777806
 20
357.999164407028
 30
0.0
  0
SEQEND
  5
585
330
57D
100
AcDbEntity
  8
Layer 1
370
     0
  0
POLYLINE
  5
586
330
3C
100
AcDbEntity
  8
Layer 1
370
     0
100
AcDb2dPolyline
 66
     1
 10
0.0
 20
0.0
 30
0.0
  0
VERTEX
  5
587
330
586
100
AcDbEntity
  8
Layer 1
370
     0
100
AcDbVertex
100
AcDb2dVertex
 10
66.17942299777806
 20
362.6238605864274
 30
0.0
  0
VERTEX
  5
588
330
586
100
AcDbEntity
  8
Layer 1
370
     0
100
AcDbVertex
100
AcDb2dVertex
 10
65.17586668292479
 20
360.8861544236674
 30
0.0
  0
VERTEX
  5
589
330
586
100
AcDbEntity
  8
Layer 1
370
     0
100
AcDbVertex
100
AcDb2dVertex
 10
63.16909856276676
 20
360.8861544236674
 30
0.0
  0
VERTEX
  5
58A
330
586
100
AcDbEntity
  8
Layer 1
370
     0
100
AcDbVertex
100
AcDb2dVertex
 10
62.165886757462
 20
362.6238605864274
 30
0.0
  0
VERTEX
  5
58B
330
586
100
AcDbEntity
  8
Layer 1
370
     0
100
AcDbVertex
100
AcDb2dVertex
 10
63.16909856276676
 20
364.3612222396389
 30
0.0
  0
VERTEX
  5
58C
330
586
100
AcDbEntity
  8
Layer 1
370
     0
100
AcDbVertex
100
AcDb2dVertex
 10
65.17586668292479
 20
364.3612222396389
 30
0.0
  0
VERTEX
  5
58D
330
586
100
AcDbEntity
  8
Layer 1
370
     0
100
AcDbVertex
100
AcDb2dVertex
 10
66.17942299777806
 20
362.6238605864274
 30
0.0
  0
SEQEND
  5
58E
330
586
100
AcDbEntity
  8
Layer 1
370
     0
  0
POLYLINE
  5
58F
330
3C
100
AcDbEntity
  8
Layer 1
370
     0
100
AcDb2dPolyline
 66
     1
 10
0.0
 20
0.0
 30
0.0
  0
VERTEX
  5
590
330
58F
100
AcDbEntity
  8
Layer 1
370
     0
100
AcDbVertex
100
AcDb2dVertex
 10
70.19261472854559
 20
355.6316947895643
 30
0.0
  0
VERTEX
  5
591
330
58F
100
AcDbEntity
  8
Layer 1
370
     0
100
AcDbVertex
100
AcDb2dVertex
 10
69.18974743278937
 20
353.8936441172557
 30
0.0
  0
VERTEX
  5
592
330
58F
100
AcDbEntity
  8
Layer 1
370
     0
100
AcDbVertex
100
AcDb2dVertex
 10
67.18263480308282
 20
353.8936441172557
 30
0.0
  0
VERTEX
  5
593
330
58F
100
AcDbEntity
  8
Layer 1
370
     0
100
AcDbVertex
100
AcDb2dVertex
 10
66.17942299777806
 20
355.6316947895643
 30
0.0
  0
VERTEX
  5
594
330
58F
100
AcDbEntity
  8
Layer 1
370
     0
100
AcDbVertex
100
AcDb2dVertex
 10
67.18263480308282
 20
357.3697454618729
 30
0.0
  0
VERTEX
  5
595
330
58F
100
AcDbEntity
  8
Layer 1
370
     0
100
AcDbVertex
100
AcDb2dVertex
 10
69.18974743278937
 20
357.3697454618729
 30
0.0
  0
VERTEX
  5
596
330
58F
100
AcDbEntity
  8
Layer 1
370
     0
100
AcDbVertex
100
AcDb2dVertex
 10
70.19261472854559
 20
355.6316947895643
 30
0.0
  0
SEQEND
  5
597
330
58F
100
AcDbEntity
  8
Layer 1
370
     0
  0
POLYLINE
  5
598
330
3C
100
AcDbEntity
  8
Layer 1
370
     0
100
AcDb2dPolyline
 66
     1
 10
0.0
 20
0.0
 30
0.0
  0
VERTEX
  5
599
330
598
100
AcDbEntity
  8
Layer 1
370
     0
100
AcDbVertex
100
AcDb2dVertex
 10
70.19261472854559
 20
360.2746499750355
 30
0.0
  0
VERTEX
  5
59A
330
598
100
AcDbEntity
  8
Layer 1
370
     0
100
AcDbVertex
100
AcDb2dVertex
 10
69.18974743278937
 20
358.536599302727
 30
0.0
  0
VERTEX
  5
59B
330
598
100
AcDbEntity
  8
Layer 1
370
     0
100
AcDbVertex
100
AcDb2dVertex
 10
67.18263480308282
 20
358.536599302727
 30
0.0
  0
VERTEX
  5
59C
330
598
100
AcDbEntity
  8
Layer 1
370
     0
100
AcDbVertex
100
AcDb2dVertex
 10
66.17942299777806
 20
360.2746499750355
 30
0.0
  0
VERTEX
  5
59D
330
598
100
AcDbEntity
  8
Layer 1
370
     0
100
AcDbVertex
100
AcDb2dVertex
 10
67.18263480308282
 20
362.0123561377956
 30
0.0
  0
VERTEX
  5
59E
330
598
100
AcDbEntity
  8
Layer 1
370
     0
100
AcDbVertex
100
AcDb2dVertex
 10
69.18974743278937
 20
362.0123561377956
 30
0.0
  0
VERTEX
  5
59F
330
598
100
AcDbEntity
  8
Layer 1
370
     0
100
AcDbVertex
100
AcDb2dVertex
 10
70.19261472854559
 20
360.2746499750355
 30
0.0
  0
SEQEND
  5
5A0
330
598
100
AcDbEntity
  8
Layer 1
370
     0
  0
POLYLINE
  5
5A1
330
3C
100
AcDbEntity
  8
Layer 1
370
     0
100
AcDb2dPolyline
 66
     1
 10
0.0
 20
0.0
 30
0.0
  0
VERTEX
  5
5A2
330
5A1
100
AcDbEntity
  8
Layer 1
370
     0
100
AcDbVertex
100
AcDb2dVertex
 10
70.19261472854559
 20
350.9160480893543
 30
0.0
  0
VERTEX
  5
5A3
330
5A1
100
AcDbEntity
  8
Layer 1
370
     0
100
AcDbVertex
100
AcDb2dVertex
 10
69.18974743278937
 20
349.1779974170458
 30
0.0
  0
VERTEX
  5
5A4
330
5A1
100
AcDbEntity
  8
Layer 1
370
     0
100
AcDbVertex
100
AcDb2dVertex
 10
67.18263480308282
 20
349.1779974170458
 30
0.0
  0
VERTEX
  5
5A5
330
5A1
100
AcDbEntity
  8
Layer 1
370
     0
100
AcDbVertex
100
AcDb2dVertex
 10
66.17942299777806
 20
350.9160480893543
 30
0.0
  0
VERTEX
  5
5A6
330
5A1
100
AcDbEntity
  8
Layer 1
370
     0
100
AcDbVertex
100
AcDb2dVertex
 10
67.18263480308282
 20
352.6530652330173
 30
0.0
  0
VERTEX
  5
5A7
330
5A1
100
AcDbEntity
  8
Layer 1
370
     0
100
AcDbVertex
100
AcDb2dVertex
 10
69.18974743278937
 20
352.6530652330173
 30
0.0
  0
VERTEX
  5
5A8
330
5A1
100
AcDbEntity
  8
Layer 1
370
     0
100
AcDbVertex
100
AcDb2dVertex
 10
70.19261472854559
 20
350.9160480893543
 30
0.0
  0
SEQEND
  5
5A9
330
5A1
100
AcDbEntity
  8
Layer 1
370
     0
  0
POLYLINE
  5
5AA
330
3C
100
AcDbEntity
  8
Layer 1
370
     0
100
AcDb2dPolyline
 66
     1
 10
0.0
 20
0.0
 30
0.0
  0
VERTEX
  5
5AB
330
5AA
100
AcDbEntity
  8
Layer 1
370
     0
100
AcDbVertex
100
AcDb2dVertex
 10
70.19261472854559
 20
364.8993461544349
 30
0.0
  0
VERTEX
  5
5AC
330
5AA
100
AcDbEntity
  8
Layer 1
370
     0
100
AcDbVertex
100
AcDb2dVertex
 10
69.18974743278937
 20
363.1619845012234
 30
0.0
  0
VERTEX
  5
5AD
330
5AA
100
AcDbEntity
  8
Layer 1
370
     0
100
AcDbVertex
100
AcDb2dVertex
 10
67.18263480308282
 20
363.1619845012234
 30
0.0
  0
VERTEX
  5
5AE
330
5AA
100
AcDbEntity
  8
Layer 1
370
     0
100
AcDbVertex
100
AcDb2dVertex
 10
66.17942299777806
 20
364.8993461544349
 30
0.0
  0
VERTEX
  5
5AF
330
5AA
100
AcDbEntity
  8
Layer 1
370
     0
100
AcDbVertex
100
AcDb2dVertex
 10
67.18263480308282
 20
366.6373968267434
 30
0.0
  0
VERTEX
  5
5B0
330
5AA
100
AcDbEntity
  8
Layer 1
370
     0
100
AcDbVertex
100
AcDb2dVertex
 10
69.18974743278937
 20
366.6373968267434
 30
0.0
  0
VERTEX
  5
5B1
330
5AA
100
AcDbEntity
  8
Layer 1
370
     0
100
AcDbVertex
100
AcDb2dVertex
 10
70.19261472854559
 20
364.8993461544349
 30
0.0
  0
SEQEND
  5
5B2
330
5AA
100
AcDbEntity
  8
Layer 1
370
     0
  0
POLYLINE
  5
5B3
330
3C
100
AcDbEntity
  8
Layer 1
370
     0
100
AcDb2dPolyline
 66
     1
 10
0.0
 20
0.0
 30
0.0
  0
VERTEX
  5
5B4
330
5B3
100
AcDbEntity
  8
Layer 1
370
     0
100
AcDbVertex
100
AcDb2dVertex
 10
74.20580645931314
 20
353.3558647120083
 30
0.0
  0
VERTEX
  5
5B5
330
5B3
100
AcDbEntity
  8
Layer 1
370
     0
100
AcDbVertex
100
AcDb2dVertex
 10
73.20259465400838
 20
351.6178140396997
 30
0.0
  0
VERTEX
  5
5B6
330
5B3
100
AcDbEntity
  8
Layer 1
370
     0
100
AcDbVertex
100
AcDb2dVertex
 10
71.19548202430182
 20
351.6178140396997
 30
0.0
  0
VERTEX
  5
5B7
330
5B3
100
AcDbEntity
  8
Layer 1
370
     0
100
AcDbVertex
100
AcDb2dVertex
 10
70.19261472854559
 20
353.3558647120083
 30
0.0
  0
VERTEX
  5
5B8
330
5B3
100
AcDbEntity
  8
Layer 1
370
     0
100
AcDbVertex
100
AcDb2dVertex
 10
71.19548202430182
 20
355.0935708747683
 30
0.0
  0
VERTEX
  5
5B9
330
5B3
100
AcDbEntity
  8
Layer 1
370
     0
100
AcDbVertex
100
AcDb2dVertex
 10
73.20259465400838
 20
355.0935708747683
 30
0.0
  0
VERTEX
  5
5BA
330
5B3
100
AcDbEntity
  8
Layer 1
370
     0
100
AcDbVertex
100
AcDb2dVertex
 10
74.20580645931314
 20
353.3558647120083
 30
0.0
  0
SEQEND
  5
5BB
330
5B3
100
AcDbEntity
  8
Layer 1
370
     0
  0
POLYLINE
  5
5BC
330
3C
100
AcDbEntity
  8
Layer 1
370
     0
100
AcDb2dPolyline
 66
     1
 10
0.0
 20
0.0
 30
0.0
  0
VERTEX
  5
5BD
330
5BC
100
AcDbEntity
  8
Layer 1
370
     0
100
AcDbVertex
100
AcDb2dVertex
 10
74.20580645931314
 20
357.999164407028
 30
0.0
  0
VERTEX
  5
5BE
330
5BC
100
AcDbEntity
  8
Layer 1
370
     0
100
AcDbVertex
100
AcDb2dVertex
 10
73.20259465400838
 20
356.2607692251709
 30
0.0
  0
VERTEX
  5
5BF
330
5BC
100
AcDbEntity
  8
Layer 1
370
     0
100
AcDbVertex
100
AcDb2dVertex
 10
71.19548202430182
 20
356.2607692251709
 30
0.0
  0
VERTEX
  5
5C0
330
5BC
100
AcDbEntity
  8
Layer 1
370
     0
100
AcDbVertex
100
AcDb2dVertex
 10
70.19261472854559
 20
357.999164407028
 30
0.0
  0
VERTEX
  5
5C1
330
5BC
100
AcDbEntity
  8
Layer 1
370
     0
100
AcDbVertex
100
AcDb2dVertex
 10
71.19548202430182
 20
359.7365260602395
 30
0.0
  0
VERTEX
  5
5C2
330
5BC
100
AcDbEntity
  8
Layer 1
370
     0
100
AcDbVertex
100
AcDb2dVertex
 10
73.20259465400838
 20
359.7365260602395
 30
0.0
  0
VERTEX
  5
5C3
330
5BC
100
AcDbEntity
  8
Layer 1
370
     0
100
AcDbVertex
100
AcDb2dVertex
 10
74.20580645931314
 20
357.999164407028
 30
0.0
  0
SEQEND
  5
5C4
330
5BC
100
AcDbEntity
  8
Layer 1
370
     0
  0
POLYLINE
  5
5C5
330
3C
100
AcDbEntity
  8
Layer 1
370
     0
100
AcDb2dPolyline
 66
     1
 10
0.0
 20
0.0
 30
0.0
  0
VERTEX
  5
5C6
330
5C5
100
AcDbEntity
  8
Layer 1
370
     0
100
AcDbVertex
100
AcDb2dVertex
 10
74.20580645931314
 20
348.6395289927012
 30
0.0
  0
VERTEX
  5
5C7
330
5C5
100
AcDbEntity
  8
Layer 1
370
     0
100
AcDbVertex
100
AcDb2dVertex
 10
73.20259465400838
 20
346.9018228299412
 30
0.0
  0
VERTEX
  5
5C8
330
5C5
100
AcDbEntity
  8
Layer 1
370
     0
100
AcDbVertex
100
AcDb2dVertex
 10
71.19548202430182
 20
346.9018228299412
 30
0.0
  0
VERTEX
  5
5C9
330
5C5
100
AcDbEntity
  8
Layer 1
370
     0
100
AcDbVertex
100
AcDb2dVertex
 10
70.19261472854559
 20
348.6395289927012
 30
0.0
  0
VERTEX
  5
5CA
330
5C5
100
AcDbEntity
  8
Layer 1
370
     0
100
AcDbVertex
100
AcDb2dVertex
 10
71.19548202430182
 20
350.3775796650098
 30
0.0
  0
VERTEX
  5
5CB
330
5C5
100
AcDbEntity
  8
Layer 1
370
     0
100
AcDbVertex
100
AcDb2dVertex
 10
73.20259465400838
 20
350.3775796650098
 30
0.0
  0
VERTEX
  5
5CC
330
5C5
100
AcDbEntity
  8
Layer 1
370
     0
100
AcDbVertex
100
AcDb2dVertex
 10
74.20580645931314
 20
348.6395289927012
 30
0.0
  0
SEQEND
  5
5CD
330
5C5
100
AcDbEntity
  8
Layer 1
370
     0
  0
POLYLINE
  5
5CE
330
3C
100
AcDbEntity
  8
Layer 1
370
     0
100
AcDb2dPolyline
 66
     1
 10
0.0
 20
0.0
 30
0.0
  0
VERTEX
  5
5CF
330
5CE
100
AcDbEntity
  8
Layer 1
370
     0
100
AcDbVertex
100
AcDb2dVertex
 10
74.20580645931314
 20
362.6238605864274
 30
0.0
  0
VERTEX
  5
5D0
330
5CE
100
AcDbEntity
  8
Layer 1
370
     0
100
AcDbVertex
100
AcDb2dVertex
 10
73.20259465400838
 20
360.8861544236674
 30
0.0
  0
VERTEX
  5
5D1
330
5CE
100
AcDbEntity
  8
Layer 1
370
     0
100
AcDbVertex
100
AcDb2dVertex
 10
71.19548202430182
 20
360.8861544236674
 30
0.0
  0
VERTEX
  5
5D2
330
5CE
100
AcDbEntity
  8
Layer 1
370
     0
100
AcDbVertex
100
AcDb2dVertex
 10
70.19261472854559
 20
362.6238605864274
 30
0.0
  0
VERTEX
  5
5D3
330
5CE
100
AcDbEntity
  8
Layer 1
370
     0
100
AcDbVertex
100
AcDb2dVertex
 10
71.19548202430182
 20
364.3612222396389
 30
0.0
  0
VERTEX
  5
5D4
330
5CE
100
AcDbEntity
  8
Layer 1
370
     0
100
AcDbVertex
100
AcDb2dVertex
 10
73.20259465400838
 20
364.3612222396389
 30
0.0
  0
VERTEX
  5
5D5
330
5CE
100
AcDbEntity
  8
Layer 1
370
     0
100
AcDbVertex
100
AcDb2dVertex
 10
74.20580645931314
 20
362.6238605864274
 30
0.0
  0
SEQEND
  5
5D6
330
5CE
100
AcDbEntity
  8
Layer 1
370
     0
  0
POLYLINE
  5
5D7
330
3C
100
AcDbEntity
  8
Layer 1
370
     0
100
AcDb2dPolyline
 66
     1
 10
0.0
 20
0.0
 30
0.0
  0
VERTEX
  5
5D8
330
5D7
100
AcDbEntity
  8
Layer 1
370
     0
100
AcDbVertex
100
AcDb2dVertex
 10
78.21968720917772
 20
355.6316947895643
 30
0.0
  0
VERTEX
  5
5D9
330
5D7
100
AcDbEntity
  8
Layer 1
370
     0
100
AcDbVertex
100
AcDb2dVertex
 10
77.21613089432444
 20
353.8936441172557
 30
0.0
  0
VERTEX
  5
5DA
330
5D7
100
AcDbEntity
  8
Layer 1
370
     0
100
AcDbVertex
100
AcDb2dVertex
 10
75.20936277416641
 20
353.8936441172557
 30
0.0
  0
VERTEX
  5
5DB
330
5D7
100
AcDbEntity
  8
Layer 1
370
     0
100
AcDbVertex
100
AcDb2dVertex
 10
74.20580645931314
 20
355.6316947895643
 30
0.0
  0
VERTEX
  5
5DC
330
5D7
100
AcDbEntity
  8
Layer 1
370
     0
100
AcDbVertex
100
AcDb2dVertex
 10
75.20936277416641
 20
357.3697454618729
 30
0.0
  0
VERTEX
  5
5DD
330
5D7
100
AcDbEntity
  8
Layer 1
370
     0
100
AcDbVertex
100
AcDb2dVertex
 10
77.21613089432444
 20
357.3697454618729
 30
0.0
  0
VERTEX
  5
5DE
330
5D7
100
AcDbEntity
  8
Layer 1
370
     0
100
AcDbVertex
100
AcDb2dVertex
 10
78.21968720917772
 20
355.6316947895643
 30
0.0
  0
SEQEND
  5
5DF
330
5D7
100
AcDbEntity
  8
Layer 1
370
     0
  0
POLYLINE
  5
5E0
330
3C
100
AcDbEntity
  8
Layer 1
370
     0
100
AcDb2dPolyline
 66
     1
 10
0.0
 20
0.0
 30
0.0
  0
VERTEX
  5
5E1
330
5E0
100
AcDbEntity
  8
Layer 1
370
     0
100
AcDbVertex
100
AcDb2dVertex
 10
78.21968720917772
 20
360.2746499750355
 30
0.0
  0
VERTEX
  5
5E2
330
5E0
100
AcDbEntity
  8
Layer 1
370
     0
100
AcDbVertex
100
AcDb2dVertex
 10
77.21613089432444
 20
358.536599302727
 30
0.0
  0
VERTEX
  5
5E3
330
5E0
100
AcDbEntity
  8
Layer 1
370
     0
100
AcDbVertex
100
AcDb2dVertex
 10
75.20936277416641
 20
358.536599302727
 30
0.0
  0
VERTEX
  5
5E4
330
5E0
100
AcDbEntity
  8
Layer 1
370
     0
100
AcDbVertex
100
AcDb2dVertex
 10
74.20580645931314
 20
360.2746499750355
 30
0.0
  0
VERTEX
  5
5E5
330
5E0
100
AcDbEntity
  8
Layer 1
370
     0
100
AcDbVertex
100
AcDb2dVertex
 10
75.20936277416641
 20
362.0123561377956
 30
0.0
  0
VERTEX
  5
5E6
330
5E0
100
AcDbEntity
  8
Layer 1
370
     0
100
AcDbVertex
100
AcDb2dVertex
 10
77.21613089432444
 20
362.0123561377956
 30
0.0
  0
VERTEX
  5
5E7
330
5E0
100
AcDbEntity
  8
Layer 1
370
     0
100
AcDbVertex
100
AcDb2dVertex
 10
78.21968720917772
 20
360.2746499750355
 30
0.0
  0
SEQEND
  5
5E8
330
5E0
100
AcDbEntity
  8
Layer 1
370
     0
  0
POLYLINE
  5
5E9
330
3C
100
AcDbEntity
  8
Layer 1
370
     0
100
AcDb2dPolyline
 66
     1
 10
0.0
 20
0.0
 30
0.0
  0
VERTEX
  5
5EA
330
5E9
100
AcDbEntity
  8
Layer 1
370
     0
100
AcDbVertex
100
AcDb2dVertex
 10
78.21968720917772
 20
350.9160480893543
 30
0.0
  0
VERTEX
  5
5EB
330
5E9
100
AcDbEntity
  8
Layer 1
370
     0
100
AcDbVertex
100
AcDb2dVertex
 10
77.21613089432444
 20
349.1779974170458
 30
0.0
  0
VERTEX
  5
5EC
330
5E9
100
AcDbEntity
  8
Layer 1
370
     0
100
AcDbVertex
100
AcDb2dVertex
 10
75.20936277416641
 20
349.1779974170458
 30
0.0
  0
VERTEX
  5
5ED
330
5E9
100
AcDbEntity
  8
Layer 1
370
     0
100
AcDbVertex
100
AcDb2dVertex
 10
74.20580645931314
 20
350.9160480893543
 30
0.0
  0
VERTEX
  5
5EE
330
5E9
100
AcDbEntity
  8
Layer 1
370
     0
100
AcDbVertex
100
AcDb2dVertex
 10
75.20936277416641
 20
352.6530652330173
 30
0.0
  0
VERTEX
  5
5EF
330
5E9
100
AcDbEntity
  8
Layer 1
370
     0
100
AcDbVertex
100
AcDb2dVertex
 10
77.21613089432444
 20
352.6530652330173
 30
0.0
  0
VERTEX
  5
5F0
330
5E9
100
AcDbEntity
  8
Layer 1
370
     0
100
AcDbVertex
100
AcDb2dVertex
 10
78.21968720917772
 20
350.9160480893543
 30
0.0
  0
SEQEND
  5
5F1
330
5E9
100
AcDbEntity
  8
Layer 1
370
     0
  0
POLYLINE
  5
5F2
330
3C
100
AcDbEntity
  8
Layer 1
370
     0
100
AcDb2dPolyline
 66
     1
 10
0.0
 20
0.0
 30
0.0
  0
VERTEX
  5
5F3
330
5F2
100
AcDbEntity
  8
Layer 1
370
     0
100
AcDbVertex
100
AcDb2dVertex
 10
78.21968720917772
 20
364.8993461544349
 30
0.0
  0
VERTEX
  5
5F4
330
5F2
100
AcDbEntity
  8
Layer 1
370
     0
100
AcDbVertex
100
AcDb2dVertex
 10
77.21613089432444
 20
363.1619845012234
 30
0.0
  0
VERTEX
  5
5F5
330
5F2
100
AcDbEntity
  8
Layer 1
370
     0
100
AcDbVertex
100
AcDb2dVertex
 10
75.20936277416641
 20
363.1619845012234
 30
0.0
  0
VERTEX
  5
5F6
330
5F2
100
AcDbEntity
  8
Layer 1
370
     0
100
AcDbVertex
100
AcDb2dVertex
 10
74.20580645931314
 20
364.8993461544349
 30
0.0
  0
VERTEX
  5
5F7
330
5F2
100
AcDbEntity
  8
Layer 1
370
     0
100
AcDbVertex
100
AcDb2dVertex
 10
75.20936277416641
 20
366.6373968267434
 30
0.0
  0
VERTEX
  5
5F8
330
5F2
100
AcDbEntity
  8
Layer 1
370
     0
100
AcDbVertex
100
AcDb2dVertex
 10
77.21613089432444
 20
366.6373968267434
 30
0.0
  0
VERTEX
  5
5F9
330
5F2
100
AcDbEntity
  8
Layer 1
370
     0
100
AcDbVertex
100
AcDb2dVertex
 10
78.21968720917772
 20
364.8993461544349
 30
0.0
  0
SEQEND
  5
5FA
330
5F2
100
AcDbEntity
  8
Layer 1
370
     0
  0
POLYLINE
  5
5FB
330
3C
100
AcDbEntity
  8
Layer 1
370
     0
100
AcDb2dPolyline
 66
     1
 10
0.0
 20
0.0
 30
0.0
  0
VERTEX
  5
5FC
330
5FB
100
AcDbEntity
  8
Layer 1
370
     0
100
AcDbVertex
100
AcDb2dVertex
 10
82.1784464312783
 20
353.3558647120083
 30
0.0
  0
VERTEX
  5
5FD
330
5FB
100
AcDbEntity
  8
Layer 1
370
     0
100
AcDbVertex
100
AcDb2dVertex
 10
81.17489011642503
 20
351.6178140396997
 30
0.0
  0
VERTEX
  5
5FE
330
5FB
100
AcDbEntity
  8
Layer 1
370
     0
100
AcDbVertex
100
AcDb2dVertex
 10
79.168121996267
 20
351.6178140396997
 30
0.0
  0
VERTEX
  5
5FF
330
5FB
100
AcDbEntity
  8
Layer 1
370
     0
100
AcDbVertex
100
AcDb2dVertex
 10
78.16525470051077
 20
353.3558647120083
 30
0.0
  0
VERTEX
  5
600
330
5FB
100
AcDbEntity
  8
Layer 1
370
     0
100
AcDbVertex
100
AcDb2dVertex
 10
79.168121996267
 20
355.0935708747683
 30
0.0
  0
VERTEX
  5
601
330
5FB
100
AcDbEntity
  8
Layer 1
370
     0
100
AcDbVertex
100
AcDb2dVertex
 10
81.17489011642503
 20
355.0935708747683
 30
0.0
  0
VERTEX
  5
602
330
5FB
100
AcDbEntity
  8
Layer 1
370
     0
100
AcDbVertex
100
AcDb2dVertex
 10
82.1784464312783
 20
353.3558647120083
 30
0.0
  0
SEQEND
  5
603
330
5FB
100
AcDbEntity
  8
Layer 1
370
     0
  0
POLYLINE
  5
604
330
3C
100
AcDbEntity
  8
Layer 1
370
     0
100
AcDb2dPolyline
 66
     1
 10
0.0
 20
0.0
 30
0.0
  0
VERTEX
  5
605
330
604
100
AcDbEntity
  8
Layer 1
370
     0
100
AcDbVertex
100
AcDb2dVertex
 10
82.1784464312783
 20
357.999164407028
 30
0.0
  0
VERTEX
  5
606
330
604
100
AcDbEntity
  8
Layer 1
370
     0
100
AcDbVertex
100
AcDb2dVertex
 10
81.17489011642503
 20
356.2607692251709
 30
0.0
  0
VERTEX
  5
607
330
604
100
AcDbEntity
  8
Layer 1
370
     0
100
AcDbVertex
100
AcDb2dVertex
 10
79.168121996267
 20
356.2607692251709
 30
0.0
  0
VERTEX
  5
608
330
604
100
AcDbEntity
  8
Layer 1
370
     0
100
AcDbVertex
100
AcDb2dVertex
 10
78.16525470051077
 20
357.999164407028
 30
0.0
  0
VERTEX
  5
609
330
604
100
AcDbEntity
  8
Layer 1
370
     0
100
AcDbVertex
100
AcDb2dVertex
 10
79.168121996267
 20
359.7365260602395
 30
0.0
  0
VERTEX
  5
60A
330
604
100
AcDbEntity
  8
Layer 1
370
     0
100
AcDbVertex
100
AcDb2dVertex
 10
81.17489011642503
 20
359.7365260602395
 30
0.0
  0
VERTEX
  5
60B
330
604
100
AcDbEntity
  8
Layer 1
370
     0
100
AcDbVertex
100
AcDb2dVertex
 10
82.1784464312783
 20
357.999164407028
 30
0.0
  0
SEQEND
  5
60C
330
604
100
AcDbEntity
  8
Layer 1
370
     0
  0
POLYLINE
  5
60D
330
3C
100
AcDbEntity
  8
Layer 1
370
     0
100
AcDb2dPolyline
 66
     1
 10
0.0
 20
0.0
 30
0.0
  0
VERTEX
  5
60E
330
60D
100
AcDbEntity
  8
Layer 1
370
     0
100
AcDbVertex
100
AcDb2dVertex
 10
82.1784464312783
 20
362.6238605864274
 30
0.0
  0
VERTEX
  5
60F
330
60D
100
AcDbEntity
  8
Layer 1
370
     0
100
AcDbVertex
100
AcDb2dVertex
 10
81.17489011642503
 20
360.8861544236674
 30
0.0
  0
VERTEX
  5
610
330
60D
100
AcDbEntity
  8
Layer 1
370
     0
100
AcDbVertex
100
AcDb2dVertex
 10
79.168121996267
 20
360.8861544236674
 30
0.0
  0
VERTEX
  5
611
330
60D
100
AcDbEntity
  8
Layer 1
370
     0
100
AcDbVertex
100
AcDb2dVertex
 10
78.16525470051077
 20
362.6238605864274
 30
0.0
  0
VERTEX
  5
612
330
60D
100
AcDbEntity
  8
Layer 1
370
     0
100
AcDbVertex
100
AcDb2dVertex
 10
79.168121996267
 20
364.3612222396389
 30
0.0
  0
VERTEX
  5
613
330
60D
100
AcDbEntity
  8
Layer 1
370
     0
100
AcDbVertex
100
AcDb2dVertex
 10
81.17489011642503
 20
364.3612222396389
 30
0.0
  0
VERTEX
  5
614
330
60D
100
AcDbEntity
  8
Layer 1
370
     0
100
AcDbVertex
100
AcDb2dVertex
 10
82.1784464312783
 20
362.6238605864274
 30
0.0
  0
SEQEND
  5
615
330
60D
100
AcDbEntity
  8
Layer 1
370
     0
  0
POLYLINE
  5
616
330
3C
100
AcDbEntity
  8
Layer 1
370
     0
100
AcDb2dPolyline
 66
     1
 10
0.0
 20
0.0
 30
0.0
  0
VERTEX
  5
617
330
616
100
AcDbEntity
  8
Layer 1
370
     0
100
AcDbVertex
100
AcDb2dVertex
 10
142.3482448645865
 20
369.975349842402
 30
0.0
  0
VERTEX
  5
618
330
616
100
AcDbEntity
  8
Layer 1
370
     0
100
AcDbVertex
100
AcDb2dVertex
 10
141.3443440401848
 20
368.237643679642
 30
0.0
  0
VERTEX
  5
619
330
616
100
AcDbEntity
  8
Layer 1
370
     0
100
AcDbVertex
100
AcDb2dVertex
 10
139.3379204295752
 20
368.237643679642
 30
0.0
  0
VERTEX
  5
61A
330
616
100
AcDbEntity
  8
Layer 1
370
     0
100
AcDbVertex
100
AcDb2dVertex
 10
138.3347086242705
 20
369.975349842402
 30
0.0
  0
VERTEX
  5
61B
330
616
100
AcDbEntity
  8
Layer 1
370
     0
100
AcDbVertex
100
AcDb2dVertex
 10
139.3379204295752
 20
371.7134005147105
 30
0.0
  0
VERTEX
  5
61C
330
616
100
AcDbEntity
  8
Layer 1
370
     0
100
AcDbVertex
100
AcDb2dVertex
 10
141.3443440401848
 20
371.7134005147105
 30
0.0
  0
VERTEX
  5
61D
330
616
100
AcDbEntity
  8
Layer 1
370
     0
100
AcDbVertex
100
AcDb2dVertex
 10
142.3482448645865
 20
369.975349842402
 30
0.0
  0
SEQEND
  5
61E
330
616
100
AcDbEntity
  8
Layer 1
370
     0
  0
POLYLINE
  5
61F
330
3C
100
AcDbEntity
  8
Layer 1
370
     0
100
AcDb2dPolyline
 66
     1
 10
0.0
 20
0.0
 30
0.0
  0
VERTEX
  5
620
330
61F
100
AcDbEntity
  8
Layer 1
370
     0
100
AcDbVertex
100
AcDb2dVertex
 10
142.3482448645865
 20
374.6186495374217
 30
0.0
  0
VERTEX
  5
621
330
61F
100
AcDbEntity
  8
Layer 1
370
     0
100
AcDbVertex
100
AcDb2dVertex
 10
141.3443440401848
 20
372.8805988651132
 30
0.0
  0
VERTEX
  5
622
330
61F
100
AcDbEntity
  8
Layer 1
370
     0
100
AcDbVertex
100
AcDb2dVertex
 10
139.3379204295752
 20
372.8805988651132
 30
0.0
  0
VERTEX
  5
623
330
61F
100
AcDbEntity
  8
Layer 1
370
     0
100
AcDbVertex
100
AcDb2dVertex
 10
138.3347086242705
 20
374.6186495374217
 30
0.0
  0
VERTEX
  5
624
330
61F
100
AcDbEntity
  8
Layer 1
370
     0
100
AcDbVertex
100
AcDb2dVertex
 10
139.3379204295752
 20
376.3567002097303
 30
0.0
  0
VERTEX
  5
625
330
61F
100
AcDbEntity
  8
Layer 1
370
     0
100
AcDbVertex
100
AcDb2dVertex
 10
141.3443440401848
 20
376.3567002097303
 30
0.0
  0
VERTEX
  5
626
330
61F
100
AcDbEntity
  8
Layer 1
370
     0
100
AcDbVertex
100
AcDb2dVertex
 10
142.3482448645865
 20
374.6186495374217
 30
0.0
  0
SEQEND
  5
627
330
61F
100
AcDbEntity
  8
Layer 1
370
     0
  0
POLYLINE
  5
628
330
3C
100
AcDbEntity
  8
Layer 1
370
     0
100
AcDb2dPolyline
 66
     1
 10
0.0
 20
0.0
 30
0.0
  0
VERTEX
  5
629
330
628
100
AcDbEntity
  8
Layer 1
370
     0
100
AcDbVertex
100
AcDb2dVertex
 10
142.3482448645865
 20
365.2593586326435
 30
0.0
  0
VERTEX
  5
62A
330
628
100
AcDbEntity
  8
Layer 1
370
     0
100
AcDbVertex
100
AcDb2dVertex
 10
141.3443440401848
 20
363.521307960335
 30
0.0
  0
VERTEX
  5
62B
330
628
100
AcDbEntity
  8
Layer 1
370
     0
100
AcDbVertex
100
AcDb2dVertex
 10
139.3379204295752
 20
363.521307960335
 30
0.0
  0
VERTEX
  5
62C
330
628
100
AcDbEntity
  8
Layer 1
370
     0
100
AcDbVertex
100
AcDb2dVertex
 10
138.3347086242705
 20
365.2593586326435
 30
0.0
  0
VERTEX
  5
62D
330
628
100
AcDbEntity
  8
Layer 1
370
     0
100
AcDbVertex
100
AcDb2dVertex
 10
139.3379204295752
 20
366.997409304952
 30
0.0
  0
VERTEX
  5
62E
330
628
100
AcDbEntity
  8
Layer 1
370
     0
100
AcDbVertex
100
AcDb2dVertex
 10
141.3443440401848
 20
366.997409304952
 30
0.0
  0
VERTEX
  5
62F
330
628
100
AcDbEntity
  8
Layer 1
370
     0
100
AcDbVertex
100
AcDb2dVertex
 10
142.3482448645865
 20
365.2593586326435
 30
0.0
  0
SEQEND
  5
630
330
628
100
AcDbEntity
  8
Layer 1
370
     0
  0
POLYLINE
  5
631
330
3C
100
AcDbEntity
  8
Layer 1
370
     0
100
AcDb2dPolyline
 66
     1
 10
0.0
 20
0.0
 30
0.0
  0
VERTEX
  5
632
330
631
100
AcDbEntity
  8
Layer 1
370
     0
100
AcDbVertex
100
AcDb2dVertex
 10
142.3482448645865
 20
379.2436902263697
 30
0.0
  0
VERTEX
  5
633
330
631
100
AcDbEntity
  8
Layer 1
370
     0
100
AcDbVertex
100
AcDb2dVertex
 10
141.3443440401848
 20
377.5056395540611
 30
0.0
  0
VERTEX
  5
634
330
631
100
AcDbEntity
  8
Layer 1
370
     0
100
AcDbVertex
100
AcDb2dVertex
 10
139.3379204295752
 20
377.5056395540611
 30
0.0
  0
VERTEX
  5
635
330
631
100
AcDbEntity
  8
Layer 1
370
     0
100
AcDbVertex
100
AcDb2dVertex
 10
138.3347086242705
 20
379.2436902263697
 30
0.0
  0
VERTEX
  5
636
330
631
100
AcDbEntity
  8
Layer 1
370
     0
100
AcDbVertex
100
AcDb2dVertex
 10
139.3379204295752
 20
380.9813963891297
 30
0.0
  0
VERTEX
  5
637
330
631
100
AcDbEntity
  8
Layer 1
370
     0
100
AcDbVertex
100
AcDb2dVertex
 10
141.3443440401848
 20
380.9813963891297
 30
0.0
  0
VERTEX
  5
638
330
631
100
AcDbEntity
  8
Layer 1
370
     0
100
AcDbVertex
100
AcDb2dVertex
 10
142.3482448645865
 20
379.2436902263697
 30
0.0
  0
SEQEND
  5
639
330
631
100
AcDbEntity
  8
Layer 1
370
     0
  0
POLYLINE
  5
63A
330
3C
100
AcDbEntity
  8
Layer 1
370
     0
100
AcDb2dPolyline
 66
     1
 10
0.0
 20
0.0
 30
0.0
  0
VERTEX
  5
63B
330
63A
100
AcDbEntity
  8
Layer 1
370
     0
100
AcDbVertex
100
AcDb2dVertex
 10
146.3610920858056
 20
372.3428194598657
 30
0.0
  0
VERTEX
  5
63C
330
63A
100
AcDbEntity
  8
Layer 1
370
     0
100
AcDbVertex
100
AcDb2dVertex
 10
145.3578802805008
 20
370.6044242780087
 30
0.0
  0
VERTEX
  5
63D
330
63A
100
AcDbEntity
  8
Layer 1
370
     0
100
AcDbVertex
100
AcDb2dVertex
 10
143.3514566698913
 20
370.6044242780087
 30
0.0
  0
VERTEX
  5
63E
330
63A
100
AcDbEntity
  8
Layer 1
370
     0
100
AcDbVertex
100
AcDb2dVertex
 10
142.3482448645865
 20
372.3428194598657
 30
0.0
  0
VERTEX
  5
63F
330
63A
100
AcDbEntity
  8
Layer 1
370
     0
100
AcDbVertex
100
AcDb2dVertex
 10
143.3514566698913
 20
374.0805256226257
 30
0.0
  0
VERTEX
  5
640
330
63A
100
AcDbEntity
  8
Layer 1
370
     0
100
AcDbVertex
100
AcDb2dVertex
 10
145.3578802805008
 20
374.0805256226257
 30
0.0
  0
VERTEX
  5
641
330
63A
100
AcDbEntity
  8
Layer 1
370
     0
100
AcDbVertex
100
AcDb2dVertex
 10
146.3610920858056
 20
372.3428194598657
 30
0.0
  0
SEQEND
  5
642
330
63A
100
AcDbEntity
  8
Layer 1
370
     0
  0
POLYLINE
  5
643
330
3C
100
AcDbEntity
  8
Layer 1
370
     0
100
AcDb2dPolyline
 66
     1
 10
0.0
 20
0.0
 30
0.0
  0
VERTEX
  5
644
330
643
100
AcDbEntity
  8
Layer 1
370
     0
100
AcDbVertex
100
AcDb2dVertex
 10
146.3610920858056
 20
376.9857746453369
 30
0.0
  0
VERTEX
  5
645
330
643
100
AcDbEntity
  8
Layer 1
370
     0
100
AcDbVertex
100
AcDb2dVertex
 10
145.3578802805008
 20
375.2477239730284
 30
0.0
  0
VERTEX
  5
646
330
643
100
AcDbEntity
  8
Layer 1
370
     0
100
AcDbVertex
100
AcDb2dVertex
 10
143.3514566698913
 20
375.2477239730284
 30
0.0
  0
VERTEX
  5
647
330
643
100
AcDbEntity
  8
Layer 1
370
     0
100
AcDbVertex
100
AcDb2dVertex
 10
142.3482448645865
 20
376.9857746453369
 30
0.0
  0
VERTEX
  5
648
330
643
100
AcDbEntity
  8
Layer 1
370
     0
100
AcDbVertex
100
AcDb2dVertex
 10
143.3514566698913
 20
378.7231362985484
 30
0.0
  0
VERTEX
  5
649
330
643
100
AcDbEntity
  8
Layer 1
370
     0
100
AcDbVertex
100
AcDb2dVertex
 10
145.3578802805008
 20
378.7231362985484
 30
0.0
  0
VERTEX
  5
64A
330
643
100
AcDbEntity
  8
Layer 1
370
     0
100
AcDbVertex
100
AcDb2dVertex
 10
146.3610920858056
 20
376.9857746453369
 30
0.0
  0
SEQEND
  5
64B
330
643
100
AcDbEntity
  8
Layer 1
370
     0
  0
POLYLINE
  5
64C
330
3C
100
AcDbEntity
  8
Layer 1
370
     0
100
AcDb2dPolyline
 66
     1
 10
0.0
 20
0.0
 30
0.0
  0
VERTEX
  5
64D
330
64C
100
AcDbEntity
  8
Layer 1
370
     0
100
AcDbVertex
100
AcDb2dVertex
 10
146.3610920858056
 20
367.6264837405587
 30
0.0
  0
VERTEX
  5
64E
330
64C
100
AcDbEntity
  8
Layer 1
370
     0
100
AcDbVertex
100
AcDb2dVertex
 10
145.3578802805008
 20
365.8887775777986
 30
0.0
  0
VERTEX
  5
64F
330
64C
100
AcDbEntity
  8
Layer 1
370
     0
100
AcDbVertex
100
AcDb2dVertex
 10
143.3514566698913
 20
365.8887775777986
 30
0.0
  0
VERTEX
  5
650
330
64C
100
AcDbEntity
  8
Layer 1
370
     0
100
AcDbVertex
100
AcDb2dVertex
 10
142.3482448645865
 20
367.6264837405587
 30
0.0
  0
VERTEX
  5
651
330
64C
100
AcDbEntity
  8
Layer 1
370
     0
100
AcDbVertex
100
AcDb2dVertex
 10
143.3514566698913
 20
369.3645344128672
 30
0.0
  0
VERTEX
  5
652
330
64C
100
AcDbEntity
  8
Layer 1
370
     0
100
AcDbVertex
100
AcDb2dVertex
 10
145.3578802805008
 20
369.3645344128672
 30
0.0
  0
VERTEX
  5
653
330
64C
100
AcDbEntity
  8
Layer 1
370
     0
100
AcDbVertex
100
AcDb2dVertex
 10
146.3610920858056
 20
367.6264837405587
 30
0.0
  0
SEQEND
  5
654
330
64C
100
AcDbEntity
  8
Layer 1
370
     0
  0
POLYLINE
  5
655
330
3C
100
AcDbEntity
  8
Layer 1
370
     0
100
AcDb2dPolyline
 66
     1
 10
0.0
 20
0.0
 30
0.0
  0
VERTEX
  5
656
330
655
100
AcDbEntity
  8
Layer 1
370
     0
100
AcDbVertex
100
AcDb2dVertex
 10
146.3610920858056
 20
381.6104708247363
 30
0.0
  0
VERTEX
  5
657
330
655
100
AcDbEntity
  8
Layer 1
370
     0
100
AcDbVertex
100
AcDb2dVertex
 10
145.3578802805008
 20
379.8727646619762
 30
0.0
  0
VERTEX
  5
658
330
655
100
AcDbEntity
  8
Layer 1
370
     0
100
AcDbVertex
100
AcDb2dVertex
 10
143.3514566698913
 20
379.8727646619762
 30
0.0
  0
VERTEX
  5
659
330
655
100
AcDbEntity
  8
Layer 1
370
     0
100
AcDbVertex
100
AcDb2dVertex
 10
142.3482448645865
 20
381.6104708247363
 30
0.0
  0
VERTEX
  5
65A
330
655
100
AcDbEntity
  8
Layer 1
370
     0
100
AcDbVertex
100
AcDb2dVertex
 10
143.3514566698913
 20
383.3481769874963
 30
0.0
  0
VERTEX
  5
65B
330
655
100
AcDbEntity
  8
Layer 1
370
     0
100
AcDbVertex
100
AcDb2dVertex
 10
145.3578802805008
 20
383.3481769874963
 30
0.0
  0
VERTEX
  5
65C
330
655
100
AcDbEntity
  8
Layer 1
370
     0
100
AcDbVertex
100
AcDb2dVertex
 10
146.3610920858056
 20
381.6104708247363
 30
0.0
  0
SEQEND
  5
65D
330
655
100
AcDbEntity
  8
Layer 1
370
     0
  0
POLYLINE
  5
65E
330
3C
100
AcDbEntity
  8
Layer 1
370
     0
100
AcDb2dPolyline
 66
     1
 10
0.0
 20
0.0
 30
0.0
  0
VERTEX
  5
65F
330
65E
100
AcDbEntity
  8
Layer 1
370
     0
100
AcDbVertex
100
AcDb2dVertex
 10
150.3742838165731
 20
374.7099445677808
 30
0.0
  0
VERTEX
  5
660
330
65E
100
AcDbEntity
  8
Layer 1
370
     0
100
AcDbVertex
100
AcDb2dVertex
 10
149.3703829921713
 20
372.9718938954723
 30
0.0
  0
VERTEX
  5
661
330
65E
100
AcDbEntity
  8
Layer 1
370
     0
100
AcDbVertex
100
AcDb2dVertex
 10
147.3643038911103
 20
372.9718938954723
 30
0.0
  0
VERTEX
  5
662
330
65E
100
AcDbEntity
  8
Layer 1
370
     0
100
AcDbVertex
100
AcDb2dVertex
 10
146.3610920858056
 20
374.7099445677808
 30
0.0
  0
VERTEX
  5
663
330
65E
100
AcDbEntity
  8
Layer 1
370
     0
100
AcDbVertex
100
AcDb2dVertex
 10
147.3643038911103
 20
376.4476507305409
 30
0.0
  0
VERTEX
  5
664
330
65E
100
AcDbEntity
  8
Layer 1
370
     0
100
AcDbVertex
100
AcDb2dVertex
 10
149.3703829921713
 20
376.4476507305409
 30
0.0
  0
VERTEX
  5
665
330
65E
100
AcDbEntity
  8
Layer 1
370
     0
100
AcDbVertex
100
AcDb2dVertex
 10
150.3742838165731
 20
374.7099445677808
 30
0.0
  0
SEQEND
  5
666
330
65E
100
AcDbEntity
  8
Layer 1
370
     0
  0
POLYLINE
  5
667
330
3C
100
AcDbEntity
  8
Layer 1
370
     0
100
AcDb2dPolyline
 66
     1
 10
0.0
 20
0.0
 30
0.0
  0
VERTEX
  5
668
330
667
100
AcDbEntity
  8
Layer 1
370
     0
100
AcDbVertex
100
AcDb2dVertex
 10
150.3742838165731
 20
379.3346407471802
 30
0.0
  0
VERTEX
  5
669
330
667
100
AcDbEntity
  8
Layer 1
370
     0
100
AcDbVertex
100
AcDb2dVertex
 10
149.3703829921713
 20
377.5969345844202
 30
0.0
  0
VERTEX
  5
66A
330
667
100
AcDbEntity
  8
Layer 1
370
     0
100
AcDbVertex
100
AcDb2dVertex
 10
147.3643038911103
 20
377.5969345844202
 30
0.0
  0
VERTEX
  5
66B
330
667
100
AcDbEntity
  8
Layer 1
370
     0
100
AcDbVertex
100
AcDb2dVertex
 10
146.3610920858056
 20
379.3346407471802
 30
0.0
  0
VERTEX
  5
66C
330
667
100
AcDbEntity
  8
Layer 1
370
     0
100
AcDbVertex
100
AcDb2dVertex
 10
147.3643038911103
 20
381.0723469099403
 30
0.0
  0
VERTEX
  5
66D
330
667
100
AcDbEntity
  8
Layer 1
370
     0
100
AcDbVertex
100
AcDb2dVertex
 10
149.3703829921713
 20
381.0723469099403
 30
0.0
  0
VERTEX
  5
66E
330
667
100
AcDbEntity
  8
Layer 1
370
     0
100
AcDbVertex
100
AcDb2dVertex
 10
150.3742838165731
 20
379.3346407471802
 30
0.0
  0
SEQEND
  5
66F
330
667
100
AcDbEntity
  8
Layer 1
370
     0
  0
SPLINE
  5
670
330
3C
100
AcDbEntity
  8
Layer 1
370
     0
100
AcDbSpline
210
0.0
220
0.0
230
1.0
 70
    11
 71
     3
 72
   197
 73
   193
 74
     0
 42
0.0000000001
 43
0.0000000001
 40
0.0
 40
0.0
 40
0.0
 40
0.0
 40
1.0
 40
1.0
 40
1.0
 40
2.0
 40
2.0
 40
2.0
 40
3.0
 40
3.0
 40
3.0
 40
4.0
 40
4.0
 40
4.0
 40
5.0
 40
5.0
 40
5.0
 40
6.0
 40
6.0
 40
6.0
 40
7.0
 40
7.0
 40
7.0
 40
8.0
 40
8.0
 40
8.0
 40
9.0
 40
9.0
 40
9.0
 40
10.0
 40
10.0
 40
10.0
 40
11.0
 40
11.0
 40
11.0
 40
12.0
 40
12.0
 40
12.0
 40
13.0
 40
13.0
 40
13.0
 40
14.0
 40
14.0
 40
14.0
 40
15.0
 40
15.0
 40
15.0
 40
16.0
 40
16.0
 40
16.0
 40
17.0
 40
17.0
 40
17.0
 40
18.0
 40
18.0
 40
18.0
 40
19.0
 40
19.0
 40
19.0
 40
20.0
 40
20.0
 40
20.0
 40
21.0
 40
21.0
 40
21.0
 40
22.0
 40
22.0
 40
22.0
 40
23.0
 40
23.0
 40
23.0
 40
24.0
 40
24.0
 40
24.0
 40
25.0
 40
25.0
 40
25.0
 40
26.0
 40
26.0
 40
26.0
 40
27.0
 40
27.0
 40
27.0
 40
28.0
 40
28.0
 40
28.0
 40
29.0
 40
29.0
 40
29.0
 40
30.0
 40
30.0
 40
30.0
 40
31.0
 40
31.0
 40
31.0
 40
32.0
 40
32.0
 40
32.0
 40
33.0
 40
33.0
 40
33.0
 40
34.0
 40
34.0
 40
34.0
 40
35.0
 40
35.0
 40
35.0
 40
36.0
 40
36.0
 40
36.0
 40
37.0
 40
37.0
 40
37.0
 40
38.0
 40
38.0
 40
38.0
 40
39.0
 40
39.0
 40
39.0
 40
40.0
 40
40.0
 40
40.0
 40
41.0
 40
41.0
 40
41.0
 40
42.0
 40
42.0
 40
42.0
 40
43.0
 40
43.0
 40
43.0
 40
44.0
 40
44.0
 40
44.0
 40
45.0
 40
45.0
 40
45.0
 40
46.0
 40
46.0
 40
46.0
 40
47.0
 40
47.0
 40
47.0
 40
48.0
 40
48.0
 40
48.0
 40
49.0
 40
49.0
 40
49.0
 40
50.0
 40
50.0
 40
50.0
 40
51.0
 40
51.0
 40
51.0
 40
52.0
 40
52.0
 40
52.0
 40
53.0
 40
53.0
 40
53.0
 40
54.0
 40
54.0
 40
54.0
 40
55.0
 40
55.0
 40
55.0
 40
56.0
 40
56.0
 40
56.0
 40
57.0
 40
57.0
 40
57.0
 40
58.0
 40
58.0
 40
58.0
 40
59.0
 40
59.0
 40
59.0
 40
60.0
 40
60.0
 40
60.0
 40
61.0
 40
61.0
 40
61.0
 40
62.0
 40
62.0
 40
62.0
 40
63.0
 40
63.0
 40
63.0
 40
64.0
 40
64.0
 40
64.0
 40
64.0
 10
154.4705023485351
 20
384.8874456503059
 30
0.0
 10
154.495996055126
 20
385.0441974948848
 30
0.0
 10
154.5125325134552
 20
385.2040499254004
 30
0.0
 10
154.5125325134552
 20
385.3680364704983
 30
0.0
 10
154.5125325134552
 20
386.4422172427992
 30
0.0
 10
153.9454697965831
 20
387.3820392911753
 30
0.0
 10
153.0965982690175
 20
387.9118949768068
 30
0.0
 10
153.0965982690175
 20
387.9118949768068
 30
0.0
 10
150.6684949710134
 20
389.8132431751162
 30
0.0
 10
150.6684949710134
 20
389.8132431751162
 30
0.0
 10
150.6257757869963
 20
389.8497611872598
 30
0.0
 10
150.580300526591
 20
389.8838676325637
 30
0.0
 10
150.5348252661857
 20
389.9176295683192
 30
0.0
 10
150.5348252661857
 20
389.9176295683192
 30
0.0
 10
150.5327582088946
 20
389.9196966256104
 30
0.0
 10
150.5327582088946
 20
389.9196966256104
 30
0.0
 10
150.5327582088946
 20
389.9196966256104
 30
0.0
 10
150.5327582088946
 20
389.9196966256104
 30
0.0
 10
150.5327582088946
 20
389.9196966256104
 30
0.0
 10
150.0304632871452
 20
390.2979681098908
 30
0.0
 10
149.408279042509
 20
390.5246553928203
 30
0.0
 10
148.7313177796574
 20
390.5246553928203
 30
0.0
 10
148.6024712085091
 20
390.5246553928203
 30
0.0
 10
148.4756916946519
 20
390.513975596816
 30
0.0
 10
148.3509792380859
 20
390.4981281575838
 30
0.0
 10
148.3509792380859
 20
390.4981281575838
 30
0.0
 10
148.3496011998918
 20
390.4984726671323
 30
0.0
 10
148.3496011998918
 20
390.4984726671323
 30
0.0
 10
148.3496011998918
 20
390.4984726671323
 30
0.0
 10
132.2987290793385
 20
389.5228216257096
 30
0.0
 10
132.2987290793385
 20
389.5228216257096
 30
0.0
 10
132.2987290793385
 20
389.5228216257096
 30
0.0
 10
81.9397013141505
 20
390.6252521809895
 30
0.0
 10
81.9397013141505
 20
390.6252521809895
 30
0.0
 10
81.9397013141505
 20
390.6252521809895
 30
0.0
 10
70.78310409471742
 20
390.0078910700328
 30
0.0
 10
70.78310409471742
 20
390.0078910700328
 30
0.0
 10
70.78310409471742
 20
390.0078910700328
 30
0.0
 10
47.8966457671057
 20
393.4474744025062
 30
0.0
 10
47.8966457671057
 20
393.4474744025062
 30
0.0
 10
47.8966457671057
 20
393.4474744025062
 30
0.0
 10
42.70867647586797
 20
394.7793483171038
 30
0.0
 10
42.70867647586797
 20
394.7793483171038
 30
0.0
 10
42.70867647586797
 20
394.7793483171038
 30
0.0
 10
42.70798745677092
 20
394.7800373362008
 30
0.0
 10
42.70798745677092
 20
394.7800373362008
 30
0.0
 10
42.56208766297059
 20
395.8528400703076
 30
0.0
 10
41.85188122868634
 20
396.7458088200844
 30
0.0
 10
40.88363714255687
 20
397.1461289154705
 30
0.0
 10
40.88363714255687
 20
397.1461289154705
 30
0.0
 10
40.88329263300835
 20
397.1464734250189
 30
0.0
 10
40.88329263300835
 20
397.1464734250189
 30
0.0
 10
40.88329263300835
 20
397.1464734250189
 30
0.0
 10
40.87691920636063
 20
397.1485404823101
 30
0.0
 10
40.87691920636063
 20
397.1485404823101
 30
0.0
 10
40.73739283920801
 20
397.2057290673653
 30
0.0
 10
40.59200980973047
 20
397.250859818222
 30
0.0
 10
40.44283717521915
 20
397.2866888112686
 30
0.0
 10
40.44283717521915
 20
397.2866888112686
 30
0.0
 10
35.2503892598506
 20
398.9430907205767
 30
0.0
 10
35.2503892598506
 20
398.9430907205767
 30
0.0
 10
35.2503892598506
 20
398.9430907205767
 30
0.0
 10
35.24970024075355
 20
398.9427462110282
 30
0.0
 10
35.24970024075355
 20
398.9427462110282
 30
0.0
 10
34.95531683153895
 20
399.0392088846152
 30
0.0
 10
34.64146863283269
 20
399.0932968837336
 30
0.0
 10
34.31470132605674
 20
399.0932968837336
 30
0.0
 10
33.21778292355319
 20
399.0932968837336
 30
0.0
 10
32.26125216207357
 20
398.5028075175618
 30
0.0
 10
31.73811441263839
 20
397.6239636592746
 30
0.0
 10
31.73811441263839
 20
397.6239636592746
 30
0.0
 10
31.73794215786413
 20
397.6239636592746
 30
0.0
 10
31.73794215786413
 20
397.6239636592746
 30
0.0
 10
31.73794215786413
 20
397.6239636592746
 30
0.0
 10
31.73776990308987
 20
397.623619149726
 30
0.0
 10
31.73776990308987
 20
397.623619149726
 30
0.0
 10
31.64440781543959
 20
397.4668673051472
 30
0.0
 10
31.56551512882737
 20
397.3011582123067
 30
0.0
 10
31.50178086235025
 20
397.1275253998501
 30
0.0
 10
31.50178086235025
 20
397.1275253998501
 30
0.0
 10
27.65739881035996
 20
389.0529106015215
 30
0.0
 10
27.65739881035996
 20
389.0529106015215
 30
0.0
 10
27.65739881035996
 20
389.0529106015215
 30
0.0
 10
21.86774359262334
 20
383.3244058286481
 30
0.0
 10
21.86774359262334
 20
383.3244058286481
 30
0.0
 10
21.86774359262334
 20
383.3244058286481
 30
0.0
 10
21.86774359262334
 20
383.3244058286481
 30
0.0
 10
21.86774359262334
 20
383.3244058286481
 30
0.0
 10
21.09276936321639
 20
382.6767278774211
 30
0.0
 10
20.59908718018009
 20
381.7038329123865
 30
0.0
 10
20.59908718018009
 20
380.6151827390476
 30
0.0
 10
20.59908718018009
 20
378.6659477134933
 30
0.0
 10
22.17918022448993
 20
377.0860269239577
 30
0.0
 10
24.12824299527002
 20
377.0860269239577
 30
0.0
 10
24.18904893058468
 20
377.0860269239577
 30
0.0
 10
24.24847682770524
 20
377.0922280958311
 30
0.0
 10
24.30859374392285
 20
377.0949841722193
 30
0.0
 10
24.30859374392285
 20
377.0949841722193
 30
0.0
 10
24.30859374392285
 20
377.0949841722193
 30
0.0
 10
24.30859374392285
 20
377.0949841722193
 30
0.0
 10
24.30859374392285
 20
377.0949841722193
 30
0.0
 10
40.44421521341325
 20
375.8526827402382
 30
0.0
 10
40.44421521341325
 20
375.8526827402382
 30
0.0
 10
40.44421521341325
 20
375.8526827402382
 30
0.0
 10
58.37748750710702
 20
347.9060681638916
 30
0.0
 10
58.37748750710702
 20
347.9060681638916
 30
0.0
 10
58.67514375703261
 20
347.1092175781533
 30
0.0
 10
59.30008407805693
 20
346.4735974611247
 30
0.0
 10
60.09073349192176
 20
346.1635388674522
 30
0.0
 10
60.09073349192176
 20
346.1635388674522
 30
0.0
 10
60.09090574669602
 20
346.1631943579036
 30
0.0
 10
60.09090574669602
 20
346.1631943579036
 30
0.0
 10
60.09090574669602
 20
346.1631943579036
 30
0.0
 10
65.35914576274008
 20
343.3971271927966
 30
0.0
 10
65.35914576274008
 20
343.3971271927966
 30
0.0
 10
65.35914576274008
 20
343.3971271927966
 30
0.0
 10
65.85971813674688
 20
324.083921902486
 30
0.0
 10
65.85971813674688
 20
324.083921902486
 30
0.0
 10
65.85971813674688
 20
324.083921902486
 30
0.0
 10
65.85971813674688
 20
324.083921902486
 30
0.0
 10
65.85971813674688
 20
324.083921902486
 30
0.0
 10
65.85627304126163
 20
324.0243217505912
 30
0.0
 10
65.85076088848523
 20
323.9654106177934
 30
0.0
 10
65.85076088848523
 20
323.904776937253
 30
0.0
 10
65.85076088848523
 20
322.2476860088478
 30
0.0
 10
67.19400361818414
 20
320.9047877886974
 30
0.0
 10
68.85075003704078
 20
320.9047877886974
 30
0.0
 10
70.27856986090258
 20
320.9047877886974
 30
0.0
 10
71.47108966312182
 20
321.9031764603228
 30
0.0
 10
71.7742580658238
 20
323.2395289990512
 30
0.0
 10
71.7742580658238
 20
323.2395289990512
 30
0.0
 10
71.77477483014658
 20
323.2391844895027
 30
0.0
 10
71.77477483014658
 20
323.2391844895027
 30
0.0
 10
71.77477483014658
 20
323.2391844895027
 30
0.0
 10
78.36782631504346
 20
345.5578910811453
 30
0.0
 10
78.36782631504346
 20
345.5578910811453
 30
0.0
 10
78.36782631504346
 20
345.5578910811453
 30
0.0
 10
119.6428263047247
 20
342.603377192995
 30
0.0
 10
119.6428263047247
 20
342.603377192995
 30
0.0
 10
119.6428263047247
 20
342.603377192995
 30
0.0
 10
128.0653957470635
 20
345.1610160812445
 30
0.0
 10
128.0653957470635
 20
345.1610160812445
 30
0.0
 10
128.0653957470635
 20
345.1610160812445
 30
0.0
 10
145.1311929975714
 20
334.1952771516943
 30
0.0
 10
145.1311929975714
 20
334.1952771516943
 30
0.0
 10
145.1311929975714
 20
334.1952771516943
 30
0.0
 10
147.6867648285297
 20
324.6406493329023
 30
0.0
 10
147.6867648285297
 20
324.6406493329023
 30
0.0
 10
147.6867648285297
 20
324.6406493329023
 30
0.0
 10
147.704679325053
 20
324.6406493329023
 30
0.0
 10
147.704679325053
 20
324.6406493329023
 30
0.0
 10
147.8659097937627
 20
323.1354871153967
 30
0.0
 10
149.139217085111
 20
321.9631211217662
 30
0.0
 10
150.6864094675367
 20
321.9631211217662
 30
0.0
 10
152.234635378608
 20
321.9631211217662
 30
0.0
 10
153.5079426699563
 20
323.1354871153967
 30
0.0
 10
153.668484119569
 20
324.6406493329023
 30
0.0
 10
153.668484119569
 20
324.6406493329023
 30
0.0
 10
153.6691731386661
 20
324.6406493329023
 30
0.0
 10
153.6691731386661
 20
324.6406493329023
 30
0.0
 10
153.6691731386661
 20
324.6406493329023
 30
0.0
 10
153.6691731386661
 20
324.6427163901935
 30
0.0
 10
153.6691731386661
 20
324.6427163901935
 30
0.0
 10
153.6801974442188
 20
324.7481363120422
 30
0.0
 10
153.6863986160923
 20
324.8549342720849
 30
0.0
 10
153.6863986160923
 20
324.9631102703217
 30
0.0
 10
153.6863986160923
 20
325.0747313640438
 30
0.0
 10
153.6795084251218
 20
325.1849744195718
 30
0.0
 10
153.6677951004719
 20
325.2934949273572
 30
0.0
 10
153.6677951004719
 20
325.2934949273572
 30
0.0
 10
153.640923355687
 20
336.687459225724
 30
0.0
 10
153.640923355687
 20
336.687459225724
 30
0.0
 10
153.640923355687
 20
336.687459225724
 30
0.0
 10
153.640923355687
 20
336.6888372639181
 30
0.0
 10
153.640923355687
 20
336.6888372639181
 30
0.0
 10
153.668484119569
 20
336.853512828113
 30
0.0
 10
153.6863986160923
 20
337.0223225068902
 30
0.0
 10
153.6863986160923
 20
337.1952663002498
 30
0.0
 10
153.6863986160923
 20
337.736146291434
 30
0.0
 10
153.5417046057118
 20
338.2418863086687
 30
0.0
 10
153.2909016543856
 20
338.6801024543925
 30
0.0
 10
153.2909016543856
 20
338.6801024543925
 30
0.0
 10
153.2909016543856
 20
338.6801024543925
 30
0.0
 10
153.2909016543856
 20
338.6801024543925
 30
0.0
 10
153.2909016543856
 20
338.6801024543925
 30
0.0
 10
150.6864094675367
 20
344.6759466369213
 30
0.0
 10
150.6864094675367
 20
344.6759466369213
 30
0.0
 10
150.6864094675367
 20
344.6759466369213
 30
0.0
 10
154.4705023485351
 20
384.8871011407574
 30
0.0
 10
154.4705023485351
 20
384.8871011407574
 30
0.0
 10
154.4705023485351
 20
384.8871011407574
 30
0.0
 10
154.4705023485351
 20
384.8874456503059
 30
0.0
 10
154.4705023485351
 20
384.8874456503059
 30
0.0
  0
ENDBLK
  5
3F
330
3C
100
AcDbEntity
  8
0
100
AcDbBlockEnd
  0
ENDSEC
  0
SECTION
  2
ENTITIES
  0
INSERT
  5
3D
330
1F
100
AcDbEntity
  8
Layer 1
100
AcDbBlockReference
  2
block 2
 10
0.0
 20
0.0
 30
0.0
  0
ENDSEC
  0
SECTION
  2
OBJECTS
  0
DICTIONARY
  5
C
330
0
100
AcDbDictionary
281
     1
  3
ACAD_GROUP
350
D
  3
ACAD_LAYOUT
350
1A
  3
ACAD_MLINESTYLE
350
17
  3
ACAD_PLOTSETTINGS
350
19
  3
ACAD_PLOTSTYLENAME
350
E
  3
ACAD_TABLESTYLE
350
671
  3
ACAD_VISUALSTYLE
350
2A
  0
DICTIONARY
  5
D
102
{ACAD_REACTORS
330
C
102
}
330
C
100
AcDbDictionary
281
     1
  0
DICTIONARY
  5
1A
102
{ACAD_REACTORS
330
C
102
}
330
C
100
AcDbDictionary
281
     1
  3
Layout1
350
1E
  3
Layout2
350
26
  3
Model
350
22
  0
DICTIONARY
  5
17
102
{ACAD_REACTORS
330
C
102
}
330
C
100
AcDbDictionary
281
     1
  3
Standard
350
18
  0
DICTIONARY
  5
19
102
{ACAD_REACTORS
330
C
102
}
330
C
100
AcDbDictionary
281
     1
  0
ACDBDICTIONARYWDFLT
  5
E
102
{ACAD_REACTORS
330
C
102
}
330
C
100
AcDbDictionary
281
     1
  3
Normal
350
F
100
AcDbDictionaryWithDefault
340
F
  0
DICTIONARY
  5
671
102
{ACAD_REACTORS
330
C
102
}
330
C
100
AcDbDictionary
281
     1
  0
DICTIONARY
  5
2A
102
{ACAD_REACTORS
330
C
102
}
330
C
100
AcDbDictionary
281
     1
  3
2dWireframe
350
2F
  3
3D Hidden
350
31
  3
3dWireframe
350
30
  3
Basic
350
32
  3
Brighten
350
36
  3
ColorChange
350
3A
  3
Conceptual
350
34
  3
Dim
350
35
  3
Facepattern
350
39
  3
Flat
350
2B
  3
FlatWithEdges
350
2C
  3
Gouraud
350
2D
  3
GouraudWithEdges
350
2E
  3
Linepattern
350
38
  3
Realistic
350
33
  3
Thicken
350
37
  0
LAYOUT
  5
1E
102
{ACAD_REACTORS
330
1A
102
}
330
1A
100
AcDbPlotSettings
  1

  2
none_device
  4

  6

 40
0.0
 41
0.0
 42
0.0
 43
0.0
 44
0.0
 45
0.0
 46
0.0
 47
0.0
 48
0.0
 49
0.0
140
0.0
141
0.0
142
1.0
143
1.0
 70
   688
 72
     0
 73
     0
 74
     5
  7

 75
    16
 76
     0
 77
     2
 78
   300
147
1.0
148
0.0
149
0.0
100
AcDbLayout
  1
Layout1
 70
     1
 71
     1
 10
0.0
 20
0.0
 11
12.0
 21
9.0
 12
0.0
 22
0.0
 32
0.0
 14
1.000000000000000E+20
 24
1.000000000000000E+20
 34
1.000000000000000E+20
 15
-1.000000000000000E+20
 25
-1.000000000000000E+20
 35
-1.000000000000000E+20
146
0.0
 13
0.0
 23
0.0
 33
0.0
 16
1.0
 26
0.0
 36
0.0
 17
0.0
 27
1.0
 37
0.0
 76
     0
330
1B
  0
LAYOUT
  5
26
102
{ACAD_REACTORS
330
1A
102
}
330
1A
100
AcDbPlotSettings
  1

  2
none_device
  4

  6

 40
0.0
 41
0.0
 42
0.0
 43
0.0
 44
0.0
 45
0.0
 46
0.0
 47
0.0
 48
0.0
 49
0.0
140
0.0
141
0.0
142
1.0
143
1.0
 70
   688
 72
     0
 73
     0
 74
     5
  7

 75
    16
 76
     0
 77
     2
 78
   300
147
1.0
148
0.0
149
0.0
100
AcDbLayout
  1
Layout2
 70
     1
 71
     2
 10
0.0
 20
0.0
 11
0.0
 21
0.0
 12
0.0
 22
0.0
 32
0.0
 14
0.0
 24
0.0
 34
0.0
 15
0.0
 25
0.0
 35
0.0
146
0.0
 13
0.0
 23
0.0
 33
0.0
 16
1.0
 26
0.0
 36
0.0
 17
0.0
 27
1.0
 37
0.0
 76
     0
330
23
  0
LAYOUT
  5
22
102
{ACAD_REACTORS
330
1A
102
}
330
1A
100
AcDbPlotSettings
  1

  2
none_device
  4

  6

 40
0.0
 41
0.0
 42
0.0
 43
0.0
 44
0.0
 45
0.0
 46
0.0
 47
0.0
 48
0.0
 49
0.0
140
0.0
141
0.0
142
1.0
143
1.0
 70
  1712
 72
     0
 73
     0
 74
     0
  7

 75
     0
 76
     0
 77
     2
 78
   300
147
1.0
148
0.0
149
0.0
100
AcDbLayout
  1
Model
 70
     1
 71
     0
 10
0.0
 20
0.0
 11
12.0
 21
9.0
 12
0.0
 22
0.0
 32
0.0
 14
1.000000000000000E+20
 24
1.000000000000000E+20
 34
1.000000000000000E+20
 15
-1.000000000000000E+20
 25
-1.000000000000000E+20
 35
-1.000000000000000E+20
146
0.0
 13
0.0
 23
0.0
 33
0.0
 16
1.0
 26
0.0
 36
0.0
 17
0.0
 27
1.0
 37
0.0
 76
     0
330
1F
331
29
  0
MLINESTYLE
  5
18
102
{ACAD_REACTORS
330
17
102
}
330
17
100
AcDbMlineStyle
  2
Standard
 70
     0
  3

 62
   256
 51
90.0
 52
90.0
 71
     2
 49
0.5
 62
   256
  6
BYLAYER
 49
-0.5
 62
   256
  6
BYLAYER
  0
ACDBPLACEHOLDER
  5
F
102
{ACAD_REACTORS
330
E
102
}
330
E
  0
VISUALSTYLE
  5
2F
102
{ACAD_REACTORS
330
2A
102
}
330
2A
100
AcDbVisualStyle
  2
2dWireframe
 70
     4
 71
     0
 72
     2
 73
     0
 90
        0
 40
-0.6
 41
-30.0
 62
     5
 63
     7
421
 16777215
 74
     1
 91
        4
 64
     7
 65
   257
 75
     1
175
     1
 42
1.0
 92
        0
 66
   257
 43
1.0
 76
     1
 77
     6
 78
     2
 67
     7
 79
     5
170
     0
171
     0
290
     0
174
     0
 93
        1
 44
0.0
173
     0
291
     0
 45
0.0
1001
ACAD
1000
AcDbSavedByObjectVersion
1070
     0
  0
VISUALSTYLE
  5
31
102
{ACAD_REACTORS
330
2A
102
}
330
2A
100
AcDbVisualStyle
  2
3D Hidden
 70
     6
 71
     1
 72
     2
 73
     2
 90
        0
 40
-0.6
 41
-30.0
 62
     5
 63
     7
421
 16777215
 74
     2
 91
        2
 64
     7
 65
   257
 75
     2
175
     1
 42
40.0
 92
        0
 66
   257
 43
1.0
 76
     1
 77
     6
 78
     2
 67
     7
 79
     3
170
     0
171
     0
290
     0
174
     0
 93
        1
 44
0.0
173
     0
291
     0
 45
0.0
1001
ACAD
1000
AcDbSavedByObjectVersion
1070
     0
  0
VISUALSTYLE
  5
30
102
{ACAD_REACTORS
330
2A
102
}
330
2A
100
AcDbVisualStyle
  2
3dWireframe
 70
     5
 71
     0
 72
     2
 73
     0
 90
        0
 40
-0.6
 41
-30.0
 62
     5
 63
     7
421
 16777215
 74
     1
 91
        4
 64
     7
 65
   257
 75
     1
175
     1
 42
1.0
 92
        0
 66
   257
 43
1.0
 76
     1
 77
     6
 78
     2
 67
     7
 79
     5
170
     0
171
     0
290
     0
174
     0
 93
        1
 44
0.0
173
     0
291
     0
 45
0.0
1001
ACAD
1000
AcDbSavedByObjectVersion
1070
     0
  0
VISUALSTYLE
  5
32
102
{ACAD_REACTORS
330
2A
102
}
330
2A
100
AcDbVisualStyle
  2
Basic
 70
     7
 71
     1
 72
     0
 73
     1
 90
        0
 40
-0.6
 41
-30.0
 62
     5
 63
     7
421
 16777215
 74
     0
 91
        4
 64
     7
 65
   257
 75
     1
175
     1
 42
1.0
 92
        8
 66
     7
 43
1.0
 76
     1
 77
     6
 78
     2
 67
     7
 79
     5
170
     0
171
     0
290
     0
174
     0
 93
        1
 44
0.0
173
     0
291
     1
 45
0.0
1001
ACAD
1000
AcDbSavedByObjectVersion
1070
     0
  0
VISUALSTYLE
  5
36
102
{ACAD_REACTORS
330
2A
102
}
330
2A
100
AcDbVisualStyle
  2
Brighten
 70
    12
 71
     2
 72
     2
 73
     0
 90
        0
 40
-0.6
 41
-30.0
 62
     5
 63
     7
421
 16777215
 74
     1
 91
        4
 64
     7
 65
   257
 75
     1
175
     1
 42
1.0
 92
        8
 66
     7
 43
1.0
 76
     1
 77
     6
 78
     2
 67
     7
 79
     5
170
     0
171
     0
290
     0
174
     0
 93
        1
 44
50.0
173
     0
291
     1
 45
0.0
1001
ACAD
1000
AcDbSavedByObjectVersion
1070
     0
  0
VISUALSTYLE
  5
3A
102
{ACAD_REACTORS
330
2A
102
}
330
2A
100
AcDbVisualStyle
  2
ColorChange
 70
    16
 71
     2
 72
     2
 73
     3
 90
        0
 40
-0.6
 41
-30.0
 62
     5
 63
     8
421
  8421504
 74
     1
 91
        4
 64
     7
 65
   257
 75
     1
175
     1
 42
1.0
 92
        8
 66
     8
424
  8421504
 43
1.0
 76
     1
 77
     6
 78
     2
 67
     7
 79
     5
170
     0
171
     0
290
     0
174
     0
 93
        1
 44
0.0
173
     0
291
     1
 45
0.0
1001
ACAD
1000
AcDbSavedByObjectVersion
1070
     0
  0
VISUALSTYLE
  5
34
102
{ACAD_REACTORS
330
2A
102
}
330
2A
100
AcDbVisualStyle
  2
Conceptual
 70
     9
 71
     3
 72
     2
 73
     0
 90
        0
 40
-0.6
 41
-30.0
 62
     5
 63
     7
421
 16777215
 74
     2
 91
        2
 64
     7
 65
   257
 75
     1
175
     1
 42
40.0
 92
        8
 66
     7
 43
1.0
 76
     1
 77
     6
 78
     2
 67
     7
 79
     3
170
     0
171
     0
290
     0
174
     0
 93
        1
 44
0.0
173
     0
291
     0
 45
0.0
1001
ACAD
1000
AcDbSavedByObjectVersion
1070
     0
  0
VISUALSTYLE
  5
35
102
{ACAD_REACTORS
330
2A
102
}
330
2A
100
AcDbVisualStyle
  2
Dim
 70
    11
 71
     2
 72
     2
 73
     0
 90
        0
 40
-0.6
 41
-30.0
 62
     5
 63
     7
421
 16777215
 74
     1
 91
        4
 64
     7
 65
   257
 75
     1
175
     1
 42
1.0
 92
        8
 66
     7
 43
1.0
 76
     1
 77
     6
 78
     2
 67
     7
 79
     5
170
     0
171
     0
290
     0
174
     0
 93
        1
 44
-50.0
173
     0
291
     1
 45
0.0
1001
ACAD
1000
AcDbSavedByObjectVersion
1070
     0
  0
VISUALSTYLE
  5
39
102
{ACAD_REACTORS
330
2A
102
}
330
2A
100
AcDbVisualStyle
  2
Facepattern
 70
    15
 71
     2
 72
     2
 73
     0
 90
        0
 40
-0.6
 41
-30.0
 62
     5
 63
     7
421
 16777215
 74
     1
 91
        4
 64
     7
 65
   257
 75
     1
175
     1
 42
1.0
 92
        8
 66
     7
 43
1.0
 76
     1
 77
     6
 78
     2
 67
     7
 79
     5
170
     0
171
     0
290
     0
174
     0
 93
        1
 44
0.0
173
     0
291
     1
 45
0.0
1001
ACAD
1000
AcDbSavedByObjectVersion
1070
     0
  0
VISUALSTYLE
  5
2B
102
{ACAD_REACTORS
330
2A
102
}
330
2A
100
AcDbVisualStyle
  2
Flat
 70
     0
 71
     2
 72
     1
 73
     1
 90
        2
 40
-0.6
 41
30.0
 62
     5
 63
     7
421
 16777215
 74
     0
 91
        4
 64
     7
 65
   257
 75
     1
175
     1
 42
1.0
 92
        8
 66
     7
 43
1.0
 76
     1
 77
     6
 78
     2
 67
     7
 79
     5
170
     0
171
     0
290
     0
174
     0
 93
       13
 44
0.0
173
     0
291
     1
 45
0.0
1001
ACAD
1000
AcDbSavedByObjectVersion
1070
     0
  0
VISUALSTYLE
  5
2C
102
{ACAD_REACTORS
330
2A
102
}
330
2A
100
AcDbVisualStyle
  2
FlatWithEdges
 70
     1
 71
     2
 72
     1
 73
     1
 90
        2
 40
-0.6
 41
30.0
 62
     5
 63
     7
421
 16777215
 74
     1
 91
        4
 64
     7
 65
   257
 75
     1
175
     1
 42
1.0
 92
        0
 66
   257
 43
1.0
 76
     1
 77
     6
 78
     2
 67
     7
 79
     5
170
     0
171
     0
290
     0
174
     0
 93
       13
 44
0.0
173
     0
291
     1
 45
0.0
1001
ACAD
1000
AcDbSavedByObjectVersion
1070
     0
  0
VISUALSTYLE
  5
2D
102
{ACAD_REACTORS
330
2A
102
}
330
2A
100
AcDbVisualStyle
  2
Gouraud
 70
     2
 71
     2
 72
     2
 73
     1
 90
        2
 40
-0.6
 41
30.0
 62
     5
 63
     7
421
 16777215
 74
     0
 91
        4
 64
     7
 65
   257
 75
     1
175
     1
 42
1.0
 92
        0
 66
     7
 43
1.0
 76
     1
 77
     6
 78
     2
 67
     7
 79
     5
170
     0
171
     0
290
     0
174
     0
 93
       13
 44
0.0
173
     0
291
     1
 45
0.0
1001
ACAD
1000
AcDbSavedByObjectVersion
1070
     0
  0
VISUALSTYLE
  5
2E
102
{ACAD_REACTORS
330
2A
102
}
330
2A
100
AcDbVisualStyle
  2
GouraudWithEdges
 70
     3
 71
     2
 72
     2
 73
     1
 90
        2
 40
-0.6
 41
30.0
 62
     5
 63
     7
421
 16777215
 74
     1
 91
        4
 64
     7
 65
   257
 75
     1
175
     1
 42
1.0
 92
        0
 66
   257
 43
1.0
 76
     1
 77
     6
 78
     2
 67
     7
 79
     5
170
     0
171
     0
290
     0
174
     0
 93
       13
 44
0.0
173
     0
291
     1
 45
0.0
1001
ACAD
1000
AcDbSavedByObjectVersion
1070
     0
  0
VISUALSTYLE
  5
38
102
{ACAD_REACTORS
330
2A
102
}
330
2A
100
AcDbVisualStyle
  2
Linepattern
 70
    14
 71
     2
 72
     2
 73
     0
 90
        0
 40
-0.6
 41
-30.0
 62
     5
 63
     7
421
 16777215
 74
     1
 91
        4
 64
     7
 65
   257
 75
     7
175
     7
 42
1.0
 92
        8
 66
     7
 43
1.0
 76
     1
 77
     6
 78
     2
 67
     7
 79
     5
170
     0
171
     0
290
     0
174
     0
 93
        1
 44
0.0
173
     0
291
     1
 45
0.0
1001
ACAD
1000
AcDbSavedByObjectVersion
1070
     0
  0
VISUALSTYLE
  5
33
102
{ACAD_REACTORS
330
2A
102
}
330
2A
100
AcDbVisualStyle
  2
Realistic
 70
     8
 71
     2
 72
     2
 73
     0
 90
        0
 40
-0.6
 41
-30.0
 62
     5
 63
     7
421
 16777215
 74
     1
 91
        0
 64
     7
 65
   257
 75
     1
175
     1
 42
1.0
 92
        8
 66
     8
424
  7895160
 43
1.0
 76
     1
 77
     6
 78
     2
 67
     7
 79
     5
170
     0
171
     0
290
     0
174
     0
 93
       13
 44
0.0
173
     0
291
     0
 45
0.0
1001
ACAD
1000
AcDbSavedByObjectVersion
1070
     0
  0
VISUALSTYLE
  5
37
102
{ACAD_REACTORS
330
2A
102
}
330
2A
100
AcDbVisualStyle
  2
Thicken
 70
    13
 71
     2
 72
     2
 73
     0
 90
        0
 40
-0.6
 41
-30.0
 62
     5
 63
     7
421
 16777215
 74
     1
 91
        4
 64
     7
 65
   257
 75
     1
175
     1
 42
1.0
 92
       12
 66
     7
 43
1.0
 76
     1
 77
     6
 78
     2
 67
     7
 79
     5
170
     0
171
     0
290
     0
174
     0
 93
        1
 44
0.0
173
     0
291
     1
 45
0.0
1001
ACAD
1000
AcDbSavedByObjectVersion
1070
     0
  0
ENDSEC
  0
EOF
