  0
SECTION
  2
HEADER
  9
$ACADVER
  1
AC1012
  9
$DWGCODEPAGE
  3
ansi_1252
  9
$INSBASE
 10
0.0
 20
0.0
 30
0.0
  9
$EXTMIN
 10
-0.5
 20
-0.5
 30
-0.5
  9
$EXTMAX
 10
5.0
 20
5.0
 30
5.0
  9
$LIMMIN
 10
-0.5
 20
-0.5
  9
$LIMMAX
 10
5.0
 20
5.0
  9
$ORTHOMODE
 70
     0
  9
$REGENMODE
 70
     1
  9
$FILLMODE
 70
     1
  9
$QTEXTMODE
 70
     0
  9
$MIRRTEXT
 70
     1
  9
$DRAGMODE
 70
     2
  9
$LTSCALE
 40
1.0
  9
$OSMODE
 70
    37
  9
$ATTMODE
 70
     1
  9
$TEXTSIZE
 40
0.2
  9
$TRACEWID
 40
0.05
  9
$TEXTSTYLE
  7
STANDARD
  9
$CLAYER
  8
0
  9
$CELTYPE
  6
BYLAYER
  9
$CECOLOR
 62
   256
  9
$CELTSCALE
 40
1.0
  9
$DELOBJ
 70
     1
  9
$DISPSILH
 70
     0
  9
$DIMSCALE
 40
1.0
  9
$DIMASZ
 40
0.18
  9
$DIMEXO
 40
0.0625
  9
$DIMDLI
 40
0.38
  9
$DIMRND
 40
0.0
  9
$DIMDLE
 40
0.0
  9
$DIMEXE
 40
0.18
  9
$DIMTP
 40
0.0
  9
$DIMTM
 40
0.0
  9
$DIMTXT
 40
0.18
  9
$DIMCEN
 40
0.09
  9
$DIMTSZ
 40
0.0
  9
$DIMTOL
 70
     0
  9
$DIMLIM
 70
     0
  9
$DIMTIH
 70
     1
  9
$DIMTOH
 70
     1
  9
$DIMSE1
 70
     0
  9
$DIMSE2
 70
     0
  9
$DIMTAD
 70
     0
  9
$DIMZIN
 70
     0
  9
$DIMBLK
  1

  9
$DIMASO
 70
     1
  9
$DIMSHO
 70
     1
  9
$DIMPOST
  1

  9
$DIMAPOST
  1

  9
$DIMALT
 70
     0
  9
$DIMALTD
 70
     2
  9
$DIMALTF
 40
25.4
  9
$DIMLFAC
 40
1.0
  9
$DIMTOFL
 70
     0
  9
$DIMTVP
 40
0.0
  9
$DIMTIX
 70
     0
  9
$DIMSOXD
 70
     0
  9
$DIMSAH
 70
     0
  9
$DIMBLK1
  1

  9
$DIMBLK2
  1

  9
$DIMSTYLE
  2
STANDARD
  9
$DIMCLRD
 70
     0
  9
$DIMCLRE
 70
     0
  9
$DIMCLRT
 70
     0
  9
$DIMTFAC
 40
1.0
  9
$DIMGAP
 40
0.09
  9
$DIMJUST
 70
     0
  9
$DIMSD1
 70
     0
  9
$DIMSD2
 70
     0
  9
$DIMTOLJ
 70
     1
  9
$DIMTZIN
 70
     0
  9
$DIMALTZ
 70
     0
  9
$DIMALTTZ
 70
     0
  9
$DIMFIT
 70
     3
  9
$DIMUPT
 70
     0
  9
$DIMUNIT
 70
     2
  9
$DIMDEC
 70
     4
  9
$DIMTDEC
 70
     4
  9
$DIMALTU
 70
     2
  9
$DIMALTTD
 70
     2
  9
$DIMTXSTY
  7
STANDARD
  9
$DIMAUNIT
 70
     0
  9
$LUNITS
 70
     2
  9
$LUPREC
 70
     4
  9
$SKETCHINC
 40
0.1
  9
$FILLETRAD
 40
0.5
  9
$AUNITS
 70
     0
  9
$AUPREC
 70
     0
  9
$MENU
  1
.
  9
$ELEVATION
 40
0.0
  9
$PELEVATION
 40
0.0
  9
$THICKNESS
 40
0.0
  9
$LIMCHECK
 70
     0
  9
$CHAMFERA
 40
0.0
  9
$CHAMFERB
 40
0.0
  9
$CHAMFERC
 40
0.0
  9
$CHAMFERD
 40
0.0
  9
$SKPOLY
 70
     0
  9
$TDCREATE
 40
2459014.913034768
  9
$TDUPDATE
 40
2459014.913034884
  9
$TDINDWG
 40
0.0000000116
  9
$TDUSRTIMER
 40
0.0000000116
  9
$USRTIMER
 70
     1
  9
$ANGBASE
 50
0.0
  9
$ANGDIR
 70
     0
  9
$PDMODE
 70
     0
  9
$PDSIZE
 40
0.0
  9
$PLINEWID
 40
0.0
  9
$COORDS
 70
     1
  9
$SPLFRAME
 70
     0
  9
$SPLINETYPE
 70
     6
  9
$SPLINESEGS
 70
     8
  9
$ATTDIA
 70
     0
  9
$ATTREQ
 70
     1
  9
$HANDLING
 70
     1
  9
$HANDSEED
  5
137
  9
$SURFTAB1
 70
     6
  9
$SURFTAB2
 70
     6
  9
$SURFTYPE
 70
     6
  9
$SURFU
 70
     6
  9
$SURFV
 70
     6
  9
$UCSNAME
  2

  9
$UCSORG
 10
0.0
 20
0.0
 30
0.0
  9
$UCSXDIR
 10
1.0
 20
0.0
 30
0.0
  9
$UCSYDIR
 10
0.0
 20
1.0
 30
0.0
  9
$PUCSNAME
  2

  9
$PUCSORG
 10
0.0
 20
0.0
 30
0.0
  9
$PUCSXDIR
 10
1.0
 20
0.0
 30
0.0
  9
$PUCSYDIR
 10
0.0
 20
1.0
 30
0.0
  9
$USERI1
 70
     0
  9
$USERI2
 70
     0
  9
$USERI3
 70
     0
  9
$USERI4
 70
     0
  9
$USERI5
 70
     0
  9
$USERR1
 40
0.0
  9
$USERR2
 40
0.0
  9
$USERR3
 40
0.0
  9
$USERR4
 40
0.0
  9
$USERR5
 40
0.0
  9
$WORLDVIEW
 70
     1
  9
$SHADEDGE
 70
     3
  9
$SHADEDIF
 70
    70
  9
$TILEMODE
 70
     1
  9
$MAXACTVP
 70
    64
  9
$PINSBASE
 10
0.0
 20
0.0
 30
0.0
  9
$PLIMCHECK
 70
     0
  9
$PEXTMIN
 10
-0.5
 20
-0.5
 30
-0.5
  9
$PEXTMAX
 10
5.0
 20
5.0
 30
5.0
  9
$PLIMMIN
 10
-0.5
 20
-0.5
  9
$PLIMMAX
 10
5.0
 20
5.0
  9
$UNITMODE
 70
     0
  9
$VISRETAIN
 70
     1
  9
$PLINEGEN
 70
     0
  9
$PSLTSCALE
 70
     1
  9
$TREEDEPTH
 70
  3020
  9
$PICKSTYLE
 70
     1
  9
$CMLSTYLE
  2
STANDARD
  9
$CMLJUST
 70
     0
  9
$CMLSCALE
 40
1.0
  9
$SAVEIMAGES
 70
     1
  0
ENDSEC
  0
SECTION
  2
CLASSES
  0
CLASS
  1
ACDBDICTIONARYWDFLT
  2
AcDbDictionaryWithDefault
  3
ObjectDBX Classes
 90
    32768
280
     0
281
     0
  0
CLASS
  1
VISUALSTYLE
  2
AcDbVisualStyle
  3
ObjectDBX Classes
 90
     4095
280
     0
281
     0
  0
CLASS
  1
MATERIAL
  2
AcDbMaterial
  3
ObjectDBX Classes
 90
     1153
280
     0
281
     0
  0
CLASS
  1
SCALE
  2
AcDbScale
  3
ObjectDBX Classes
 90
     1153
280
     0
281
     0
  0
CLASS
  1
TABLESTYLE
  2
AcDbTableStyle
  3
ObjectDBX Classes
 90
     4095
280
     0
281
     0
  0
CLASS
  1
MLEADERSTYLE
  2
AcDbMLeaderStyle
  3
ACDB_MLEADERSTYLE_CLASS
 90
     4095
280
     0
281
     0
  0
CLASS
  1
SUN
  2
AcDbSun
  3
SCENEOE
 90
     1153
280
     0
281
     0
  0
CLASS
  1
DICTIONARYVAR
  2
AcDbDictionaryVar
  3
ObjectDBX Classes
 90
        0
280
     0
281
     0
  0
CLASS
  1
XRECORD
  2
AcDbXrecord
  3
ObjectDBX Classes
 90
    32768
280
     0
281
     0
  0
CLASS
  1
LWPOLYLINE
  2
AcDbPolyline
  3
ObjectDBX Classes
 90
    32768
280
     0
281
     1
  0
CLASS
  1
HATCH
  2
AcDbHatch
  3
ObjectDBX Classes
 90
    32768
280
     0
281
     1
  0
CLASS
  1
ACDBPLACEHOLDER
  2
AcDbPlaceHolder
  3
ObjectDBX Classes
 90
        0
280
     0
281
     0
  0
CLASS
  1
LAYOUT
  2
AcDbLayout
  3
ObjectDBX Classes
 90
        0
280
     0
281
     0
  0
ENDSEC
  0
SECTION
  2
TABLES
  0
TABLE
  2
VPORT
  5
8
330
0
100
AcDbSymbolTable
 70
    16
  0
VPORT
  5
29
330
8
100
AcDbSymbolTableRecord
100
AcDbViewportTableRecord
  2
*ACTIVE
 70
     0
 10
0.0
 20
0.0
 11
1.0
 21
1.0
 12
86.12166
 22
-8.599395
 13
0.0
 23
0.0
 14
0.5
 24
0.5
 15
0.5
 25
0.5
 16
0.0
 26
0.0
 36
1.0
 17
0.0
 27
0.0
 37
0.0
 40
254.0
 41
0.069908
 42
50.0
 43
293.096343
 44
-293.096343
 50
0.0
 51
0.0
 71
     0
 72
   100
 73
     1
 74
     3
 75
     0
 76
     0
 77
     0
 78
     0
  0
VPORT
  5
118
330
8
100
AcDbSymbolTableRecord
100
AcDbViewportTableRecord
  2
L1
 70
     0
 10
0.0
 20
0.0
 11
1.0
 21
1.0
 12
86.12166
 22
-8.599395
 13
0.0
 23
0.0
 14
0.5
 24
0.5
 15
0.5
 25
0.5
 16
0.0
 26
0.0
 36
1.0
 17
0.0
 27
0.0
 37
0.0
 40
254.0
 41
0.069908
 42
50.0
 43
293.096343
 44
-293.096343
 50
0.0
 51
0.0
 71
     0
 72
   100
 73
     1
 74
     3
 75
     0
 76
     0
 77
     0
 78
     0
  0
VPORT
  5
119
330
8
100
AcDbSymbolTableRecord
100
AcDbViewportTableRecord
  2
L2
 70
     0
 10
0.0
 20
0.0
 11
0.5
 21
1.0
 12
0.0
 22
0.0
 13
0.0
 23
0.0
 14
0.5
 24
0.5
 15
0.5
 25
0.5
 16
0.0
 26
-1.0
 36
0.0
 17
0.0
 27
0.0
 37
0.0
 40
1722.446139
 41
0.010309
 42
50.0
 43
889.864519
 44
-889.864519
 50
0.0
 51
0.0
 71
     0
 72
   100
 73
     1
 74
     3
 75
     0
 76
     0
 77
     0
 78
     0
  0
VPORT
  5
11A
330
8
100
AcDbSymbolTableRecord
100
AcDbViewportTableRecord
  2
L2
 70
     0
 10
0.5
 20
0.0
 11
1.0
 21
1.0
 12
0.0
 22
0.0
 13
0.0
 23
0.0
 14
0.5
 24
0.5
 15
0.5
 25
0.5
 16
1.0
 26
0.0
 36
0.0
 17
0.0
 27
0.0
 37
0.0
 40
1722.446139
 41
0.010309
 42
50.0
 43
870.536717
 44
-870.536717
 50
0.0
 51
0.0
 71
     0
 72
   100
 73
     1
 74
     3
 75
     0
 76
     0
 77
     0
 78
     0
  0
VPORT
  5
11B
330
8
100
AcDbSymbolTableRecord
100
AcDbViewportTableRecord
  2
L3
 70
     0
 10
0.0
 20
0.5
 11
1.0
 21
1.0
 12
86.12166
 22
-8.599395
 13
0.0
 23
0.0
 14
0.5
 24
0.5
 15
0.5
 25
0.5
 16
0.0
 26
0.0
 36
1.0
 17
0.0
 27
0.0
 37
0.0
 40
254.0
 41
0.069908
 42
50.0
 43
293.096343
 44
-293.096343
 50
0.0
 51
0.0
 71
     0
 72
   100
 73
     1
 74
     3
 75
     0
 76
     0
 77
     0
 78
     0
  0
VPORT
  5
11C
330
8
100
AcDbSymbolTableRecord
100
AcDbViewportTableRecord
  2
L3
 70
     0
 10
0.0
 20
0.0
 11
1.0
 21
0.5
 12
0.0
 22
0.0
 13
0.0
 23
0.0
 14
0.5
 24
0.5
 15
0.5
 25
0.5
 16
0.0
 26
-1.0
 36
0.0
 17
0.0
 27
0.0
 37
0.0
 40
1722.446139
 41
0.010309
 42
50.0
 43
889.864519
 44
-889.864519
 50
0.0
 51
0.0
 71
     0
 72
   100
 73
     1
 74
     3
 75
     0
 76
     0
 77
     0
 78
     0
  0
VPORT
  5
11D
330
8
100
AcDbSymbolTableRecord
100
AcDbViewportTableRecord
  2
L4
 70
     0
 10
0.0
 20
0.5
 11
0.5
 21
1.0
 12
86.12166
 22
-8.599395
 13
0.0
 23
0.0
 14
0.5
 24
0.5
 15
0.5
 25
0.5
 16
0.0
 26
0.0
 36
1.0
 17
0.0
 27
0.0
 37
0.0
 40
254.0
 41
0.069908
 42
50.0
 43
293.096343
 44
-293.096343
 50
0.0
 51
0.0
 71
     0
 72
   100
 73
     1
 74
     3
 75
     0
 76
     0
 77
     0
 78
     0
  0
VPORT
  5
11E
330
8
100
AcDbSymbolTableRecord
100
AcDbViewportTableRecord
  2
L4
 70
     0
 10
0.0
 20
0.0
 11
0.5
 21
0.5
 12
0.0
 22
0.0
 13
0.0
 23
0.0
 14
0.5
 24
0.5
 15
0.5
 25
0.5
 16
0.0
 26
-1.0
 36
0.0
 17
0.0
 27
0.0
 37
0.0
 40
1722.446139
 41
0.010309
 42
50.0
 43
889.864519
 44
-889.864519
 50
0.0
 51
0.0
 71
     0
 72
   100
 73
     1
 74
     3
 75
     0
 76
     0
 77
     0
 78
     0
  0
VPORT
  5
11F
330
8
100
AcDbSymbolTableRecord
100
AcDbViewportTableRecord
  2
L4
 70
     0
 10
0.5
 20
0.0
 11
1.0
 21
0.5
 12
0.0
 22
0.0
 13
0.0
 23
0.0
 14
0.5
 24
0.5
 15
0.5
 25
0.5
 16
1.0
 26
0.0
 36
0.0
 17
0.0
 27
0.0
 37
0.0
 40
1722.446139
 41
0.010309
 42
50.0
 43
870.536717
 44
-870.536717
 50
0.0
 51
0.0
 71
     0
 72
   100
 73
     1
 74
     3
 75
     0
 76
     0
 77
     0
 78
     0
  0
VPORT
  5
120
330
8
100
AcDbSymbolTableRecord
100
AcDbViewportTableRecord
  2
L4
 70
     0
 10
0.5
 20
0.5
 11
1.0
 21
1.0
 12
0.0
 22
0.0
 13
0.0
 23
0.0
 14
0.5
 24
0.5
 15
0.5
 25
0.5
 16
0.5773502691896258
 26
-0.5773502691896258
 36
0.5773502691896258
 17
0.0
 27
0.0
 37
0.0
 40
1692.921011
 41
0.010489
 42
50.0
 43
882.087526
 44
-882.087526
 50
0.0
 51
0.0
 71
     0
 72
   100
 73
     1
 74
     3
 75
     0
 76
     0
 77
     0
 78
     0
  0
VPORT
  5
121
330
8
100
AcDbSymbolTableRecord
100
AcDbViewportTableRecord
  2
L6
 70
     0
 10
0.0
 20
0.5
 11
0.333333
 21
1.0
 12
0.0
 22
0.0
 13
0.0
 23
0.0
 14
0.5
 24
0.5
 15
0.5
 25
0.5
 16
0.7188730927569433
 26
-0.5850486126764433
 36
0.3754192287502549
 17
0.0
 27
0.0
 37
0.0
 40
1787.067077
 41
0.009936
 42
50.0
 43
925.168439
 44
-925.168439
 50
0.0
 51
0.0
 71
     0
 72
   100
 73
     1
 74
     3
 75
     0
 76
     0
 77
     0
 78
     0
  0
VPORT
  5
122
330
8
100
AcDbSymbolTableRecord
100
AcDbViewportTableRecord
  2
L6
 70
     0
 10
0.0
 20
0.0
 11
0.333333
 21
0.5
 12
0.0
 22
0.0
 13
0.0
 23
0.0
 14
0.5
 24
0.5
 15
0.5
 25
0.5
 16
-1.0
 26
0.0
 36
0.0
 17
0.0
 27
0.0
 37
0.0
 40
1722.446139
 41
0.010309
 42
50.0
 43
870.536717
 44
-870.536717
 50
0.0
 51
0.0
 71
     0
 72
   100
 73
     1
 74
     3
 75
     0
 76
     0
 77
     0
 78
     0
  0
VPORT
  5
123
330
8
100
AcDbSymbolTableRecord
100
AcDbViewportTableRecord
  2
L6
 70
     0
 10
0.333333
 20
0.5
 11
0.666667
 21
1.0
 12
86.12166
 22
-8.599395
 13
0.0
 23
0.0
 14
0.5
 24
0.5
 15
0.5
 25
0.5
 16
0.0
 26
0.0
 36
1.0
 17
0.0
 27
0.0
 37
0.0
 40
254.0
 41
0.069908
 42
50.0
 43
293.096343
 44
-293.096343
 50
0.0
 51
0.0
 71
     0
 72
   100
 73
     1
 74
     3
 75
     0
 76
     0
 77
     0
 78
     0
  0
VPORT
  5
124
330
8
100
AcDbSymbolTableRecord
100
AcDbViewportTableRecord
  2
L6
 70
     0
 10
0.333333
 20
0.0
 11
0.666667
 21
0.5
 12
0.0
 22
0.0
 13
0.0
 23
0.0
 14
0.5
 24
0.5
 15
0.5
 25
0.5
 16
0.0
 26
-1.0
 36
0.0
 17
0.0
 27
0.0
 37
0.0
 40
1722.446139
 41
0.010309
 42
50.0
 43
889.864519
 44
-889.864519
 50
0.0
 51
0.0
 71
     0
 72
   100
 73
     1
 74
     3
 75
     0
 76
     0
 77
     0
 78
     0
  0
VPORT
  5
125
330
8
100
AcDbSymbolTableRecord
100
AcDbViewportTableRecord
  2
L6
 70
     0
 10
0.666667
 20
0.5
 11
1.0
 21
1.0
 12
0.0
 22
0.0
 13
0.0
 23
0.0
 14
0.5
 24
0.5
 15
0.5
 25
0.5
 16
0.5773502691896258
 26
-0.5773502691896258
 36
0.5773502691896258
 17
0.0
 27
0.0
 37
0.0
 40
1692.921011
 41
0.010489
 42
50.0
 43
882.087526
 44
-882.087526
 50
0.0
 51
0.0
 71
     0
 72
   100
 73
     1
 74
     3
 75
     0
 76
     0
 77
     0
 78
     0
  0
VPORT
  5
126
330
8
100
AcDbSymbolTableRecord
100
AcDbViewportTableRecord
  2
L6
 70
     0
 10
0.666667
 20
0.0
 11
1.0
 21
0.5
 12
0.0
 22
0.0
 13
0.0
 23
0.0
 14
0.5
 24
0.5
 15
0.5
 25
0.5
 16
1.0
 26
0.0
 36
0.0
 17
0.0
 27
0.0
 37
0.0
 40
1722.446139
 41
0.010309
 42
50.0
 43
870.536717
 44
-870.536717
 50
0.0
 51
0.0
 71
     0
 72
   100
 73
     1
 74
     3
 75
     0
 76
     0
 77
     0
 78
     0
  0
ENDTAB
  0
TABLE
  2
LTYPE
  5
5
330
0
100
AcDbSymbolTable
 70
     6
  0
LTYPE
  5
14
330
5
100
AcDbSymbolTableRecord
100
AcDbLinetypeTableRecord
  2
BYBLOCK
 70
     0
  3

 72
    65
 73
     0
 40
0.0
  0
LTYPE
  5
15
330
5
100
AcDbSymbolTableRecord
100
AcDbLinetypeTableRecord
  2
BYLAYER
 70
     0
  3

 72
    65
 73
     0
 40
0.0
  0
LTYPE
  5
16
330
5
100
AcDbSymbolTableRecord
100
AcDbLinetypeTableRecord
  2
CONTINUOUS
 70
     0
  3
Solid line
 72
    65
 73
     0
 40
0.0
  0
LTYPE
  5
6E
330
5
100
AcDbSymbolTableRecord
100
AcDbLinetypeTableRecord
  2
CENTER
 70
     0
  3
____ _ ____ _ ____ _ ____
 72
    65
 73
     4
 40
47.4
 49
22.0
 74
     4
 75
     0
340
0
 46
0.0
 50
0.0
 44
0.0
 45
0.0
 49
-8.5
 74
     4
 75
     0
340
0
 46
0.0
 50
0.0
 44
0.0
 45
0.0
 49
8.5
 74
     4
 75
     0
340
0
 46
0.0
 50
0.0
 44
0.0
 45
0.0
 49
-8.5
 74
     4
 75
     0
340
0
 46
0.0
 50
0.0
 44
0.0
 45
0.0
  0
LTYPE
  5
6F
330
5
100
AcDbSymbolTableRecord
100
AcDbLinetypeTableRecord
  2
DASHDOT
 70
     0
  3
_._._._._._._._._._._._._._._._.
 72
    65
 73
     4
 40
70.0
 49
31.0
 74
     4
 75
     0
340
0
 46
0.0
 50
0.0
 44
0.0
 45
0.0
 49
-13.0
 74
     4
 75
     0
340
0
 46
0.0
 50
0.0
 44
0.0
 45
0.0
 49
13.0
 74
     4
 75
     0
340
0
 46
0.0
 50
0.0
 44
0.0
 45
0.0
 49
-13.0
 74
     4
 75
     0
340
0
 46
0.0
 50
0.0
 44
0.0
 45
0.0
  0
LTYPE
  5
70
330
5
100
AcDbSymbolTableRecord
100
AcDbLinetypeTableRecord
  2
DASHED
 70
     0
  3
__ __ __ __ __ __ __ __ __
 72
    65
 73
     2
 40
25.72
 49
12.86
 74
     4
 75
     0
340
0
 46
0.0
 50
0.0
 44
0.0
 45
0.0
 49
-12.86
 74
     4
 75
     0
340
0
 46
0.0
 50
0.0
 44
0.0
 45
0.0
  0
LTYPE
  5
71
330
5
100
AcDbSymbolTableRecord
100
AcDbLinetypeTableRecord
  2
DOT
 70
     0
  3
.........................
 72
    65
 73
     2
 40
10.0
 49
0.0
 74
     4
 75
     0
340
0
 46
0.0
 50
0.0
 44
0.0
 45
0.0
 49
-10.0
 74
     4
 75
     0
340
0
 46
0.0
 50
0.0
 44
0.0
 45
0.0
  0
LTYPE
  5
72
330
5
100
AcDbSymbolTableRecord
100
AcDbLinetypeTableRecord
  2
PHANTOM
 70
     0
  3
____ _ _ ____ _ _ _____ _ _ ____
 72
    65
 73
     6
 40
50.5
 49
18.0
 74
     4
 75
     0
340
0
 46
0.0
 50
0.0
 44
0.0
 45
0.0
 49
-6.5
 74
     4
 75
     0
340
0
 46
0.0
 50
0.0
 44
0.0
 45
0.0
 49
6.5
 74
     4
 75
     0
340
0
 46
0.0
 50
0.0
 44
0.0
 45
0.0
 49
-6.5
 74
     4
 75
     0
340
0
 46
0.0
 50
0.0
 44
0.0
 45
0.0
 49
6.5
 74
     4
 75
     0
340
0
 46
0.0
 50
0.0
 44
0.0
 45
0.0
 49
-6.5
 74
     4
 75
     0
340
0
 46
0.0
 50
0.0
 44
0.0
 45
0.0
  0
ENDTAB
  0
TABLE
  2
LAYER
  5
2
330
0
100
AcDbSymbolTable
 70
     3
  0
LAYER
  5
10
330
2
100
AcDbSymbolTableRecord
100
AcDbLayerTableRecord
  2
0
 70
     0
 62
     7
  6
CONTINUOUS
  0
LAYER
  5
74
330
2
100
AcDbSymbolTableRecord
100
AcDbLayerTableRecord
  2
61
 70
     0
 62
     7
  6
CONTINUOUS
  0
LAYER
  5
76
330
2
100
AcDbSymbolTableRecord
100
AcDbLayerTableRecord
  2
1
 70
     0
 62
     7
  6
CONTINUOUS
  0
ENDTAB
  0
TABLE
  2
STYLE
  5
3
330
0
100
AcDbSymbolTable
 70
     1
  0
STYLE
  5
11
330
3
100
AcDbSymbolTableRecord
100
AcDbTextStyleTableRecord
  2
STANDARD
 70
     0
 40
0.0
 41
1.0
 50
0.0
 71
     0
 42
0.2
  3
txt
  4

  0
ENDTAB
  0
TABLE
  2
VIEW
  5
6
330
0
100
AcDbSymbolTable
 70
     0
  0
ENDTAB
  0
TABLE
  2
UCS
  5
7
330
0
100
AcDbSymbolTable
 70
     0
  0
ENDTAB
  0
TABLE
  2
APPID
  5
9
330
0
100
AcDbSymbolTable
 70
     2
  0
APPID
  5
12
330
9
100
AcDbSymbolTableRecord
100
AcDbRegAppTableRecord
  2
ACAD
 70
     0
  0
APPID
  5
136
330
9
100
AcDbSymbolTableRecord
100
AcDbRegAppTableRecord
  2
ACAD_MLEADERVER
 70
     0
  0
ENDTAB
  0
TABLE
  2
DIMSTYLE
  5
A
330
0
100
AcDbSymbolTable
 70
     1
  0
DIMSTYLE
105
27
330
A
100
AcDbSymbolTableRecord
100
AcDbDimStyleTableRecord
  2
STANDARD
 70
     0
  3

  4

  5

  6

  7

 40
1.0
 41
0.18
 42
0.0625
 43
0.38
 44
0.18
 45
0.0
 46
0.0
 47
0.0
 48
0.0
140
0.18
141
0.09
142
0.0
143
25.4
144
1.0
145
0.0
146
1.0
147
0.09
 71
     0
 72
     0
 73
     1
 74
     1
 75
     0
 76
     0
 77
     0
 78
     0
170
     0
171
     2
172
     0
173
     0
174
     0
175
     0
176
     0
177
     0
178
     0
270
     2
271
     4
272
     4
273
     2
274
     2
340
11
275
     0
280
     0
281
     0
282
     0
283
     1
284
     0
285
     0
286
     0
287
     3
288
     0
  0
ENDTAB
  0
TABLE
  2
BLOCK_RECORD
  5
1
330
0
100
AcDbSymbolTable
 70
     0
  0
BLOCK_RECORD
  5
1F
330
1
100
AcDbSymbolTableRecord
100
AcDbBlockTableRecord
  2
*MODEL_SPACE
  0
BLOCK_RECORD
  5
1B
330
1
100
AcDbSymbolTableRecord
100
AcDbBlockTableRecord
  2
*PAPER_SPACE
  0
ENDTAB
  0
ENDSEC
  0
SECTION
  2
BLOCKS
  0
BLOCK
  5
20
330
1F
100
AcDbEntity
  8
0
100
AcDbBlockBegin
  2
*MODEL_SPACE
 70
     0
 10
0.0
 20
0.0
 30
0.0
  3
*MODEL_SPACE
  1

  0
ENDBLK
  5
21
330
1F
100
AcDbEntity
  8
0
100
AcDbBlockEnd
  0
BLOCK
  5
1C
330
1B
100
AcDbEntity
 67
     1
  8
0
100
AcDbBlockBegin
  2
*PAPER_SPACE
 70
     0
 10
0.0
 20
0.0
 30
0.0
  3
*PAPER_SPACE
  1

  0
ENDBLK
  5
1D
330
1B
100
AcDbEntity
 67
     1
  8
0
100
AcDbBlockEnd
  0
ENDSEC
  0
SECTION
  2
ENTITIES
  0
POINT
  5
73
330
1F
100
AcDbEntity
  8
61
  6
CONTINUOUS
 62
    43
100
AcDbPoint
 10
0.0
 20
0.0
 30
0.0
  0
LINE
  5
75
330
1F
100
AcDbEntity
  8
1
  6
CONTINUOUS
 62
   252
100
AcDbLine
 10
20.318237
 20
-0.542051
 30
0.0
 11
20.318237
 21
2.238514
 31
0.0
  0
LINE
  5
77
330
1F
100
AcDbEntity
  8
1
  6
CONTINUOUS
 62
   252
100
AcDbLine
 10
7.818237
 20
2.238514
 30
0.0
 11
7.818237
 21
-0.542051
 31
0.0
  0
LINE
  5
78
330
1F
100
AcDbEntity
  8
1
  6
CONTINUOUS
 62
   252
100
AcDbLine
 10
82.366605
 20
18.415691
 30
0.0
 11
82.366605
 21
21.196256
 31
0.0
  0
LINE
  5
79
330
1F
100
AcDbEntity
  8
1
  6
CONTINUOUS
 62
   252
100
AcDbLine
 10
69.866605
 20
21.196256
 30
0.0
 11
69.866605
 21
18.415691
 31
0.0
  0
LINE
  5
7A
330
1F
100
AcDbEntity
  8
1
  6
CONTINUOUS
 62
   252
100
AcDbLine
 10
102.376714
 20
-38.395046
 30
0.0
 11
102.376714
 21
-35.61448
 31
0.0
  0
LINE
  5
7B
330
1F
100
AcDbEntity
  8
1
  6
CONTINUOUS
 62
   252
100
AcDbLine
 10
89.876714
 20
-35.61448
 30
0.0
 11
89.876714
 21
-38.395046
 31
0.0
  0
LINE
  5
7C
330
1F
100
AcDbEntity
  8
1
  6
CONTINUOUS
 62
   252
100
AcDbLine
 10
164.425082
 20
-19.437304
 30
0.0
 11
164.425082
 21
-16.656739
 31
0.0
  0
LINE
  5
7D
330
1F
100
AcDbEntity
  8
1
  6
CONTINUOUS
 62
   252
100
AcDbLine
 10
151.925082
 20
-16.656739
 30
0.0
 11
151.925082
 21
-19.437304
 31
0.0
  0
LINE
  5
7E
330
1F
100
AcDbEntity
  8
1
  6
CONTINUOUS
 62
   252
100
AcDbLine
 10
112.91606
 20
-35.239284
 30
0.0
 11
112.91606
 21
-32.458719
 31
0.0
  0
LINE
  5
7F
330
1F
100
AcDbEntity
  8
1
  6
CONTINUOUS
 62
   252
100
AcDbLine
 10
22.701487
 20
6.85016
 30
0.0
 11
22.701487
 21
4.069595
 31
0.0
  0
LINE
  5
80
330
1F
100
AcDbEntity
  8
1
  6
CONTINUOUS
 62
   252
100
AcDbLine
 10
120.241214
 20
-33.001217
 30
0.0
 11
120.241214
 21
-30.220652
 31
0.0
  0
LINE
  5
81
330
1F
100
AcDbEntity
  8
1
  6
CONTINUOUS
 62
   252
100
AcDbLine
 10
30.026641
 20
9.088227
 30
0.0
 11
30.026641
 21
6.307662
 31
0.0
  0
LINE
  5
82
330
1F
100
AcDbEntity
  8
1
  6
CONTINUOUS
 62
   252
100
AcDbLine
 10
127.566369
 20
-30.76315
 30
0.0
 11
127.566369
 21
-27.982585
 31
0.0
  0
LINE
  5
83
330
1F
100
AcDbEntity
  8
1
  6
CONTINUOUS
 62
   252
100
AcDbLine
 10
37.351796
 20
11.326294
 30
0.0
 11
37.351796
 21
8.545729
 31
0.0
  0
LINE
  5
84
330
1F
100
AcDbEntity
  8
1
  6
CONTINUOUS
 62
   252
100
AcDbLine
 10
134.891523
 20
-28.525084
 30
0.0
 11
134.891523
 21
-25.744518
 31
0.0
  0
LINE
  5
85
330
1F
100
AcDbEntity
  8
1
  6
CONTINUOUS
 62
   252
100
AcDbLine
 10
44.67695
 20
13.564361
 30
0.0
 11
44.67695
 21
10.783795
 31
0.0
  0
LINE
  5
86
330
1F
100
AcDbEntity
  8
1
  6
CONTINUOUS
 62
   252
100
AcDbLine
 10
142.216678
 20
-26.287017
 30
0.0
 11
142.216678
 21
-23.506452
 31
0.0
  0
LINE
  5
87
330
1F
100
AcDbEntity
  8
1
  6
CONTINUOUS
 62
   252
100
AcDbLine
 10
149.541832
 20
-24.04895
 30
0.0
 11
149.541832
 21
-21.268385
 31
0.0
  0
LINE
  5
88
330
1F
100
AcDbEntity
  8
1
  6
CONTINUOUS
 62
   252
100
AcDbLine
 10
52.002105
 20
15.802427
 30
0.0
 11
52.002105
 21
13.021862
 31
0.0
  0
LINE
  5
89
330
1F
100
AcDbEntity
  8
1
  6
CONTINUOUS
 62
   252
100
AcDbLine
 10
59.32726
 20
18.040494
 30
0.0
 11
59.32726
 21
15.259929
 31
0.0
  0
LINE
  5
8A
330
1F
100
AcDbEntity
  8
1
  6
CONTINUOUS
 62
   252
100
AcDbLine
 10
148.175082
 20
-16.656739
 30
0.0
 11
148.175082
 21
-19.437304
 31
0.0
  0
LINE
  5
8B
330
1F
100
AcDbEntity
  8
1
  6
CONTINUOUS
 62
   252
100
AcDbLine
 10
24.068237
 20
-0.542051
 30
0.0
 11
24.068237
 21
2.238514
 31
0.0
  0
LINE
  5
8C
330
1F
100
AcDbEntity
  8
1
  6
CONTINUOUS
 62
   252
100
AcDbLine
 10
59.888248
 20
17.448065
 30
0.0
 11
59.888248
 21
14.667499
 31
0.0
  0
LINE
  5
8D
330
1F
100
AcDbEntity
  8
1
  6
CONTINUOUS
 62
   252
100
AcDbLine
 10
149.07345
 20
-15.101565
 30
0.0
 11
149.07345
 21
-17.882131
 31
0.0
  0
LINE
  5
8E
330
1F
100
AcDbEntity
  8
1
  6
CONTINUOUS
 62
   252
100
AcDbLine
 10
145.102821
 20
-21.860814
 30
0.0
 11
145.102821
 21
-24.64138
 31
0.0
  0
LINE
  5
8F
330
1F
100
AcDbEntity
  8
1
  6
CONTINUOUS
 62
   252
100
AcDbLine
 10
20.380427
 20
-0.673255
 30
0.0
 11
89.814524
 21
-32.702712
 31
0.0
  0
LINE
  5
90
330
1F
100
AcDbEntity
  8
1
  6
CONTINUOUS
 62
   252
100
AcDbLine
 10
123.127357
 20
-28.575015
 30
0.0
 11
37.912784
 21
10.733865
 31
0.0
  0
LINE
  5
91
330
1F
100
AcDbEntity
  8
1
  6
CONTINUOUS
 62
   252
100
AcDbLine
 10
27.140498
 20
7.44259
 30
0.0
 11
112.355071
 21
-31.866289
 31
0.0
  0
LINE
  5
92
330
1F
100
AcDbEntity
  8
1
  6
CONTINUOUS
 62
   252
100
AcDbLine
 10
130.452512
 20
-29.117513
 30
0.0
 11
45.237939
 21
10.191366
 31
0.0
  0
LINE
  5
93
330
1F
100
AcDbEntity
  8
1
  6
CONTINUOUS
 62
   252
100
AcDbLine
 10
151.862892
 20
-16.525535
 30
0.0
 11
82.428795
 21
15.503922
 31
0.0
  0
LINE
  5
94
330
1F
100
AcDbEntity
  8
1
  6
CONTINUOUS
 62
   252
100
AcDbLine
 10
85.461145
 20
19.859449
 30
0.0
 11
156.586588
 21
-12.950214
 31
0.0
  0
LINE
  5
95
330
1F
100
AcDbEntity
  8
1
  6
CONTINUOUS
 62
   252
100
AcDbLine
 10
141.655689
 20
-22.914022
 30
0.0
 11
141.655689
 21
-25.694588
 31
0.0
  0
LINE
  5
96
330
1F
100
AcDbEntity
  8
1
  6
CONTINUOUS
 62
   252
100
AcDbLine
 10
137.777666
 20
-24.098881
 30
0.0
 11
137.777666
 21
-26.879446
 31
0.0
  0
LINE
  5
97
330
1F
100
AcDbEntity
  8
1
  6
CONTINUOUS
 62
   252
100
AcDbLine
 10
137.777666
 20
-24.098881
 30
0.0
 11
52.563093
 21
15.209998
 31
0.0
  0
LINE
  5
98
330
1F
100
AcDbEntity
  8
1
  6
CONTINUOUS
 62
   252
100
AcDbLine
 10
52.563093
 20
15.209998
 30
0.0
 11
52.563093
 21
12.429433
 31
0.0
  0
LINE
  5
99
330
1F
100
AcDbEntity
  8
1
  6
CONTINUOUS
 62
   252
100
AcDbLine
 10
63.766271
 20
15.852358
 30
0.0
 11
148.980844
 21
-23.456521
 31
0.0
  0
LINE
  5
9A
330
1F
100
AcDbEntity
  8
1
  6
CONTINUOUS
 62
   252
100
AcDbLine
 10
0.0
 20
0.0
 30
0.0
 11
94.682859
 21
-43.676532
 31
0.0
  0
LINE
  5
9B
330
1F
100
AcDbEntity
  8
1
  6
CONTINUOUS
 62
   252
100
AcDbLine
 10
15.656731
 20
-1.46801
 30
0.0
 11
15.656731
 21
-4.248576
 31
0.0
  0
LINE
  5
9C
330
1F
100
AcDbEntity
  8
1
  6
CONTINUOUS
 62
   252
100
AcDbLine
 10
93.919345
 20
-31.952891
 30
0.0
 11
93.919345
 21
-34.733457
 31
0.0
  0
LINE
  5
9D
330
1F
100
AcDbEntity
  8
1
  6
CONTINUOUS
 62
   252
100
AcDbLine
 10
115.802203
 20
-33.593647
 30
0.0
 11
30.58763
 21
5.715232
 31
0.0
  0
LINE
  5
9E
330
1F
100
AcDbEntity
  8
1
  6
CONTINUOUS
 62
   252
100
AcDbLine
 10
148.980844
 20
-20.675955
 30
0.0
 11
148.980844
 21
-23.456521
 31
0.0
  0
LINE
  5
9F
330
1F
100
AcDbEntity
  8
1
  6
CONTINUOUS
 62
   252
100
AcDbLine
 10
34.465653
 20
6.900091
 30
0.0
 11
119.680226
 21
-32.408788
 31
0.0
  0
LINE
  5
A0
330
1F
100
AcDbEntity
  8
1
  6
CONTINUOUS
 62
   252
100
AcDbLine
 10
151.862892
 20
-13.74497
 30
0.0
 11
151.862892
 21
-16.525535
 31
0.0
  0
LINE
  5
A1
330
1F
100
AcDbEntity
  8
1
  6
CONTINUOUS
 62
   252
100
AcDbLine
 10
94.682859
 20
-40.895967
 30
0.0
 11
172.243319
 21
-17.19879
 31
0.0
  0
LINE
  5
A2
330
1F
100
AcDbEntity
  8
1
  6
CONTINUOUS
 62
   252
100
AcDbLine
 10
78.323974
 20
14.754102
 30
0.0
 11
149.07345
 21
-17.882131
 31
0.0
  0
LINE
  5
A3
330
1F
100
AcDbEntity
  8
1
  6
CONTINUOUS
 62
   252
100
AcDbLine
 10
123.127357
 20
-28.575015
 30
0.0
 11
123.127357
 21
-31.35558
 31
0.0
  0
LINE
  5
A4
330
1F
100
AcDbEntity
  8
1
  6
CONTINUOUS
 62
   252
100
AcDbLine
 10
0.0
 20
2.780565
 30
0.0
 11
0.0
 21
0.0
 31
0.0
  0
LINE
  5
A5
330
1F
100
AcDbEntity
  8
1
  6
CONTINUOUS
 62
   252
100
AcDbLine
 10
86.782174
 20
-37.058239
 30
0.0
 11
15.656731
 21
-4.248576
 31
0.0
  0
LINE
  5
A6
330
1F
100
AcDbEntity
  8
1
  6
CONTINUOUS
 62
   252
100
AcDbLine
 10
85.461145
 20
19.859449
 30
0.0
 11
85.461145
 21
17.078884
 31
0.0
  0
LINE
  5
A7
330
1F
100
AcDbEntity
  8
1
  6
CONTINUOUS
 62
   252
100
AcDbLine
 10
89.814524
 20
-32.702712
 30
0.0
 11
89.814524
 21
-35.483277
 31
0.0
  0
LINE
  5
A8
330
1F
100
AcDbEntity
  8
1
  6
CONTINUOUS
 62
   252
100
AcDbLine
 10
34.465653
 20
9.680657
 30
0.0
 11
119.680226
 21
-29.628222
 31
0.0
  0
LINE
  5
A9
330
1F
100
AcDbEntity
  8
1
  6
CONTINUOUS
 62
   252
100
AcDbLine
 10
119.680226
 20
-29.628222
 30
0.0
 11
119.680226
 21
-32.408788
 31
0.0
  0
LINE
  5
AA
330
1F
100
AcDbEntity
  8
1
  6
CONTINUOUS
 62
   252
100
AcDbLine
 10
94.682859
 20
-40.895967
 30
0.0
 11
94.682859
 21
-43.676532
 31
0.0
  0
LINE
  5
AB
330
1F
100
AcDbEntity
  8
1
  6
CONTINUOUS
 62
   252
100
AcDbLine
 10
30.58763
 20
8.495798
 30
0.0
 11
30.58763
 21
5.715232
 31
0.0
  0
LINE
  5
AC
330
1F
100
AcDbEntity
  8
1
  6
CONTINUOUS
 62
   252
100
AcDbLine
 10
20.380427
 20
-0.673255
 30
0.0
 11
20.380427
 21
-3.45382
 31
0.0
  0
LINE
  5
AD
330
1F
100
AcDbEntity
  8
1
  6
CONTINUOUS
 62
   252
100
AcDbLine
 10
41.790807
 20
11.918723
 30
0.0
 11
127.00538
 21
-27.390156
 31
0.0
  0
LINE
  5
AE
330
1F
100
AcDbEntity
  8
1
  6
CONTINUOUS
 62
   252
100
AcDbLine
 10
148.775293
 20
-17.937791
 30
0.0
 11
70.866085
 21
18.001175
 31
0.0
  0
LINE
  5
AF
330
1F
100
AcDbEntity
  8
1
  6
CONTINUOUS
 62
   252
100
AcDbLine
 10
77.56046
 20
26.477743
 30
0.0
 11
0.0
 21
2.780565
 31
0.0
  0
LINE
  5
B0
330
1F
100
AcDbEntity
  8
1
  6
CONTINUOUS
 62
   252
100
AcDbLine
 10
27.140498
 20
7.44259
 30
0.0
 11
27.140498
 21
4.662025
 31
0.0
  0
LINE
  5
B1
330
1F
100
AcDbEntity
  8
1
  6
CONTINUOUS
 62
   252
100
AcDbLine
 10
20.380427
 20
-3.45382
 30
0.0
 11
89.814524
 21
-35.483277
 31
0.0
  0
LINE
  5
B2
330
1F
100
AcDbEntity
  8
1
  6
CONTINUOUS
 62
   252
100
AcDbLine
 10
137.777666
 20
-26.879446
 30
0.0
 11
52.563093
 21
12.429433
 31
0.0
  0
LINE
  5
B3
330
1F
100
AcDbEntity
  8
1
  6
CONTINUOUS
 62
   252
100
AcDbLine
 10
34.465653
 20
9.680657
 30
0.0
 11
34.465653
 21
6.900091
 31
0.0
  0
LINE
  5
B4
330
1F
100
AcDbEntity
  8
1
  6
CONTINUOUS
 62
   252
100
AcDbLine
 10
123.127357
 20
-31.35558
 30
0.0
 11
37.912784
 21
7.953299
 31
0.0
  0
LINE
  5
B5
330
1F
100
AcDbEntity
  8
1
  6
CONTINUOUS
 62
   252
100
AcDbLine
 10
172.243319
 20
-17.19879
 30
0.0
 11
172.243319
 21
-19.979355
 31
0.0
  0
LINE
  5
B6
330
1F
100
AcDbEntity
  8
1
  6
CONTINUOUS
 62
   252
100
AcDbLine
 10
93.919345
 20
-34.733457
 30
0.0
 11
23.169869
 21
-2.097224
 31
0.0
  0
LINE
  5
B7
330
1F
100
AcDbEntity
  8
1
  6
CONTINUOUS
 62
   252
100
AcDbLine
 10
127.00538
 20
-27.390156
 30
0.0
 11
127.00538
 21
-30.170721
 31
0.0
  0
LINE
  5
B8
330
1F
100
AcDbEntity
  8
1
  6
CONTINUOUS
 62
   252
100
AcDbLine
 10
148.775293
 20
-20.718356
 30
0.0
 11
70.866085
 21
15.22061
 31
0.0
  0
LINE
  5
B9
330
1F
100
AcDbEntity
  8
1
  6
CONTINUOUS
 62
   252
100
AcDbLine
 10
94.682859
 20
-43.676532
 30
0.0
 11
172.243319
 21
-19.979355
 31
0.0
  0
LINE
  5
BA
330
1F
100
AcDbEntity
  8
1
  6
CONTINUOUS
 62
   252
100
AcDbLine
 10
41.790807
 20
11.918723
 30
0.0
 11
41.790807
 21
9.138158
 31
0.0
  0
LINE
  5
BB
330
1F
100
AcDbEntity
  8
1
  6
CONTINUOUS
 62
   252
100
AcDbLine
 10
49.115962
 20
14.15679
 30
0.0
 11
49.115962
 21
11.376225
 31
0.0
  0
LINE
  5
BC
330
1F
100
AcDbEntity
  8
1
  6
CONTINUOUS
 62
   252
100
AcDbLine
 10
86.782174
 20
-34.277673
 30
0.0
 11
15.656731
 21
-1.46801
 31
0.0
  0
LINE
  5
BD
330
1F
100
AcDbEntity
  8
1
  6
CONTINUOUS
 62
   252
100
AcDbLine
 10
77.56046
 20
26.477743
 30
0.0
 11
77.56046
 21
23.697177
 31
0.0
  0
LINE
  5
BE
330
1F
100
AcDbEntity
  8
1
  6
CONTINUOUS
 62
   252
100
AcDbLine
 10
108.477048
 20
-35.831713
 30
0.0
 11
23.262475
 21
3.477166
 31
0.0
  0
LINE
  5
BF
330
1F
100
AcDbEntity
  8
1
  6
CONTINUOUS
 62
   252
100
AcDbLine
 10
56.441116
 20
16.394857
 30
0.0
 11
56.441116
 21
13.614292
 31
0.0
  0
LINE
  5
C0
330
1F
100
AcDbEntity
  8
1
  6
CONTINUOUS
 62
   252
100
AcDbLine
 10
148.775293
 20
-17.937791
 30
0.0
 11
148.775293
 21
-20.718356
 31
0.0
  0
LINE
  5
C1
330
1F
100
AcDbEntity
  8
1
  6
CONTINUOUS
 62
   252
100
AcDbLine
 10
115.802203
 20
-30.813081
 30
0.0
 11
115.802203
 21
-33.593647
 31
0.0
  0
LINE
  5
C2
330
1F
100
AcDbEntity
  8
1
  6
CONTINUOUS
 62
   252
100
AcDbLine
 10
77.56046
 20
23.697177
 30
0.0
 11
0.0
 21
0.0
 31
0.0
  0
LINE
  5
C3
330
1F
100
AcDbEntity
  8
1
  6
CONTINUOUS
 62
   252
100
AcDbLine
 10
45.237939
 20
12.971931
 30
0.0
 11
45.237939
 21
10.191366
 31
0.0
  0
LINE
  5
C4
330
1F
100
AcDbEntity
  8
1
  6
CONTINUOUS
 62
   252
100
AcDbLine
 10
56.441116
 20
16.394857
 30
0.0
 11
141.655689
 21
-22.914022
 31
0.0
  0
LINE
  5
C5
330
1F
100
AcDbEntity
  8
1
  6
CONTINUOUS
 62
   252
100
AcDbLine
 10
101.377234
 20
-32.419399
 30
0.0
 11
101.377234
 21
-35.199965
 31
0.0
  0
LINE
  5
C6
330
1F
100
AcDbEntity
  8
1
  6
CONTINUOUS
 62
   252
100
AcDbLine
 10
23.169869
 20
0.683341
 30
0.0
 11
23.169869
 21
-2.097224
 31
0.0
  0
LINE
  5
C7
330
1F
100
AcDbEntity
  8
1
  6
CONTINUOUS
 62
   252
100
AcDbLine
 10
112.355071
 20
-31.866289
 30
0.0
 11
112.355071
 21
-34.646854
 31
0.0
  0
LINE
  5
C8
330
1F
100
AcDbEntity
  8
1
  6
CONTINUOUS
 62
   252
100
AcDbLine
 10
156.586588
 20
-12.950214
 30
0.0
 11
156.586588
 21
-15.730779
 31
0.0
  0
LINE
  5
C9
330
1F
100
AcDbEntity
  8
1
  6
CONTINUOUS
 62
   252
100
AcDbLine
 10
23.262475
 20
6.257731
 30
0.0
 11
23.262475
 21
3.477166
 31
0.0
  0
LINE
  5
CA
330
1F
100
AcDbEntity
  8
1
  6
CONTINUOUS
 62
   252
100
AcDbLine
 10
151.862892
 20
-13.74497
 30
0.0
 11
82.428795
 21
18.284487
 31
0.0
  0
LINE
  5
CB
330
1F
100
AcDbEntity
  8
1
  6
CONTINUOUS
 62
   252
100
AcDbLine
 10
82.428795
 20
18.284487
 30
0.0
 11
82.428795
 21
15.503922
 31
0.0
  0
LINE
  5
CC
330
1F
100
AcDbEntity
  8
1
  6
CONTINUOUS
 62
   252
100
AcDbLine
 10
49.115962
 20
14.15679
 30
0.0
 11
134.330535
 21
-25.152089
 31
0.0
  0
LINE
  5
CD
330
1F
100
AcDbEntity
  8
1
  6
CONTINUOUS
 62
   252
100
AcDbLine
 10
145.102821
 20
-24.64138
 30
0.0
 11
59.888248
 21
14.667499
 31
0.0
  0
LINE
  5
CE
330
1F
100
AcDbEntity
  8
1
  6
CONTINUOUS
 62
   252
100
AcDbLine
 10
41.790807
 20
9.138158
 30
0.0
 11
127.00538
 21
-30.170721
 31
0.0
  0
LINE
  5
CF
330
1F
100
AcDbEntity
  8
1
  6
CONTINUOUS
 62
   252
100
AcDbLine
 10
70.866085
 20
18.001175
 30
0.0
 11
70.866085
 21
15.22061
 31
0.0
  0
LINE
  5
D0
330
1F
100
AcDbEntity
  8
1
  6
CONTINUOUS
 62
   252
100
AcDbLine
 10
108.477048
 20
-33.051148
 30
0.0
 11
108.477048
 21
-35.831713
 31
0.0
  0
LINE
  5
D1
330
1F
100
AcDbEntity
  8
1
  6
CONTINUOUS
 62
   252
100
AcDbLine
 10
63.766271
 20
18.632924
 30
0.0
 11
63.766271
 21
15.852358
 31
0.0
  0
LINE
  5
D2
330
1F
100
AcDbEntity
  8
1
  6
CONTINUOUS
 62
   252
100
AcDbLine
 10
78.323974
 20
17.534667
 30
0.0
 11
149.07345
 21
-15.101565
 31
0.0
  0
LINE
  5
D3
330
1F
100
AcDbEntity
  8
1
  6
CONTINUOUS
 62
   252
100
AcDbLine
 10
23.468026
 20
3.519567
 30
0.0
 11
23.468026
 21
0.739001
 31
0.0
  0
LINE
  5
D4
330
1F
100
AcDbEntity
  8
1
  6
CONTINUOUS
 62
   252
100
AcDbLine
 10
63.766271
 20
18.632924
 30
0.0
 11
148.980844
 21
-20.675955
 31
0.0
  0
LINE
  5
D5
330
1F
100
AcDbEntity
  8
1
  6
CONTINUOUS
 62
   252
100
AcDbLine
 10
78.323974
 20
17.534667
 30
0.0
 11
78.323974
 21
14.754102
 31
0.0
  0
LINE
  5
D6
330
1F
100
AcDbEntity
  8
1
  6
CONTINUOUS
 62
   252
100
AcDbLine
 10
23.468026
 20
0.739001
 30
0.0
 11
101.377234
 21
-35.199965
 31
0.0
  0
LINE
  5
D7
330
1F
100
AcDbEntity
  8
1
  6
CONTINUOUS
 62
   252
100
AcDbLine
 10
130.452512
 20
-26.336948
 30
0.0
 11
130.452512
 21
-29.117513
 31
0.0
  0
LINE
  5
D8
330
1F
100
AcDbEntity
  8
1
  6
CONTINUOUS
 62
   252
100
AcDbLine
 10
86.782174
 20
-34.277673
 30
0.0
 11
86.782174
 21
-37.058239
 31
0.0
  0
LINE
  5
D9
330
1F
100
AcDbEntity
  8
1
  6
CONTINUOUS
 62
   252
100
AcDbLine
 10
172.243319
 20
-17.19879
 30
0.0
 11
77.56046
 21
26.477743
 31
0.0
  0
LINE
  5
DA
330
1F
100
AcDbEntity
  8
1
  6
CONTINUOUS
 62
   252
100
AcDbLine
 10
108.477048
 20
-33.051148
 30
0.0
 11
23.262475
 21
6.257731
 31
0.0
  0
LINE
  5
DB
330
1F
100
AcDbEntity
  8
1
  6
CONTINUOUS
 62
   252
100
AcDbLine
 10
37.912784
 20
10.733865
 30
0.0
 11
37.912784
 21
7.953299
 31
0.0
  0
LINE
  5
DC
330
1F
100
AcDbEntity
  8
1
  6
CONTINUOUS
 62
   252
100
AcDbLine
 10
23.468026
 20
3.519567
 30
0.0
 11
101.377234
 21
-32.419399
 31
0.0
  0
LINE
  5
DD
330
1F
100
AcDbEntity
  8
1
  6
CONTINUOUS
 62
   252
100
AcDbLine
 10
145.102821
 20
-21.860814
 30
0.0
 11
59.888248
 21
17.448065
 31
0.0
  0
LINE
  5
DE
330
1F
100
AcDbEntity
  8
1
  6
CONTINUOUS
 62
   252
100
AcDbLine
 10
0.0
 20
2.780565
 30
0.0
 11
94.682859
 21
-40.895967
 31
0.0
  0
LINE
  5
DF
330
1F
100
AcDbEntity
  8
1
  6
CONTINUOUS
 62
   252
100
AcDbLine
 10
115.802203
 20
-30.813081
 30
0.0
 11
30.58763
 21
8.495798
 31
0.0
  0
LINE
  5
E0
330
1F
100
AcDbEntity
  8
1
  6
CONTINUOUS
 62
   252
100
AcDbLine
 10
85.461145
 20
17.078884
 30
0.0
 11
156.586588
 21
-15.730779
 31
0.0
  0
LINE
  5
E1
330
1F
100
AcDbEntity
  8
1
  6
CONTINUOUS
 62
   252
100
AcDbLine
 10
93.919345
 20
-31.952891
 30
0.0
 11
23.169869
 21
0.683341
 31
0.0
  0
LINE
  5
E2
330
1F
100
AcDbEntity
  8
1
  6
CONTINUOUS
 62
   252
100
AcDbLine
 10
56.441116
 20
13.614292
 30
0.0
 11
141.655689
 21
-25.694588
 31
0.0
  0
LINE
  5
E3
330
1F
100
AcDbEntity
  8
1
  6
CONTINUOUS
 62
   252
100
AcDbLine
 10
27.140498
 20
4.662025
 30
0.0
 11
112.355071
 21
-34.646854
 31
0.0
  0
LINE
  5
E4
330
1F
100
AcDbEntity
  8
1
  6
CONTINUOUS
 62
   252
100
AcDbLine
 10
134.330535
 20
-25.152089
 30
0.0
 11
134.330535
 21
-27.932654
 31
0.0
  0
LINE
  5
E5
330
1F
100
AcDbEntity
  8
1
  6
CONTINUOUS
 62
   252
100
AcDbLine
 10
172.243319
 20
-19.979355
 30
0.0
 11
77.56046
 21
23.697177
 31
0.0
  0
LINE
  5
E6
330
1F
100
AcDbEntity
  8
1
  6
CONTINUOUS
 62
   252
100
AcDbLine
 10
130.452512
 20
-26.336948
 30
0.0
 11
45.237939
 21
12.971931
 31
0.0
  0
LINE
  5
E7
330
1F
100
AcDbEntity
  8
1
  6
CONTINUOUS
 62
   252
100
AcDbLine
 10
49.115962
 20
11.376225
 30
0.0
 11
134.330535
 21
-27.932654
 31
0.0
  0
ELLIPSE
  5
E8
330
1F
100
AcDbEntity
  8
1
  6
CONTINUOUS
 62
   252
100
AcDbEllipse
 10
47.17695
 20
10.783795
 30
0.0
 11
2.5
 21
0.0
 31
0.0
210
0.0
220
0.0
230
1.0
 40
0.375419
 41
0.6831239609541003
 42
3.824716614550042
  0
ELLIPSE
  5
E9
330
1F
100
AcDbEntity
  8
1
  6
CONTINUOUS
 62
   252
100
AcDbEllipse
 10
76.116605
 20
18.415691
 30
0.0
 11
-6.25
 21
1.734723475976807E-16
 31
-6.938893903907228E-16
210
-1.110223024625157E-16
220
0.0
230
1.0
 40
0.375419
 41
0.0
 42
6.283185307179586
  0
ELLIPSE
  5
EA
330
1F
100
AcDbEntity
  8
1
  6
CONTINUOUS
 62
   252
100
AcDbEllipse
 10
14.068237
 20
2.238514
 30
0.0
 11
-6.25
 21
1.734723475976807E-16
 31
-6.938893903907228E-16
210
-1.110223024625157E-16
220
0.0
230
1.0
 40
0.375419
 41
0.0
 42
6.283185307179586
  0
ELLIPSE
  5
EB
330
1F
100
AcDbEntity
  8
1
  6
CONTINUOUS
 62
   252
100
AcDbEllipse
 10
158.175082
 20
-16.656739
 30
0.0
 11
-9.999999999999989
 21
2.775557561562888E-16
 31
-1.110223024625155E-15
210
-1.110223024625157E-16
220
0.0
230
1.0
 40
0.375419
 41
4.871914165743559
 42
5.395512941343951
  0
ELLIPSE
  5
EC
330
1F
100
AcDbEntity
  8
1
  6
CONTINUOUS
 62
   252
100
AcDbEllipse
 10
61.82726
 20
15.259929
 30
0.0
 11
2.5
 21
0.0
 31
0.0
210
0.0
220
0.0
230
1.0
 40
0.375419
 41
0.6831239609540956
 42
3.824716614550043
  0
ELLIPSE
  5
ED
330
1F
100
AcDbEntity
  8
1
  6
CONTINUOUS
 62
   252
100
AcDbEllipse
 10
14.068237
 20
-0.542051
 30
0.0
 11
-6.25
 21
1.734723475976807E-16
 31
-6.938893903907228E-16
210
-1.110223024625157E-16
220
0.0
230
1.0
 40
0.375419
 41
0.0
 42
6.283185307179586
  0
ELLIPSE
  5
EE
330
1F
100
AcDbEntity
  8
1
  6
CONTINUOUS
 62
   252
100
AcDbEllipse
 10
76.116605
 20
18.415691
 30
0.0
 11
-9.999999999999993
 21
2.775557561562889E-16
 31
-1.110223024625156E-15
210
-1.110223024625157E-16
220
0.0
230
1.0
 40
0.375419
 41
2.253920287752068
 42
2.777519063354967
  0
ELLIPSE
  5
EF
330
1F
100
AcDbEntity
  8
1
  6
CONTINUOUS
 62
   252
100
AcDbEllipse
 10
158.175082
 20
-19.437304
 30
0.0
 11
-6.25
 21
1.734723475976807E-16
 31
-6.938893903907228E-16
210
-1.110223024625157E-16
220
0.0
230
1.0
 40
0.375419
 41
0.0
 42
6.283185307179586
  0
ELLIPSE
  5
F0
330
1F
100
AcDbEntity
  8
1
  6
CONTINUOUS
 62
   252
100
AcDbEllipse
 10
14.068237
 20
-0.542051
 30
0.0
 11
-10.0
 21
2.775557561562892E-16
 31
-1.110223024625157E-15
210
-1.110223024625157E-16
220
0.0
230
1.0
 40
0.375419
 41
2.714474279431288
 42
3.489820456106744
  0
ELLIPSE
  5
F1
330
1F
100
AcDbEntity
  8
1
  6
CONTINUOUS
 62
   252
100
AcDbEllipse
 10
32.526641
 20
9.088227
 30
0.0
 11
2.5
 21
0.0
 31
0.0
210
0.0
220
0.0
230
1.0
 40
0.375419
 41
0.6831239609540988
 42
3.824716614550042
  0
ELLIPSE
  5
F2
330
1F
100
AcDbEntity
  8
1
  6
CONTINUOUS
 62
   252
100
AcDbEllipse
 10
110.41606
 20
-32.458719
 30
0.0
 11
2.5
 21
0.0
 31
0.0
210
0.0
220
0.0
230
1.0
 40
0.375419
 41
3.824716614550044
 42
6.966309268133679
  0
ELLIPSE
  5
F3
330
1F
100
AcDbEntity
  8
1
  6
CONTINUOUS
 62
   252
100
AcDbEllipse
 10
54.502105
 20
13.021862
 30
0.0
 11
2.5
 21
0.0
 31
0.0
210
0.0
220
0.0
230
1.0
 40
0.375419
 41
0.683123960954097
 42
3.82471661455004
  0
ELLIPSE
  5
F4
330
1F
100
AcDbEntity
  8
1
  6
CONTINUOUS
 62
   252
100
AcDbEllipse
 10
14.068237
 20
2.238514
 30
0.0
 11
-10.0
 21
2.775557561562892E-16
 31
-1.110223024625157E-15
210
-1.110223024625157E-16
220
0.0
230
1.0
 40
0.375419
 41
2.714474279431288
 42
3.489820456106744
  0
ELLIPSE
  5
F5
330
1F
100
AcDbEntity
  8
1
  6
CONTINUOUS
 62
   252
100
AcDbEllipse
 10
117.741214
 20
-33.001217
 30
0.0
 11
2.5
 21
0.0
 31
0.0
210
0.0
220
0.0
230
1.0
 40
0.375419
 41
3.824716614550033
 42
6.966309268133685
  0
ELLIPSE
  5
F6
330
1F
100
AcDbEntity
  8
1
  6
CONTINUOUS
 62
   252
100
AcDbEllipse
 10
25.201487
 20
4.069595
 30
0.0
 11
2.5
 21
0.0
 31
0.0
210
0.0
220
0.0
230
1.0
 40
0.375419
 41
0.683123960954097
 42
3.824716614550041
  0
ELLIPSE
  5
F7
330
1F
100
AcDbEntity
  8
1
  6
CONTINUOUS
 62
   252
100
AcDbEllipse
 10
158.175082
 20
-19.437304
 30
0.0
 11
-9.999999999999989
 21
2.775557561562888E-16
 31
-1.110223024625155E-15
210
-1.110223024625157E-16
220
0.0
230
1.0
 40
0.375419
 41
4.871914165743559
 42
5.395512941343951
  0
ELLIPSE
  5
F8
330
1F
100
AcDbEntity
  8
1
  6
CONTINUOUS
 62
   252
100
AcDbEllipse
 10
147.041832
 20
-24.04895
 30
0.0
 11
2.5
 21
0.0
 31
0.0
210
0.0
220
0.0
230
1.0
 40
0.375419
 41
3.824716614550038
 42
6.966309268133691
  0
ELLIPSE
  5
F9
330
1F
100
AcDbEntity
  8
1
  6
CONTINUOUS
 62
   252
100
AcDbEllipse
 10
96.126714
 20
-35.61448
 30
0.0
 11
-10.0
 21
2.775557561562891E-16
 31
-1.110223024625157E-15
210
-1.110223024625157E-16
220
0.0
230
1.0
 40
0.375419
 41
5.39551294134186
 42
5.919111716944757
  0
ELLIPSE
  5
FA
330
1F
100
AcDbEntity
  8
1
  6
CONTINUOUS
 62
   252
100
AcDbEllipse
 10
39.851796
 20
8.545729
 30
0.0
 11
2.5
 21
0.0
 31
0.0
210
0.0
220
0.0
230
1.0
 40
0.375419
 41
0.6831239609541018
 42
3.82471661455004
  0
ELLIPSE
  5
FB
330
1F
100
AcDbEntity
  8
1
  6
CONTINUOUS
 62
   252
100
AcDbEllipse
 10
132.391523
 20
-28.525084
 30
0.0
 11
2.5
 21
0.0
 31
0.0
210
0.0
220
0.0
230
1.0
 40
0.375419
 41
3.824716614550035
 42
6.966309268133678
  0
ELLIPSE
  5
FC
330
1F
100
AcDbEntity
  8
1
  6
CONTINUOUS
 62
   252
100
AcDbEllipse
 10
158.175082
 20
-16.656739
 30
0.0
 11
-9.999999999999989
 21
2.775557561562888E-16
 31
-1.110223024625155E-15
210
-1.110223024625157E-16
220
0.0
230
1.0
 40
0.375419
 41
5.856066933023178
 42
6.631413109699583
  0
ELLIPSE
  5
FD
330
1F
100
AcDbEntity
  8
1
  6
CONTINUOUS
 62
   252
100
AcDbEllipse
 10
110.41606
 20
-35.239284
 30
0.0
 11
2.5
 21
0.0
 31
0.0
210
0.0
220
0.0
230
1.0
 40
0.375419
 41
3.824716614550044
 42
6.966309268133681
  0
ELLIPSE
  5
FE
330
1F
100
AcDbEntity
  8
1
  6
CONTINUOUS
 62
   252
100
AcDbEllipse
 10
76.116605
 20
18.415691
 30
0.0
 11
-9.999999999999995
 21
2.775557561562890E-16
 31
-1.110223024625156E-15
210
-1.110223024625157E-16
220
0.0
230
1.0
 40
0.375419
 41
1.018020119396359
 42
1.793366296070737
  0
ELLIPSE
  5
FF
330
1F
100
AcDbEntity
  8
1
  6
CONTINUOUS
 62
   252
100
AcDbEllipse
 10
158.175082
 20
-19.437304
 30
0.0
 11
-9.999999999999989
 21
2.775557561562888E-16
 31
-1.110223024625155E-15
210
-1.110223024625157E-16
220
0.0
230
1.0
 40
0.375419
 41
5.856066933023179
 42
6.631413109699583
  0
ELLIPSE
  5
100
330
1F
100
AcDbEntity
  8
1
  6
CONTINUOUS
 62
   252
100
AcDbEllipse
 10
125.066369
 20
-30.76315
 30
0.0
 11
2.5
 21
0.0
 31
0.0
210
0.0
220
0.0
230
1.0
 40
0.375419
 41
3.824716614550035
 42
6.966309268133692
  0
ELLIPSE
  5
101
330
1F
100
AcDbEntity
  8
1
  6
CONTINUOUS
 62
   252
100
AcDbEllipse
 10
14.068237
 20
2.238514
 30
0.0
 11
-10.0
 21
2.775557561562891E-16
 31
-1.110223024625157E-15
210
-1.110223024625157E-16
220
0.0
230
1.0
 40
0.375419
 41
1.730321512150171
 42
2.253920287752069
  0
ELLIPSE
  5
102
330
1F
100
AcDbEntity
  8
1
  6
CONTINUOUS
 62
   252
100
AcDbEllipse
 10
96.126714
 20
-35.61448
 30
0.0
 11
-10.0
 21
2.775557561562892E-16
 31
-1.110223024625157E-15
210
-1.110223024625157E-16
220
0.0
230
1.0
 40
0.375419
 41
4.159612772986339
 42
4.934958949660505
  0
ELLIPSE
  5
103
330
1F
100
AcDbEntity
  8
1
  6
CONTINUOUS
 62
   252
100
AcDbEllipse
 10
96.126714
 20
-35.61448
 30
0.0
 11
-6.25
 21
1.734723475976807E-16
 31
-6.938893903907228E-16
210
-1.110223024625157E-16
220
0.0
230
1.0
 40
0.375419
 41
0.0
 42
6.283185307179586
  0
ELLIPSE
  5
104
330
1F
100
AcDbEntity
  8
1
  6
CONTINUOUS
 62
   252
100
AcDbEllipse
 10
96.126714
 20
-38.395046
 30
0.0
 11
-10.0
 21
2.775557561562891E-16
 31
-1.110223024625157E-15
210
-1.110223024625157E-16
220
0.0
230
1.0
 40
0.375419
 41
5.395512941341859
 42
5.919111716944757
  0
ELLIPSE
  5
105
330
1F
100
AcDbEntity
  8
1
  6
CONTINUOUS
 62
   252
100
AcDbEllipse
 10
132.391523
 20
-25.744518
 30
0.0
 11
2.5
 21
0.0
 31
0.0
210
0.0
220
0.0
230
1.0
 40
0.375419
 41
3.824716614550033
 42
6.966309268133684
  0
ELLIPSE
  5
106
330
1F
100
AcDbEntity
  8
1
  6
CONTINUOUS
 62
   252
100
AcDbEllipse
 10
47.17695
 20
13.564361
 30
0.0
 11
2.5
 21
0.0
 31
0.0
210
0.0
220
0.0
230
1.0
 40
0.375419
 41
0.6831239609540973
 42
3.824716614550043
  0
ELLIPSE
  5
107
330
1F
100
AcDbEntity
  8
1
  6
CONTINUOUS
 62
   252
100
AcDbEllipse
 10
14.068237
 20
-0.542051
 30
0.0
 11
-10.0
 21
2.775557561562891E-16
 31
-1.110223024625157E-15
210
-1.110223024625157E-16
220
0.0
230
1.0
 40
0.375419
 41
1.730321512150171
 42
2.253920287752069
  0
ELLIPSE
  5
108
330
1F
100
AcDbEntity
  8
1
  6
CONTINUOUS
 62
   252
100
AcDbEllipse
 10
147.041832
 20
-21.268385
 30
0.0
 11
2.5
 21
0.0
 31
0.0
210
0.0
220
0.0
230
1.0
 40
0.375419
 41
3.824716614550033
 42
6.966309268133688
  0
ELLIPSE
  5
109
330
1F
100
AcDbEntity
  8
1
  6
CONTINUOUS
 62
   252
100
AcDbEllipse
 10
76.116605
 20
21.196256
 30
0.0
 11
-9.999999999999995
 21
2.775557561562890E-16
 31
-1.110223024625156E-15
210
-1.110223024625157E-16
220
0.0
230
1.0
 40
0.375419
 41
1.018020119396359
 42
1.793366296070735
  0
ELLIPSE
  5
10A
330
1F
100
AcDbEntity
  8
1
  6
CONTINUOUS
 62
   252
100
AcDbEllipse
 10
39.851796
 20
11.326294
 30
0.0
 11
2.5
 21
0.0
 31
0.0
210
0.0
220
0.0
230
1.0
 40
0.375419
 41
0.6831239609540937
 42
3.82471661455004
  0
ELLIPSE
  5
10B
330
1F
100
AcDbEntity
  8
1
  6
CONTINUOUS
 62
   252
100
AcDbEllipse
 10
76.116605
 20
21.196256
 30
0.0
 11
-9.999999999999993
 21
2.775557561562889E-16
 31
-1.110223024625156E-15
210
-1.110223024625157E-16
220
0.0
230
1.0
 40
0.375419
 41
2.253920287752067
 42
2.777519063354968
  0
ELLIPSE
  5
10C
330
1F
100
AcDbEntity
  8
1
  6
CONTINUOUS
 62
   252
100
AcDbEllipse
 10
61.82726
 20
18.040494
 30
0.0
 11
2.5
 21
0.0
 31
0.0
210
0.0
220
0.0
230
1.0
 40
0.375419
 41
0.6831239609540984
 42
3.824716614550041
  0
ELLIPSE
  5
10D
330
1F
100
AcDbEntity
  8
1
  6
CONTINUOUS
 62
   252
100
AcDbEllipse
 10
54.502105
 20
15.802427
 30
0.0
 11
2.5
 21
0.0
 31
0.0
210
0.0
220
0.0
230
1.0
 40
0.375419
 41
0.6831239609541003
 42
3.824716614550037
  0
ELLIPSE
  5
10E
330
1F
100
AcDbEntity
  8
1
  6
CONTINUOUS
 62
   252
100
AcDbEllipse
 10
25.201487
 20
6.85016
 30
0.0
 11
2.5
 21
0.0
 31
0.0
210
0.0
220
0.0
230
1.0
 40
0.375419
 41
0.6831239609540963
 42
3.824716614550042
  0
ELLIPSE
  5
10F
330
1F
100
AcDbEntity
  8
1
  6
CONTINUOUS
 62
   252
100
AcDbEllipse
 10
76.116605
 20
21.196256
 30
0.0
 11
-6.25
 21
1.734723475976807E-16
 31
-6.938893903907228E-16
210
-1.110223024625157E-16
220
0.0
230
1.0
 40
0.375419
 41
0.0
 42
6.283185307179586
  0
ELLIPSE
  5
110
330
1F
100
AcDbEntity
  8
1
  6
CONTINUOUS
 62
   252
100
AcDbEllipse
 10
117.741214
 20
-30.220652
 30
0.0
 11
2.5
 21
0.0
 31
0.0
210
0.0
220
0.0
230
1.0
 40
0.375419
 41
3.824716614550038
 42
6.966309268133688
  0
ELLIPSE
  5
111
330
1F
100
AcDbEntity
  8
1
  6
CONTINUOUS
 62
   252
100
AcDbEllipse
 10
96.126714
 20
-38.395046
 30
0.0
 11
-6.25
 21
1.734723475976807E-16
 31
-6.938893903907228E-16
210
-1.110223024625157E-16
220
0.0
230
1.0
 40
0.375419
 41
0.0
 42
6.283185307179586
  0
ELLIPSE
  5
112
330
1F
100
AcDbEntity
  8
1
  6
CONTINUOUS
 62
   252
100
AcDbEllipse
 10
96.126714
 20
-38.395046
 30
0.0
 11
-10.0
 21
2.775557561562892E-16
 31
-1.110223024625157E-15
210
-1.110223024625157E-16
220
0.0
230
1.0
 40
0.375419
 41
4.159612772986338
 42
4.934958949660503
  0
ELLIPSE
  5
113
330
1F
100
AcDbEntity
  8
1
  6
CONTINUOUS
 62
   252
100
AcDbEllipse
 10
158.175082
 20
-16.656739
 30
0.0
 11
-6.25
 21
1.734723475976807E-16
 31
-6.938893903907228E-16
210
-1.110223024625157E-16
220
0.0
230
1.0
 40
0.375419
 41
0.0
 42
6.283185307179586
  0
ELLIPSE
  5
114
330
1F
100
AcDbEntity
  8
1
  6
CONTINUOUS
 62
   252
100
AcDbEllipse
 10
139.716678
 20
-23.506452
 30
0.0
 11
2.5
 21
0.0
 31
0.0
210
0.0
220
0.0
230
1.0
 40
0.375419
 41
3.824716614550028
 42
6.966309268133688
  0
ELLIPSE
  5
115
330
1F
100
AcDbEntity
  8
1
  6
CONTINUOUS
 62
   252
100
AcDbEllipse
 10
125.066369
 20
-27.982585
 30
0.0
 11
2.5
 21
0.0
 31
0.0
210
0.0
220
0.0
230
1.0
 40
0.375419
 41
3.824716614550035
 42
6.966309268133692
  0
ELLIPSE
  5
116
330
1F
100
AcDbEntity
  8
1
  6
CONTINUOUS
 62
   252
100
AcDbEllipse
 10
139.716678
 20
-26.287017
 30
0.0
 11
2.5
 21
0.0
 31
0.0
210
0.0
220
0.0
230
1.0
 40
0.375419
 41
3.824716614550038
 42
6.966309268133681
  0
ELLIPSE
  5
117
330
1F
100
AcDbEntity
  8
1
  6
CONTINUOUS
 62
   252
100
AcDbEllipse
 10
32.526641
 20
6.307662
 30
0.0
 11
2.5
 21
0.0
 31
0.0
210
0.0
220
0.0
230
1.0
 40
0.375419
 41
0.683123960954097
 42
3.824716614550042
  0
ENDSEC
  0
SECTION
  2
OBJECTS
  0
DICTIONARY
  5
C
330
0
100
AcDbDictionary
  3
ACAD_GROUP
350
D
  3
ACAD_LAYOUT
350
1A
  3
ACAD_MATERIAL
350
43
  3
ACAD_MLEADERSTYLE
350
6B
  3
ACAD_MLINESTYLE
350
17
  3
ACAD_PLOTSETTINGS
350
19
  3
ACAD_SCALELIST
350
47
  3
ACAD_VISUALSTYLE
350
2A
  3
ACDBVARIABLEDICTIONARY
350
127
1001
ACAD
1000
TREAT_AS_HARD
1070
     0
  0
DICTIONARY
  5
D
102
{ACAD_REACTORS
330
C
102
}
330
C
100
AcDbDictionary
1001
ACAD
1000
TREAT_AS_HARD
1070
     0
  0
DICTIONARY
  5
1A
102
{ACAD_REACTORS
330
C
102
}
330
C
100
AcDbDictionary
1001
ACAD
1000
TREAT_AS_HARD
1070
     0
  0
DICTIONARY
  5
43
102
{ACAD_REACTORS
330
C
102
}
330
C
100
AcDbDictionary
  3
BYBLOCK
350
45
  3
BYLAYER
350
44
  3
GLOBAL
350
46
1001
ACAD
1000
TREAT_AS_HARD
1070
     0
  0
DICTIONARY
  5
6B
102
{ACAD_REACTORS
330
C
102
}
330
C
100
AcDbDictionary
  3
STANDARD
350
6C
1001
ACAD
1000
TREAT_AS_HARD
1070
     0
  0
DICTIONARY
  5
17
102
{ACAD_REACTORS
330
C
102
}
330
C
100
AcDbDictionary
  3
STANDARD
350
18
1001
ACAD
1000
TREAT_AS_HARD
1070
     0
  0
DICTIONARY
  5
19
102
{ACAD_REACTORS
330
C
102
}
330
C
100
AcDbDictionary
1001
ACAD
1000
TREAT_AS_HARD
1070
     0
  0
DICTIONARY
  5
47
102
{ACAD_REACTORS
330
C
102
}
330
C
100
AcDbDictionary
  3
A0
350
48
  3
A1
350
49
  3
A2
350
4A
  3
A3
350
4B
  3
A4
350
4C
  3
A5
350
4D
  3
A6
350
4E
  3
A7
350
4F
  3
A8
350
50
  3
A9
350
51
  3
B0
350
52
  3
B1
350
53
  3
B2
350
54
  3
B3
350
55
  3
B4
350
56
  3
B5
350
57
  3
B6
350
58
  3
B7
350
59
  3
B8
350
5A
  3
B9
350
5B
  3
C0
350
5C
  3
C1
350
5D
  3
C2
350
5E
  3
C3
350
5F
  3
C4
350
60
  3
C5
350
61
  3
C6
350
62
  3
C7
350
63
  3
C8
350
64
  3
C9
350
65
  3
D0
350
66
  3
D1
350
67
  3
D2
350
68
1001
ACAD
1000
TREAT_AS_HARD
1070
     0
  0
DICTIONARY
  5
2A
102
{ACAD_REACTORS
330
C
102
}
330
C
100
AcDbDictionary
  3
2DWIREFRAME
350
2F
  3
BASIC
350
32
  3
BRIGHTEN
350
36
  3
COLORCHANGE
350
3A
  3
CONCEPTUAL
350
34
  3
DIM
350
35
  3
EDGECOLOROFF
350
3D
  3
FACEPATTERN
350
39
  3
FLAT
350
2B
  3
FLATWITHEDGES
350
2C
  3
GOURAUD
350
2D
  3
GOURAUDWITHEDGES
350
2E
  3
HIDDEN
350
31
  3
JITTEROFF
350
3B
  3
LINEPATTERN
350
38
  3
OVERHANGOFF
350
3C
  3
REALISTIC
350
33
  3
SHADED
350
42
  3
SHADED_WITH_EDGES
350
41
  3
SHADES_OF_GRAY
350
3E
  3
SKETCHY
350
3F
  3
THICKEN
350
37
  3
WIREFRAME
350
30
  3
X-RAY
350
40
1001
ACAD
1000
TREAT_AS_HARD
1070
     0
  0
DICTIONARY
  5
127
102
{ACAD_REACTORS
330
C
102
}
330
C
100
AcDbDictionary
  3
CANNOSCALE
350
12E
  3
CMLEADERSTYLE
350
129
  3
CTABLESTYLE
350
128
  3
DIMASSOC
350
12C
  3
HIDETEXT
350
12D
  3
MSLTSCALE
350
12F
1001
ACAD
1000
TREAT_AS_HARD
1070
     0
  0
MATERIAL
  5
45
102
{ACAD_REACTORS
330
43
102
}
102
{ACAD_XDICTIONARY
360
132
102
}
330
43
100
AcDbMaterial
  1
BYBLOCK
  0
MATERIAL
  5
44
102
{ACAD_REACTORS
330
43
102
}
102
{ACAD_XDICTIONARY
360
130
102
}
330
43
100
AcDbMaterial
  1
BYLAYER
  0
MATERIAL
  5
46
102
{ACAD_REACTORS
330
43
102
}
102
{ACAD_XDICTIONARY
360
134
102
}
330
43
100
AcDbMaterial
  1
GLOBAL
  0
ACAD_PROXY_OBJECT
  5
6C
102
{ACAD_REACTORS
330
6B
102
}
330
6B
100
AcDbZombieObject
 90
      499
 91
      505
 93
      610
310
40901902A4063FBFFFFFE056BD1B81E855B9FC0AD7A3703D0AD73F4214DD185B99185C9900AD7A3703D0AC73F90141901A02B5E8DC0F42B1CFC02B5E8DC0F42B1CFE5764000000000000300FC0
340
14
340
0
340
11
340
0
 94
        0
1001
ACAD_MLEADERVER
1070
     2
  0
MLINESTYLE
  5
18
102
{ACAD_REACTORS
330
17
102
}
330
17
100
AcDbMlineStyle
  2
Standard
 70
     0
  3

 62
   256
 51
90.0
 52
90.0
 71
     2
 49
0.5
 62
   256
  6
BYLAYER
 49
-0.5
 62
   256
  6
BYLAYER
  0
ACAD_PROXY_OBJECT
  5
48
102
{ACAD_REACTORS
330
47
102
}
330
47
100
AcDbZombieObject
 90
      499
 91
      503
 93
       41
310
903313A31580
  0
ACAD_PROXY_OBJECT
  5
49
102
{ACAD_REACTORS
330
47
102
}
330
47
100
AcDbZombieObject
 90
      499
 91
      503
 93
      105
310
903313A324000000000000004000
  0
ACAD_PROXY_OBJECT
  5
4A
102
{ACAD_REACTORS
330
47
102
}
330
47
100
AcDbZombieObject
 90
      499
 91
      503
 93
      105
310
903313A344000000000000104000
  0
ACAD_PROXY_OBJECT
  5
4B
102
{ACAD_REACTORS
330
47
102
}
330
47
100
AcDbZombieObject
 90
      499
 91
      503
 93
      105
310
903313A354000000000000144000
  0
ACAD_PROXY_OBJECT
  5
4C
102
{ACAD_REACTORS
330
47
102
}
330
47
100
AcDbZombieObject
 90
      499
 91
      503
 93
      105
310
903313A384000000000000204000
  0
ACAD_PROXY_OBJECT
  5
4D
102
{ACAD_REACTORS
330
47
102
}
330
47
100
AcDbZombieObject
 90
      499
 91
      503
 93
      113
310
904313A31304000000000000244000
  0
ACAD_PROXY_OBJECT
  5
4E
102
{ACAD_REACTORS
330
47
102
}
330
47
100
AcDbZombieObject
 90
      499
 91
      503
 93
      113
310
904313A31364000000000000304000
  0
ACAD_PROXY_OBJECT
  5
4F
102
{ACAD_REACTORS
330
47
102
}
330
47
100
AcDbZombieObject
 90
      499
 91
      503
 93
      113
310
904313A32304000000000000344000
  0
ACAD_PROXY_OBJECT
  5
50
102
{ACAD_REACTORS
330
47
102
}
330
47
100
AcDbZombieObject
 90
      499
 91
      503
 93
      113
310
904313A333040000000000003E4000
  0
ACAD_PROXY_OBJECT
  5
51
102
{ACAD_REACTORS
330
47
102
}
330
47
100
AcDbZombieObject
 90
      499
 91
      503
 93
      113
310
904313A34304000000000000444000
  0
ACAD_PROXY_OBJECT
  5
52
102
{ACAD_REACTORS
330
47
102
}
330
47
100
AcDbZombieObject
 90
      499
 91
      503
 93
      113
310
904313A35304000000000000494000
  0
ACAD_PROXY_OBJECT
  5
53
102
{ACAD_REACTORS
330
47
102
}
330
47
100
AcDbZombieObject
 90
      499
 91
      503
 93
      121
310
905313A3130304000000000000594000
  0
ACAD_PROXY_OBJECT
  5
54
102
{ACAD_REACTORS
330
47
102
}
330
47
100
AcDbZombieObject
 90
      499
 91
      503
 93
      105
310
903323A310000000000000010100
  0
ACAD_PROXY_OBJECT
  5
55
102
{ACAD_REACTORS
330
47
102
}
330
47
100
AcDbZombieObject
 90
      499
 91
      503
 93
      105
310
903343A310000000000000410100
  0
ACAD_PROXY_OBJECT
  5
56
102
{ACAD_REACTORS
330
47
102
}
330
47
100
AcDbZombieObject
 90
      499
 91
      503
 93
      105
310
903383A310000000000000810100
  0
ACAD_PROXY_OBJECT
  5
57
102
{ACAD_REACTORS
330
47
102
}
330
47
100
AcDbZombieObject
 90
      499
 91
      503
 93
      113
310
90431303A310000000000000910100
  0
ACAD_PROXY_OBJECT
  5
58
102
{ACAD_REACTORS
330
47
102
}
330
47
100
AcDbZombieObject
 90
      499
 91
      503
 93
      121
310
9053130303A310000000000001650100
  0
ACAD_PROXY_OBJECT
  5
59
102
{ACAD_REACTORS
330
47
102
}
330
47
100
AcDbZombieObject
 90
      499
 91
      503
 93
      257
310
90E312F31323822203D2031272D3022000000000000200FC000000000000284000
  0
ACAD_PROXY_OBJECT
  5
5A
102
{ACAD_REACTORS
330
47
102
}
330
47
100
AcDbZombieObject
 90
      499
 91
      503
 93
      249
310
90D312F363422203D2031272D3022000000000000240FC000000000000284000
  0
ACAD_PROXY_OBJECT
  5
5B
102
{ACAD_REACTORS
330
47
102
}
330
47
100
AcDbZombieObject
 90
      499
 91
      503
 93
      249
310
90D312F333222203D2031272D3022000000000000280FC000000000000284000
  0
ACAD_PROXY_OBJECT
  5
5C
102
{ACAD_REACTORS
330
47
102
}
330
47
100
AcDbZombieObject
 90
      499
 91
      503
 93
      249
310
90D312F313622203D2031272D30220000000000002C0FC000000000000284000
  0
ACAD_PROXY_OBJECT
  5
5D
102
{ACAD_REACTORS
330
47
102
}
330
47
100
AcDbZombieObject
 90
      499
 91
      503
 93
      249
310
90D332F333222203D2031272D30220000000000002E0FC000000000000284000
  0
ACAD_PROXY_OBJECT
  5
5E
102
{ACAD_REACTORS
330
47
102
}
330
47
100
AcDbZombieObject
 90
      499
 91
      503
 93
      241
310
90C312F3822203D2031272D3022000000000000300FC000000000000284000
  0
ACAD_PROXY_OBJECT
  5
5F
102
{ACAD_REACTORS
330
47
102
}
330
47
100
AcDbZombieObject
 90
      499
 91
      503
 93
      249
310
90D332F313622203D2031272D3022000000000000320FC000000000000284000
  0
ACAD_PROXY_OBJECT
  5
60
102
{ACAD_REACTORS
330
47
102
}
330
47
100
AcDbZombieObject
 90
      499
 91
      503
 93
      241
310
90C312F3422203D2031272D3022000000000000340FC000000000000284000
  0
ACAD_PROXY_OBJECT
  5
61
102
{ACAD_REACTORS
330
47
102
}
330
47
100
AcDbZombieObject
 90
      499
 91
      503
 93
      241
310
90C332F3822203D2031272D3022000000000000360FC000000000000284000
  0
ACAD_PROXY_OBJECT
  5
62
102
{ACAD_REACTORS
330
47
102
}
330
47
100
AcDbZombieObject
 90
      499
 91
      503
 93
      241
310
90C312F3222203D2031272D3022000000000000380FC000000000000284000
  0
ACAD_PROXY_OBJECT
  5
63
102
{ACAD_REACTORS
330
47
102
}
330
47
100
AcDbZombieObject
 90
      499
 91
      503
 93
      241
310
90C332F3422203D2031272D30220000000000003A0FC000000000000284000
  0
ACAD_PROXY_OBJECT
  5
64
102
{ACAD_REACTORS
330
47
102
}
330
47
100
AcDbZombieObject
 90
      499
 91
      503
 93
      161
310
90A3122203D2031272D30224000000000000284000
  0
ACAD_PROXY_OBJECT
  5
65
102
{ACAD_REACTORS
330
47
102
}
330
47
100
AcDbZombieObject
 90
      499
 91
      503
 93
      257
310
90E312D312F3222203D2031272D30220000000000003E0FC000000000000284000
  0
ACAD_PROXY_OBJECT
  5
66
102
{ACAD_REACTORS
330
47
102
}
330
47
100
AcDbZombieObject
 90
      499
 91
      503
 93
      225
310
90A3322203D2031272D302200000000000002100000000000000284000
  0
ACAD_PROXY_OBJECT
  5
67
102
{ACAD_REACTORS
330
47
102
}
330
47
100
AcDbZombieObject
 90
      499
 91
      503
 93
      225
310
90A3622203D2031272D302200000000000006100000000000000284000
  0
ACAD_PROXY_OBJECT
  5
68
102
{ACAD_REACTORS
330
47
102
}
330
47
100
AcDbZombieObject
 90
      499
 91
      503
 93
      249
310
90D31272D3022203D2031272D30220000000000000A100000000000000284000
  0
ACAD_PROXY_OBJECT
  5
2F
102
{ACAD_REACTORS
330
2A
102
}
330
2A
100
AcDbZombieObject
 90
      499
 91
      501
 93
      436
310
42CC9915DA5C99599C985B595049028333333333333E33F0000000000000F90107901411070040501600405405064090741402480A0340
1001
ACAD
1000
AcDbSavedByObjectVersion
1070
     0
  0
ACAD_PROXY_OBJECT
  5
32
102
{ACAD_REACTORS
330
2A
102
}
330
2A
100
AcDbZombieObject
 90
      499
 91
      501
 93
      388
310
4150985CDA58D07406404333333333333E33F0000000000000F90107A41107004050150841D405064090741402480A0350
1001
ACAD
1000
AcDbSavedByObjectVersion
1070
     0
  0
ACAD_PROXY_OBJECT
  5
36
102
{ACAD_REACTORS
330
2A
102
}
330
2A
100
AcDbZombieObject
 90
      499
 91
      501
 93
      428
310
42109C9A59DA1D195B90C409028333333333333E33F0000000000000F9010790141107004050150841D405064090741402480A029950
1001
ACAD
1000
AcDbSavedByObjectVersion
1070
     0
  0
ACAD_PROXY_OBJECT
  5
3A
102
{ACAD_REACTORS
330
2A
102
}
330
2A
100
AcDbZombieObject
 90
      499
 91
      501
 93
      452
310
42D0DBDB1BDC90DA185B99D95104090240C333333333333E33F0000000000000F90108901411070040501508421405064090741402480A0350
1001
ACAD
1000
AcDbSavedByObjectVersion
1070
     0
  0
ACAD_PROXY_OBJECT
  5
34
102
{ACAD_REACTORS
330
2A
102
}
330
2A
100
AcDbZombieObject
 90
      499
 91
      501
 93
      500
310
4290DBDB98D95C1D1D585B10940D028333333333333E33F0000000000000F90107902409070040501000000000018199010841D405064090740C02480A0340
1001
ACAD
1000
AcDbSavedByObjectVersion
1070
     0
  0
ACAD_PROXY_OBJECT
  5
35
102
{ACAD_REACTORS
330
2A
102
}
330
2A
100
AcDbZombieObject
 90
      499
 91
      501
 93
      412
310
40D11A5B50B409028333333333333E33F0000000000000F9010790141107004050150841D405064090741402480A02677FFFFFD0
1001
ACAD
1000
AcDbSavedByObjectVersion
1070
     0
  0
ACAD_PROXY_OBJECT
  5
3D
102
{ACAD_REACTORS
330
2A
102
}
330
2A
100
AcDbZombieObject
 90
      499
 91
      501
 93
      452
310
43115919D950DBDB1BDC93D999916409028333333333333E33F0000000000000F9010790141107004050150841D405064090741402480A0350
1001
ACAD
1000
AcDbSavedByObjectVersion
1070
     0
  0
ACAD_PROXY_OBJECT
  5
39
102
{ACAD_REACTORS
330
2A
102
}
330
2A
100
AcDbZombieObject
 90
      499
 91
      501
 93
      444
310
42D19858D95C185D1D195C9B90F409028333333333333E33F0000000000000F9010790141107004050150841D405064090741402480A0350
1001
ACAD
1000
AcDbSavedByObjectVersion
1070
     0
  0
ACAD_PROXY_OBJECT
  5
2B
102
{ACAD_REACTORS
330
2A
102
}
330
2A
100
AcDbZombieObject
 90
      499
 91
      501
 93
      380
310
41119B185D240901404333333333333E33F0000000000000F9010740A907004050150841D405064090741402480A1B50
1001
ACAD
1000
AcDbSavedByObjectVersion
1070
     0
  0
ACAD_PROXY_OBJECT
  5
2C
102
{ACAD_REACTORS
330
2A
102
}
330
2A
100
AcDbZombieObject
 90
      499
 91
      501
 93
      468
310
43519B185D15DA5D1A115919D95CD0140901404333333333333E33F0000000000000F90107409019070040501600405405064090741402480A1B50
1001
ACAD
1000
AcDbSavedByObjectVersion
1070
     0
  0
ACAD_PROXY_OBJECT
  5
2D
102
{ACAD_REACTORS
330
2A
102
}
330
2A
100
AcDbZombieObject
 90
      499
 91
      501
 93
      404
310
41D1DBDD5C985D5910240902404333333333333E33F0000000000000F9010740A9070040501641D405064090741402480A1B50
1001
ACAD
1000
AcDbSavedByObjectVersion
1070
     0
  0
ACAD_PROXY_OBJECT
  5
2E
102
{ACAD_REACTORS
330
2A
102
}
330
2A
100
AcDbZombieObject
 90
      499
 91
      501
 93
      492
310
4411DBDD5C985D5915DA5D1A115919D95CD0340902404333333333333E33F0000000000000F90107409019070040501600405405064090741402480A1B50
1001
ACAD
1000
AcDbSavedByObjectVersion
1070
     0
  0
ACAD_PROXY_OBJECT
  5
31
102
{ACAD_REACTORS
330
2A
102
}
330
2A
100
AcDbZombieObject
 90
      499
 91
      501
 93
      476
310
41921A5919195B90640502408333333333333E33F0000000000000F901079024090700405020000000000001110200405405064090740C02480A0340
1001
ACAD
1000
AcDbSavedByObjectVersion
1070
     0
  0
ACAD_PROXY_OBJECT
  5
3B
102
{ACAD_REACTORS
330
2A
102
}
330
2A
100
AcDbZombieObject
 90
      499
 91
      501
 93
      428
310
42529A5D1D195C93D999914409028333333333333E33F0000000000000F9010790141107004050150A41D405064090741402480A0350
1001
ACAD
1000
AcDbSavedByObjectVersion
1070
     0
  0
ACAD_PROXY_OBJECT
  5
38
102
{ACAD_REACTORS
330
2A
102
}
330
2A
100
AcDbZombieObject
 90
      499
 91
      501
 93
      444
310
42D31A5B995C185D1D195C9B90E409028333333333333E33F0000000000000F9010790141107004050750841D405064090741402483A0350
1001
ACAD
1000
AcDbSavedByObjectVersion
1070
     0
  0
ACAD_PROXY_OBJECT
  5
3C
102
{ACAD_REACTORS
330
2A
102
}
330
2A
100
AcDbZombieObject
 90
      499
 91
      501
 93
      444
310
42D3DD995C9A185B99D3D999915409028333333333333E33F0000000000000F9010790141107004050150941D405064090741402480A0350
1001
ACAD
1000
AcDbSavedByObjectVersion
1070
     0
  0
ACAD_PROXY_OBJECT
  5
33
102
{ACAD_REACTORS
330
2A
102
}
330
2A
100
AcDbZombieObject
 90
      499
 91
      501
 93
      428
310
425499585B1A5CDD1A58D08409038333333333333E33F0000000000000F9010740A907004050150800405405064090740C02480A1B40
1001
ACAD
1000
AcDbSavedByObjectVersion
1070
     0
  0
ACAD_PROXY_OBJECT
  5
42
102
{ACAD_REACTORS
330
2A
102
}
330
2A
100
AcDbZombieObject
 90
      499
 91
      501
 93
      420
310
4194DA1859195911B40902404333333333333E33F0000000000000F9010740A41107004050150800405405064090840C02480A0B40
1001
ACAD
1000
AcDbSavedByObjectVersion
1070
     0
  0
ACAD_PROXY_OBJECT
  5
41
102
{ACAD_REACTORS
330
2A
102
}
330
2A
100
AcDbZombieObject
 90
      499
 91
      501
 93
      516
310
4454DA18591959081DDA5D1A08195919D95CD1A40902404333333333333E33F0000000000000F901074090142907004050250800405405064090740C02480A0B40
1001
ACAD
1000
AcDbSavedByObjectVersion
1070
     0
  0
ACAD_PROXY_OBJECT
  5
3E
102
{ACAD_REACTORS
330
2A
102
}
330
2A
100
AcDbZombieObject
 90
      499
 91
      501
 93
      532
310
4394DA1859195CC81BD98811DC985E5174090240C333333333333E33F0000000000000F901079024090741D01000000000000111010841D405064090740C02480A0340
1001
ACAD
1000
AcDbSavedByObjectVersion
1070
     0
  0
ACAD_PROXY_OBJECT
  5
3F
102
{ACAD_REACTORS
330
2A
102
}
330
2A
100
AcDbZombieObject
 90
      499
 91
      501
 93
      476
310
41D4DAD95D18DA1E51840502408333333333333E33F0000000000000F901079024090741D01000000000000111010B41D405064090741802480A0340
1001
ACAD
1000
AcDbSavedByObjectVersion
1070
     0
  0
ACAD_PROXY_OBJECT
  5
37
102
{ACAD_REACTORS
330
2A
102
}
330
2A
100
AcDbZombieObject
 90
      499
 91
      501
 93
      412
310
41D51A1A58DAD95B90D409028333333333333E33F0000000000000F9010790141107004050150C41D405064090741402480A0350
1001
ACAD
1000
AcDbSavedByObjectVersion
1070
     0
  0
ACAD_PROXY_OBJECT
  5
30
102
{ACAD_REACTORS
330
2A
102
}
330
2A
100
AcDbZombieObject
 90
      499
 91
      501
 93
      420
310
4255DA5C99599C985B595059028333333333333E33F0000000000000F90107901411070040501600405405064090740C02480A0340
1001
ACAD
1000
AcDbSavedByObjectVersion
1070
     0
  0
ACAD_PROXY_OBJECT
  5
40
102
{ACAD_REACTORS
330
2A
102
}
330
2A
100
AcDbZombieObject
 90
      499
 91
      501
 93
      404
310
41560B54985E51940902404000000000000E03F0000000000000F9010740501907004050150841D405064090740C02480A1B40
1001
ACAD
1000
AcDbSavedByObjectVersion
1070
     0
  0
DICTIONARYVAR
  5
12E
102
{ACAD_REACTORS
330
127
102
}
330
127
100
DictionaryVariables
280
     0
  1
1:1
  0
DICTIONARYVAR
  5
129
102
{ACAD_REACTORS
330
127
102
}
330
127
100
DictionaryVariables
280
     0
  1
Standard
  0
DICTIONARYVAR
  5
128
102
{ACAD_REACTORS
330
127
102
}
330
127
100
DictionaryVariables
280
     0
  1
Standard
  0
DICTIONARYVAR
  5
12C
102
{ACAD_REACTORS
330
127
102
}
330
127
100
DictionaryVariables
280
     0
  1
2
  0
DICTIONARYVAR
  5
12D
102
{ACAD_REACTORS
330
127
102
}
330
127
100
DictionaryVariables
280
     0
  1
1
  0
DICTIONARYVAR
  5
12F
102
{ACAD_REACTORS
330
127
102
}
330
127
100
DictionaryVariables
280
     0
  1
1
  0
DICTIONARY
  5
132
330
45
100
AcDbDictionary
  3
ACAD_XREC_ROUNDTRIP
360
133
1001
ACAD
1000
TREAT_AS_HARD
1070
     1
  0
DICTIONARY
  5
130
330
44
100
AcDbDictionary
  3
ACAD_XREC_ROUNDTRIP
360
131
1001
ACAD
1000
TREAT_AS_HARD
1070
     1
  0
DICTIONARY
  5
134
330
46
100
AcDbDictionary
  3
ACAD_XREC_ROUNDTRIP
360
135
1001
ACAD
1000
TREAT_AS_HARD
1070
     1
  0
XRECORD
  5
133
102
{ACAD_REACTORS
330
132
102
}
330
132
100
AcDbXrecord
102
MATERIAL
148
0.0
149
0.0
149
0.0
 93
        0
 94
      127
282
     0
 72
     1
 77
     1
171
     1
175
     1
179
     1
273
     0
  0
XRECORD
  5
131
102
{ACAD_REACTORS
330
130
102
}
330
130
100
AcDbXrecord
102
MATERIAL
148
0.0
149
0.0
149
0.0
 93
        0
 94
      127
282
     0
 72
     1
 77
     1
171
     1
175
     1
179
     1
273
     0
  0
XRECORD
  5
135
102
{ACAD_REACTORS
330
134
102
}
330
134
100
AcDbXrecord
102
MATERIAL
148
0.0
149
0.0
149
0.0
 93
        0
 94
      127
282
     0
 72
     1
 77
     1
171
     1
175
     1
179
     1
273
     0
  0
ENDSEC
  0
EOF
