  0
SECTION
  2
HEADER
  9
$ACADVER
  1
AC1014
  9
$HANDSEED
  5
FFFF
  9
$MEASUREMENT
 70
     1
  0
ENDSEC
  0
SECTION
  2
TABLES
  0
TABLE
  2
VPORT
  5
8
330
0
100
AcDbSymbolTable
 70
     4
  0
VPORT
  5
2E
330
8
100
AcDbSymbolTableRecord
100
AcDbViewportTableRecord
  2
*ACTIVE
 70
     0
 10
0.0
 20
0.0
 11
1.0
 21
1.0
 12
210.0
 22
148.5
 13
0.0
 23
0.0
 14
10.0
 24
10.0
 15
10.0
 25
10.0
 16
0.0
 26
0.0
 36
1.0
 17
0.0
 27
0.0
 37
0.0
 40
341.0
 41
1.24
 42
50.0
 43
0.0
 44
0.0
 50
0.0
 51
0.0
 71
     0
 72
   100
 73
     1
 74
     3
 75
     0
 76
     0
 77
     0
 78
     0
  0
ENDTAB
  0
TABLE
  2
LTYPE
  5
5
330
0
100
AcDbSymbolTable
 70
     1
  0
LTYPE
  5
14
330
5
100
AcDbSymbolTableRecord
100
AcDbLinetypeTableRecord
  2
BYBLOCK
 70
     0
  3

 72
    65
 73
     0
 40
0.0
  0
LTYPE
  5
15
330
5
100
AcDbSymbolTableRecord
100
AcDbLinetypeTableRecord
  2
BYLAYER
 70
     0
  3

 72
    65
 73
     0
 40
0.0
  0
LTYPE
  5
16
330
5
100
AcDbSymbolTableRecord
100
AcDbLinetypeTableRecord
  2
CONTINUOUS
 70
     0
  3
Solid line
 72
    65
 73
     0
 40
0.0
  0
ENDTAB
  0
TABLE
  2
LAYER
  5
2
100
AcDbSymbolTable
 70
2
  0
LAYER
  5
50
100
AcDbSymbolTableRecord
100
AcDbLayerTableRecord
  2
0
 70
0
  6
CONTINUOUS
  0
LAYER
  5
51
100
AcDbSymbolTableRecord
100
AcDbLayerTableRecord
  2
Layer_1
 70
0
  6
CONTINUOUS
  0
ENDTAB
  0
TABLE
  2
STYLE
  5
3
330
0
100
AcDbSymbolTable
 70
     1
  0
STYLE
  5
11
330
3
100
AcDbSymbolTableRecord
100
AcDbTextStyleTableRecord
  2
STANDARD
 70
     0
 40
0.0
 41
1.0
 50
0.0
 71
     0
 42
2.5
  3
txt
  4

  0
ENDTAB
  0
TABLE
  2
VIEW
  5
6
330
0
100
AcDbSymbolTable
 70
     0
  0
ENDTAB
  0
TABLE
  2
UCS
  5
7
330
0
100
AcDbSymbolTable
 70
     0
  0
ENDTAB
  0
TABLE
  2
APPID
  5
9
330
0
100
AcDbSymbolTable
 70
     2
  0
APPID
  5
12
330
9
100
AcDbSymbolTableRecord
100
AcDbRegAppTableRecord
  2
ACAD
 70
     0
  0
ENDTAB
  0
TABLE
  2
DIMSTYLE
  5
A
330
0
100
AcDbSymbolTable
 70
     1
  0
DIMSTYLE
105
27
330
A
100
AcDbSymbolTableRecord
100
AcDbDimStyleTableRecord
  2
ISO-25
 70
     0
  3

  4

  5

  6

  7

 40
1.0
 41
2.5
 42
0.625
 43
3.75
 44
1.25
 45
0.0
 46
0.0
 47
0.0
 48
0.0
140
2.5
141
2.5
142
0.0
143
0.03937007874016
144
1.0
145
0.0
146
1.0
147
0.625
 71
     0
 72
     0
 73
     0
 74
     0
 75
     0
 76
     0
 77
     1
 78
     8
170
     0
171
     3
172
     1
173
     0
174
     0
175
     0
176
     0
177
     0
178
     0
270
     2
271
     2
272
     2
273
     2
274
     3
340
11
275
     0
280
     0
281
     0
282
     0
283
     0
284
     8
285
     0
286
     0
287
     3
288
     0
  0
ENDTAB
  0
TABLE
  2
BLOCK_RECORD
  5
1
330
0
100
AcDbSymbolTable
 70
     1
  0
BLOCK_RECORD
  5
1F
330
1
100
AcDbSymbolTableRecord
100
AcDbBlockTableRecord
  2
*MODEL_SPACE
  0
BLOCK_RECORD
  5
1B
330
1
100
AcDbSymbolTableRecord
100
AcDbBlockTableRecord
  2
*PAPER_SPACE
  0
ENDTAB
  0
ENDSEC
  0
SECTION
  2
BLOCKS
  0
BLOCK
  5
20
330
1F
100
AcDbEntity
  8
0
100
AcDbBlockBegin
  2
*MODEL_SPACE
 70
     0
 10
0.0
 20
0.0
 30
0.0
  3
*MODEL_SPACE
  1

  0
ENDBLK
  5
21
330
1F
100
AcDbEntity
  8
0
100
AcDbBlockEnd
  0
BLOCK
  5
1C
330
1B
100
AcDbEntity
 67
     1
  8
0
100
AcDbBlockBegin
  2
*PAPER_SPACE
  1

  0
ENDBLK
  5
1D
330
1B
100
AcDbEntity
 67
     1
  8
0
100
AcDbBlockEnd
  0
ENDSEC
  0
SECTION
  2
ENTITIES
  0
LINE
  5
100
100
AcDbEntity
  8
Layer_1
 62
7
100
AcDbLine
 10
396.332380
 20
322.557620
 30
0.0
 11
388.458380
 21
325.774960
 31
0.0
  0
LINE
  5
101
100
AcDbEntity
  8
Layer_1
 62
7
100
AcDbLine
 10
388.458380
 20
325.774960
 30
0.0
 11
354.930380
 21
311.762620
 31
0.0
  0
LINE
  5
102
100
AcDbEntity
  8
Layer_1
 62
7
100
AcDbLine
 10
354.930380
 20
311.762620
 30
0.0
 11
351.670720
 21
303.930950
 31
0.0
  0
LINE
  5
103
100
AcDbEntity
  8
Layer_1
 62
7
100
AcDbLine
 10
351.670720
 20
303.930950
 30
0.0
 11
351.670720
 21
303.930950
 31
0.0
  0
LINE
  5
104
100
AcDbEntity
  8
Layer_1
 62
7
100
AcDbLine
 10
351.670720
 20
303.930950
 30
0.0
 11
349.977380
 21
295.633620
 31
0.0
  0
LINE
  5
105
100
AcDbEntity
  8
Layer_1
 62
7
100
AcDbLine
 10
349.977380
 20
295.633620
 30
0.0
 11
362.000050
 21
277.430280
 31
0.0
  0
LINE
  5
106
100
AcDbEntity
  8
Layer_1
 62
7
100
AcDbLine
 10
448.571710
 20
244.918280
 30
0.0
 11
444.634710
 21
252.411280
 31
0.0
  0
LINE
  5
107
100
AcDbEntity
  8
Layer_1
 62
7
100
AcDbLine
 10
444.634710
 20
252.411280
 30
0.0
 11
426.643040
 21
258.041610
 31
0.0
  0
LINE
  5
108
100
AcDbEntity
  8
Layer_1
 62
7
100
AcDbLine
 10
329.488050
 20
242.970940
 30
0.0
 11
329.488050
 21
242.970940
 31
0.0
  0
LINE
  5
109
100
AcDbEntity
  8
Layer_1
 62
7
100
AcDbLine
 10
329.488050
 20
242.970940
 30
0.0
 11
329.488050
 21
242.970940
 31
0.0
  0
LINE
  5
10a
100
AcDbEntity
  8
Layer_1
 62
7
100
AcDbLine
 10
329.488050
 20
242.970940
 30
0.0
 11
335.457050
 21
236.959610
 31
0.0
  0
LINE
  5
10b
100
AcDbEntity
  8
Layer_1
 62
7
100
AcDbLine
 10
335.457050
 20
236.959610
 30
0.0
 11
349.638720
 21
236.917310
 31
0.0
  0
LINE
  5
10c
100
AcDbEntity
  8
Layer_1
 62
7
100
AcDbLine
 10
338.928380
 20
290.045620
 30
0.0
 11
331.858720
 21
285.346620
 31
0.0
  0
LINE
  5
10d
100
AcDbEntity
  8
Layer_1
 62
7
100
AcDbLine
 10
331.858720
 20
285.346620
 30
0.0
 11
325.170050
 21
252.030280
 31
0.0
  0
LINE
  5
10e
100
AcDbEntity
  8
Layer_1
 62
7
100
AcDbLine
 10
325.170050
 20
252.030280
 30
0.0
 11
329.488050
 21
242.970940
 31
0.0
  0
LINE
  5
10f
100
AcDbEntity
  8
Layer_1
 62
7
100
AcDbLine
 10
329.488050
 20
242.970940
 30
0.0
 11
329.488050
 21
242.970940
 31
0.0
  0
LINE
  5
110
100
AcDbEntity
  8
Layer_1
 62
7
100
AcDbLine
 10
329.488050
 20
242.970940
 30
0.0
 11
329.488050
 21
242.970940
 31
0.0
  0
LINE
  5
111
100
AcDbEntity
  8
Layer_1
 62
7
100
AcDbLine
 10
329.488050
 20
242.970940
 30
0.0
 11
329.488050
 21
242.970940
 31
0.0
  0
LINE
  5
112
100
AcDbEntity
  8
Layer_1
 62
7
100
AcDbLine
 10
332.620720
 20
228.873940
 30
0.0
 11
332.620720
 21
228.873940
 31
0.0
  0
LINE
  5
113
100
AcDbEntity
  8
Layer_1
 62
7
100
AcDbLine
 10
332.620720
 20
228.873940
 30
0.0
 11
332.620720
 21
228.873940
 31
0.0
  0
LINE
  5
114
100
AcDbEntity
  8
Layer_1
 62
7
100
AcDbLine
 10
332.620720
 20
228.873940
 30
0.0
 11
333.594380
 21
220.449610
 31
0.0
  0
LINE
  5
115
100
AcDbEntity
  8
Layer_1
 62
7
100
AcDbLine
 10
333.594380
 20
220.449610
 30
0.0
 11
359.925720
 21
199.621520
 31
0.0
  0
LINE
  5
116
100
AcDbEntity
  8
Layer_1
 62
7
100
AcDbLine
 10
359.925720
 20
199.621520
 30
0.0
 11
368.392380
 21
200.552850
 31
0.0
  0
LINE
  5
117
100
AcDbEntity
  8
Layer_1
 62
7
100
AcDbLine
 10
368.392380
 20
200.552850
 30
0.0
 11
368.392380
 21
200.552850
 31
0.0
  0
LINE
  5
118
100
AcDbEntity
  8
Layer_1
 62
7
100
AcDbLine
 10
368.392380
 20
200.552850
 30
0.0
 11
368.392380
 21
200.552850
 31
0.0
  0
LINE
  5
119
100
AcDbEntity
  8
Layer_1
 62
7
100
AcDbLine
 10
423.510380
 20
204.701520
 30
0.0
 11
423.510380
 21
204.701520
 31
0.0
  0
LINE
  5
11a
100
AcDbEntity
  8
Layer_1
 62
7
100
AcDbLine
 10
423.510380
 20
204.701520
 30
0.0
 11
423.510380
 21
204.701520
 31
0.0
  0
LINE
  5
11b
100
AcDbEntity
  8
Layer_1
 62
7
100
AcDbLine
 10
423.510380
 20
204.701520
 30
0.0
 11
432.273380
 21
207.410850
 31
0.0
  0
LINE
  5
11c
100
AcDbEntity
  8
Layer_1
 62
7
100
AcDbLine
 10
432.273380
 20
207.410850
 30
0.0
 11
450.476710
 21
236.663280
 31
0.0
  0
LINE
  5
11d
100
AcDbEntity
  8
Layer_1
 62
7
100
AcDbLine
 10
450.476710
 20
236.663280
 30
0.0
 11
448.571710
 21
244.918280
 31
0.0
  0
LINE
  5
11e
100
AcDbEntity
  8
Layer_1
 62
7
100
AcDbLine
 10
448.571710
 20
244.918280
 30
0.0
 11
448.571710
 21
244.918280
 31
0.0
  0
LINE
  5
11f
100
AcDbEntity
  8
Layer_1
 62
7
100
AcDbLine
 10
448.571710
 20
244.918280
 30
0.0
 11
448.571710
 21
244.918280
 31
0.0
  0
LINE
  5
120
100
AcDbEntity
  8
Layer_1
 62
7
100
AcDbLine
 10
368.392380
 20
200.552850
 30
0.0
 11
375.885380
 21
202.881190
 31
0.0
  0
LINE
  5
121
100
AcDbEntity
  8
Layer_1
 62
7
100
AcDbLine
 10
416.102040
 20
201.018520
 30
0.0
 11
419.912040
 21
208.596190
 31
0.0
  0
LINE
  5
122
100
AcDbEntity
  8
Layer_1
 62
7
100
AcDbLine
 10
419.912040
 20
208.596190
 30
0.0
 11
419.065380
 21
211.220850
 31
0.0
  0
LINE
  5
123
100
AcDbEntity
  8
Layer_1
 62
7
100
AcDbLine
 10
406.915710
 20
228.831610
 30
0.0
 11
406.915710
 21
228.831610
 31
0.0
  0
LINE
  5
124
100
AcDbEntity
  8
Layer_1
 62
7
100
AcDbLine
 10
374.742380
 20
198.182190
 30
0.0
 11
374.742380
 21
198.182190
 31
0.0
  0
LINE
  5
125
100
AcDbEntity
  8
Layer_1
 62
7
100
AcDbLine
 10
374.742380
 20
198.182190
 30
0.0
 11
374.742380
 21
198.182190
 31
0.0
  0
LINE
  5
126
100
AcDbEntity
  8
Layer_1
 62
7
100
AcDbLine
 10
374.742380
 20
198.182190
 30
0.0
 11
381.134710
 21
192.594180
 31
0.0
  0
LINE
  5
127
100
AcDbEntity
  8
Layer_1
 62
7
100
AcDbLine
 10
381.134710
 20
192.594180
 30
0.0
 11
396.840380
 21
193.694850
 31
0.0
  0
LINE
  5
128
100
AcDbEntity
  8
Layer_1
 62
7
100
AcDbLine
 10
396.840380
 20
193.694850
 30
0.0
 11
416.102040
 21
201.018520
 31
0.0
  0
LINE
  5
129
100
AcDbEntity
  8
Layer_1
 62
7
100
AcDbLine
 10
416.102040
 20
201.018520
 30
0.0
 11
416.102040
 21
201.018520
 31
0.0
  0
LINE
  5
12a
100
AcDbEntity
  8
Layer_1
 62
7
100
AcDbLine
 10
416.102040
 20
201.018520
 30
0.0
 11
416.102040
 21
201.018520
 31
0.0
  0
LINE
  5
12b
100
AcDbEntity
  8
Layer_1
 62
7
100
AcDbLine
 10
416.102040
 20
201.018520
 30
0.0
 11
416.102040
 21
201.018520
 31
0.0
  0
LINE
  5
12c
100
AcDbEntity
  8
Layer_1
 62
7
100
AcDbLine
 10
448.825710
 20
264.222280
 30
0.0
 11
448.825710
 21
264.222280
 31
0.0
  0
LINE
  5
12d
100
AcDbEntity
  8
Layer_1
 62
7
100
AcDbLine
 10
448.825710
 20
264.222280
 30
0.0
 11
448.825710
 21
264.222280
 31
0.0
  0
LINE
  5
12e
100
AcDbEntity
  8
Layer_1
 62
7
100
AcDbLine
 10
448.825710
 20
264.222280
 30
0.0
 11
451.196380
 21
272.350280
 31
0.0
  0
LINE
  5
12f
100
AcDbEntity
  8
Layer_1
 62
7
100
AcDbLine
 10
451.196380
 20
272.350280
 30
0.0
 11
428.929040
 21
312.778620
 31
0.0
  0
LINE
  5
130
100
AcDbEntity
  8
Layer_1
 62
7
100
AcDbLine
 10
428.929040
 20
312.778620
 30
0.0
 11
420.758710
 21
315.149290
 31
0.0
  0
LINE
  5
131
100
AcDbEntity
  8
Layer_1
 62
7
100
AcDbLine
 10
420.758710
 20
315.149290
 30
0.0
 11
420.758710
 21
315.149290
 31
0.0
  0
LINE
  5
132
100
AcDbEntity
  8
Layer_1
 62
7
100
AcDbLine
 10
420.758710
 20
315.149290
 30
0.0
 11
420.758710
 21
315.149290
 31
0.0
  0
LINE
  5
133
100
AcDbEntity
  8
Layer_1
 62
7
100
AcDbLine
 10
420.758710
 20
315.149290
 30
0.0
 11
420.758710
 21
315.149290
 31
0.0
  0
LINE
  5
134
100
AcDbEntity
  8
Layer_1
 62
7
100
AcDbLine
 10
420.758710
 20
315.149290
 30
0.0
 11
412.503710
 21
313.286620
 31
0.0
  0
LINE
  5
135
100
AcDbEntity
  8
Layer_1
 62
7
100
AcDbLine
 10
412.503710
 20
313.286620
 30
0.0
 11
395.570380
 21
286.785950
 31
0.0
  0
LINE
  5
136
100
AcDbEntity
  8
Layer_1
 62
7
100
AcDbLine
 10
395.316380
 20
275.228950
 30
0.0
 11
395.316380
 21
275.228950
 31
0.0
  0
LINE
  5
137
100
AcDbEntity
  8
Layer_1
 62
7
100
AcDbLine
 10
395.316380
 20
275.228950
 30
0.0
 11
395.316380
 21
275.228950
 31
0.0
  0
LINE
  5
138
100
AcDbEntity
  8
Layer_1
 62
7
100
AcDbLine
 10
365.175050
 20
448.753310
 30
0.0
 11
365.175050
 21
448.753310
 31
0.0
  0
LINE
  5
139
100
AcDbEntity
  8
Layer_1
 62
7
100
AcDbLine
 10
365.175050
 20
448.753310
 30
0.0
 11
356.158050
 21
453.113640
 31
0.0
  0
LINE
  5
13a
100
AcDbEntity
  8
Layer_1
 62
7
100
AcDbLine
 10
356.158050
 20
453.113640
 30
0.0
 11
322.757050
 21
446.509640
 31
0.0
  0
LINE
  5
13b
100
AcDbEntity
  8
Layer_1
 62
7
100
AcDbLine
 10
322.757050
 20
446.509640
 30
0.0
 11
318.058050
 21
439.439970
 31
0.0
  0
LINE
  5
13c
100
AcDbEntity
  8
Layer_1
 62
7
100
AcDbLine
 10
379.229710
 20
445.578310
 30
0.0
 11
379.229710
 21
445.578310
 31
0.0
  0
LINE
  5
13d
100
AcDbEntity
  8
Layer_1
 62
7
100
AcDbLine
 10
379.229710
 20
445.578310
 30
0.0
 11
369.831720
 21
439.820980
 31
0.0
  0
LINE
  5
13e
100
AcDbEntity
  8
Layer_1
 62
7
100
AcDbLine
 10
369.831720
 20
439.820980
 30
0.0
 11
365.132720
 21
429.957310
 31
0.0
  0
LINE
  5
13f
100
AcDbEntity
  8
Layer_1
 62
7
100
AcDbLine
 10
365.132720
 20
415.944970
 30
0.0
 11
365.132720
 21
415.944970
 31
0.0
  0
LINE
  5
140
100
AcDbEntity
  8
Layer_1
 62
7
100
AcDbLine
 10
365.132720
 20
415.944970
 30
0.0
 11
365.132720
 21
415.944970
 31
0.0
  0
LINE
  5
141
100
AcDbEntity
  8
Layer_1
 62
7
100
AcDbLine
 10
407.466050
 20
409.721970
 30
0.0
 11
407.466050
 21
409.721970
 31
0.0
  0
LINE
  5
142
100
AcDbEntity
  8
Layer_1
 62
7
100
AcDbLine
 10
407.466050
 20
409.721970
 30
0.0
 11
407.466050
 21
409.721970
 31
0.0
  0
LINE
  5
143
100
AcDbEntity
  8
Layer_1
 62
7
100
AcDbLine
 10
407.466050
 20
409.721970
 30
0.0
 11
408.439710
 21
418.188640
 31
0.0
  0
LINE
  5
144
100
AcDbEntity
  8
Layer_1
 62
7
100
AcDbLine
 10
408.439710
 20
418.188640
 30
0.0
 11
387.654050
 21
444.562310
 31
0.0
  0
LINE
  5
145
100
AcDbEntity
  8
Layer_1
 62
7
100
AcDbLine
 10
387.654050
 20
444.562310
 30
0.0
 11
379.229710
 21
445.578310
 31
0.0
  0
LINE
  5
146
100
AcDbEntity
  8
Layer_1
 62
7
100
AcDbLine
 10
379.229710
 20
445.578310
 30
0.0
 11
379.229710
 21
445.578310
 31
0.0
  0
LINE
  5
147
100
AcDbEntity
  8
Layer_1
 62
7
100
AcDbLine
 10
379.229710
 20
445.578310
 30
0.0
 11
379.229710
 21
445.578310
 31
0.0
  0
LINE
  5
148
100
AcDbEntity
  8
Layer_1
 62
7
100
AcDbLine
 10
405.137710
 20
402.228970
 30
0.0
 11
407.466050
 21
409.721970
 31
0.0
  0
LINE
  5
149
100
AcDbEntity
  8
Layer_1
 62
7
100
AcDbLine
 10
407.466050
 20
409.721970
 30
0.0
 11
407.466050
 21
409.721970
 31
0.0
  0
LINE
  5
14a
100
AcDbEntity
  8
Layer_1
 62
7
100
AcDbLine
 10
407.466050
 20
409.721970
 30
0.0
 11
407.466050
 21
409.721970
 31
0.0
  0
LINE
  5
14b
100
AcDbEntity
  8
Layer_1
 62
7
100
AcDbLine
 10
407.466050
 20
409.721970
 30
0.0
 11
407.466050
 21
409.721970
 31
0.0
  0
LINE
  5
14c
100
AcDbEntity
  8
Layer_1
 62
7
100
AcDbLine
 10
406.873380
 20
362.054630
 30
0.0
 11
406.873380
 21
362.054630
 31
0.0
  0
LINE
  5
14d
100
AcDbEntity
  8
Layer_1
 62
7
100
AcDbLine
 10
406.873380
 20
362.054630
 30
0.0
 11
414.281710
 21
381.273970
 31
0.0
  0
LINE
  5
14e
100
AcDbEntity
  8
Layer_1
 62
7
100
AcDbLine
 10
414.281710
 20
381.273970
 30
0.0
 11
415.424710
 21
396.979630
 31
0.0
  0
LINE
  5
14f
100
AcDbEntity
  8
Layer_1
 62
7
100
AcDbLine
 10
415.424710
 20
396.979630
 30
0.0
 11
409.836710
 21
403.414300
 31
0.0
  0
LINE
  5
150
100
AcDbEntity
  8
Layer_1
 62
7
100
AcDbLine
 10
409.836710
 20
403.414300
 30
0.0
 11
409.836710
 21
403.414300
 31
0.0
  0
LINE
  5
151
100
AcDbEntity
  8
Layer_1
 62
7
100
AcDbLine
 10
349.850380
 20
351.640630
 30
0.0
 11
355.396050
 21
333.648960
 31
0.0
  0
LINE
  5
152
100
AcDbEntity
  8
Layer_1
 62
7
100
AcDbLine
 10
355.396050
 20
333.648960
 30
0.0
 11
362.889050
 21
329.669620
 31
0.0
  0
LINE
  5
153
100
AcDbEntity
  8
Layer_1
 62
7
100
AcDbLine
 10
362.889050
 20
329.669620
 30
0.0
 11
362.889050
 21
329.669620
 31
0.0
  0
LINE
  5
154
100
AcDbEntity
  8
Layer_1
 62
7
100
AcDbLine
 10
362.889050
 20
329.669620
 30
0.0
 11
362.889050
 21
329.669620
 31
0.0
  0
LINE
  5
155
100
AcDbEntity
  8
Layer_1
 62
7
100
AcDbLine
 10
403.148050
 20
354.603960
 30
0.0
 11
403.148050
 21
354.603960
 31
0.0
  0
LINE
  5
156
100
AcDbEntity
  8
Layer_1
 62
7
100
AcDbLine
 10
403.148050
 20
354.603960
 30
0.0
 11
403.148050
 21
354.603960
 31
0.0
  0
LINE
  5
157
100
AcDbEntity
  8
Layer_1
 62
7
100
AcDbLine
 10
403.148050
 20
354.603960
 30
0.0
 11
399.973050
 21
364.128960
 31
0.0
  0
LINE
  5
158
100
AcDbEntity
  8
Layer_1
 62
7
100
AcDbLine
 10
399.973050
 20
364.128960
 30
0.0
 11
399.380380
 21
364.509960
 31
0.0
  0
LINE
  5
159
100
AcDbEntity
  8
Layer_1
 62
7
100
AcDbLine
 10
362.889050
 20
329.669620
 30
0.0
 11
371.144050
 21
327.764620
 31
0.0
  0
LINE
  5
15a
100
AcDbEntity
  8
Layer_1
 62
7
100
AcDbLine
 10
371.144050
 20
327.764620
 30
0.0
 11
400.481050
 21
345.883290
 31
0.0
  0
LINE
  5
15b
100
AcDbEntity
  8
Layer_1
 62
7
100
AcDbLine
 10
400.481050
 20
345.883290
 30
0.0
 11
403.148050
 21
354.603960
 31
0.0
  0
LINE
  5
15c
100
AcDbEntity
  8
Layer_1
 62
7
100
AcDbLine
 10
403.148050
 20
354.603960
 30
0.0
 11
403.148050
 21
354.603960
 31
0.0
  0
LINE
  5
15d
100
AcDbEntity
  8
Layer_1
 62
7
100
AcDbLine
 10
403.148050
 20
354.603960
 30
0.0
 11
403.148050
 21
354.603960
 31
0.0
  0
LINE
  5
15e
100
AcDbEntity
  8
Layer_1
 62
7
100
AcDbLine
 10
403.148050
 20
354.603960
 30
0.0
 11
403.148050
 21
354.603960
 31
0.0
  0
LINE
  5
15f
100
AcDbEntity
  8
Layer_1
 62
7
100
AcDbLine
 10
292.742720
 20
357.651960
 30
0.0
 11
292.742720
 21
357.651960
 31
0.0
  0
LINE
  5
160
100
AcDbEntity
  8
Layer_1
 62
7
100
AcDbLine
 10
292.742720
 20
357.651960
 30
0.0
 11
292.742720
 21
357.651960
 31
0.0
  0
LINE
  5
161
100
AcDbEntity
  8
Layer_1
 62
7
100
AcDbLine
 10
292.742720
 20
357.651960
 30
0.0
 11
295.113390
 21
349.523960
 31
0.0
  0
LINE
  5
162
100
AcDbEntity
  8
Layer_1
 62
7
100
AcDbLine
 10
295.113390
 20
349.523960
 30
0.0
 11
335.457050
 21
327.129620
 31
0.0
  0
LINE
  5
163
100
AcDbEntity
  8
Layer_1
 62
7
100
AcDbLine
 10
335.457050
 20
327.129620
 30
0.0
 11
343.585050
 21
329.457960
 31
0.0
  0
LINE
  5
164
100
AcDbEntity
  8
Layer_1
 62
7
100
AcDbLine
 10
343.585050
 20
329.457960
 30
0.0
 11
343.585050
 21
329.457960
 31
0.0
  0
LINE
  5
165
100
AcDbEntity
  8
Layer_1
 62
7
100
AcDbLine
 10
343.585050
 20
329.457960
 30
0.0
 11
343.585050
 21
329.457960
 31
0.0
  0
LINE
  5
166
100
AcDbEntity
  8
Layer_1
 62
7
100
AcDbLine
 10
332.705380
 20
383.009630
 30
0.0
 11
332.705380
 21
383.009630
 31
0.0
  0
LINE
  5
167
100
AcDbEntity
  8
Layer_1
 62
7
100
AcDbLine
 10
321.190720
 20
382.797970
 30
0.0
 11
294.605390
 21
365.949300
 31
0.0
  0
LINE
  5
168
100
AcDbEntity
  8
Layer_1
 62
7
100
AcDbLine
 10
294.605390
 20
365.949300
 30
0.0
 11
292.742720
 21
357.651960
 31
0.0
  0
LINE
  5
169
100
AcDbEntity
  8
Layer_1
 62
7
100
AcDbLine
 10
292.742720
 20
357.651960
 30
0.0
 11
292.742720
 21
357.651960
 31
0.0
  0
LINE
  5
16a
100
AcDbEntity
  8
Layer_1
 62
7
100
AcDbLine
 10
292.742720
 20
357.651960
 30
0.0
 11
292.742720
 21
357.651960
 31
0.0
  0
LINE
  5
16b
100
AcDbEntity
  8
Layer_1
 62
7
100
AcDbLine
 10
292.742720
 20
357.651960
 30
0.0
 11
292.742720
 21
357.651960
 31
0.0
  0
LINE
  5
16c
100
AcDbEntity
  8
Layer_1
 62
7
100
AcDbLine
 10
336.769380
 20
405.065300
 30
0.0
 11
336.769380
 21
405.065300
 31
0.0
  0
LINE
  5
16d
100
AcDbEntity
  8
Layer_1
 62
7
100
AcDbLine
 10
336.769380
 20
405.065300
 30
0.0
 11
336.769380
 21
405.065300
 31
0.0
  0
LINE
  5
16e
100
AcDbEntity
  8
Layer_1
 62
7
100
AcDbLine
 10
330.631050
 20
416.325970
 30
0.0
 11
312.470050
 21
428.390970
 31
0.0
  0
LINE
  5
16f
100
AcDbEntity
  8
Layer_1
 62
7
100
AcDbLine
 10
312.470050
 20
428.390970
 30
0.0
 11
304.172720
 21
426.739970
 31
0.0
  0
LINE
  5
170
100
AcDbEntity
  8
Layer_1
 62
7
100
AcDbLine
 10
304.172720
 20
426.739970
 30
0.0
 11
304.172720
 21
426.739970
 31
0.0
  0
LINE
  5
171
100
AcDbEntity
  8
Layer_1
 62
7
100
AcDbLine
 10
304.172720
 20
426.739970
 30
0.0
 11
304.172720
 21
426.739970
 31
0.0
  0
LINE
  5
172
100
AcDbEntity
  8
Layer_1
 62
7
100
AcDbLine
 10
304.172720
 20
426.739970
 30
0.0
 11
304.172720
 21
426.739970
 31
0.0
  0
LINE
  5
173
100
AcDbEntity
  8
Layer_1
 62
7
100
AcDbLine
 10
304.172720
 20
426.739970
 30
0.0
 11
304.172720
 21
426.739970
 31
0.0
  0
LINE
  5
174
100
AcDbEntity
  8
Layer_1
 62
7
100
AcDbLine
 10
304.172720
 20
426.739970
 30
0.0
 11
296.298720
 21
423.522640
 31
0.0
  0
LINE
  5
175
100
AcDbEntity
  8
Layer_1
 62
7
100
AcDbLine
 10
296.298720
 20
423.522640
 30
0.0
 11
282.201720
 21
389.994630
 31
0.0
  0
LINE
  5
176
100
AcDbEntity
  8
Layer_1
 62
7
100
AcDbLine
 10
282.201720
 20
389.994630
 30
0.0
 11
285.419060
 21
382.162970
 31
0.0
  0
LINE
  5
177
100
AcDbEntity
  8
Layer_1
 62
7
100
AcDbLine
 10
285.419060
 20
382.162970
 30
0.0
 11
285.419060
 21
382.162970
 31
0.0
  0
LINE
  5
178
100
AcDbEntity
  8
Layer_1
 62
7
100
AcDbLine
 10
285.419060
 20
382.162970
 30
0.0
 11
285.419060
 21
382.162970
 31
0.0
  0
LINE
  5
179
100
AcDbEntity
  8
Layer_1
 62
7
100
AcDbLine
 10
373.260710
 20
271.249620
 30
0.0
 11
374.657710
 21
271.503620
 31
0.0
  0
LINE
  5
17a
100
AcDbEntity
  8
Layer_1
 62
7
100
AcDbLine
 10
378.848710
 20
272.265620
 30
0.0
 11
380.203380
 21
272.519620
 31
0.0
  0
LINE
  5
17b
100
AcDbEntity
  8
Layer_1
 62
7
100
AcDbLine
 10
384.394380
 20
273.281620
 30
0.0
 11
385.791380
 21
273.535620
 31
0.0
  0
LINE
  5
17c
100
AcDbEntity
  8
Layer_1
 62
7
100
AcDbLine
 10
389.982380
 20
274.255280
 30
0.0
 11
391.337050
 21
274.509280
 31
0.0
  0
LINE
  5
17d
100
AcDbEntity
  8
Layer_1
 62
7
100
AcDbLine
 10
396.332380
 20
322.557620
 30
0.0
 11
395.020050
 21
322.007290
 31
0.0
  0
LINE
  5
17e
100
AcDbEntity
  8
Layer_1
 62
7
100
AcDbLine
 10
391.083050
 20
320.398620
 30
0.0
 11
390.448050
 21
320.102290
 31
0.0
  0
LINE
  5
17f
100
AcDbEntity
  8
Layer_1
 62
7
100
AcDbLine
 10
386.511050
 20
318.451290
 30
0.0
 11
385.241050
 21
317.943290
 31
0.0
  0
LINE
  5
180
100
AcDbEntity
  8
Layer_1
 62
7
100
AcDbLine
 10
381.304050
 20
316.292290
 30
0.0
 11
380.669050
 21
316.038290
 31
0.0
  0
LINE
  5
181
100
AcDbEntity
  8
Layer_1
 62
7
100
AcDbLine
 10
376.732050
 20
314.387290
 30
0.0
 11
375.419710
 21
313.836960
 31
0.0
  0
LINE
  5
182
100
AcDbEntity
  8
Layer_1
 62
7
100
AcDbLine
 10
371.525050
 20
312.185950
 30
0.0
 11
370.847720
 21
311.931950
 31
0.0
  0
LINE
  5
183
100
AcDbEntity
  8
Layer_1
 62
7
100
AcDbLine
 10
366.953050
 20
310.280950
 30
0.0
 11
365.640720
 21
309.772950
 31
0.0
  0
LINE
  5
184
100
AcDbEntity
  8
Layer_1
 62
7
100
AcDbLine
 10
361.746050
 20
308.121950
 30
0.0
 11
361.068720
 21
307.867950
 31
0.0
  0
LINE
  5
185
100
AcDbEntity
  8
Layer_1
 62
7
100
AcDbLine
 10
357.174050
 20
306.216950
 30
0.0
 11
355.861720
 21
305.666620
 31
0.0
  0
LINE
  5
186
100
AcDbEntity
  8
Layer_1
 62
7
100
AcDbLine
 10
351.924720
 20
304.015620
 30
0.0
 11
351.670720
 21
303.930920
 31
0.0
  0
LINE
  5
187
100
AcDbEntity
  8
Layer_1
 62
7
100
AcDbLine
 10
351.670720
 20
303.930950
 30
0.0
 11
352.475050
 21
302.745620
 31
0.0
  0
LINE
  5
188
100
AcDbEntity
  8
Layer_1
 62
7
100
AcDbLine
 10
354.803380
 20
299.189620
 30
0.0
 11
355.565380
 21
298.046620
 31
0.0
  0
LINE
  5
189
100
AcDbEntity
  8
Layer_1
 62
7
100
AcDbLine
 10
357.936050
 20
294.490620
 30
0.0
 11
358.698050
 21
293.305290
 31
0.0
  0
LINE
  5
18a
100
AcDbEntity
  8
Layer_1
 62
7
100
AcDbLine
 10
361.026380
 20
289.749280
 30
0.0
 11
361.830720
 21
288.606280
 31
0.0
  0
LINE
  5
18b
100
AcDbEntity
  8
Layer_1
 62
7
100
AcDbLine
 10
364.159050
 20
285.050280
 30
0.0
 11
364.921050
 21
283.864950
 31
0.0
  0
LINE
  5
18c
100
AcDbEntity
  8
Layer_1
 62
7
100
AcDbLine
 10
367.291720
 20
280.308950
 30
0.0
 11
368.053720
 21
279.165950
 31
0.0
  0
LINE
  5
18d
100
AcDbEntity
  8
Layer_1
 62
7
100
AcDbLine
 10
370.382050
 20
275.609950
 30
0.0
 11
371.186380
 21
274.424620
 31
0.0
  0
LINE
  5
18e
100
AcDbEntity
  8
Layer_1
 62
7
100
AcDbLine
 10
395.316380
 20
275.228950
 30
0.0
 11
396.332380
 21
322.557620
 31
0.0
  0
LINE
  5
18f
100
AcDbEntity
  8
Layer_1
 62
7
100
AcDbLine
 10
416.017380
 20
255.035950
 30
0.0
 11
415.551710
 21
253.723610
 31
0.0
  0
LINE
  5
190
100
AcDbEntity
  8
Layer_1
 62
7
100
AcDbLine
 10
414.154710
 20
249.701950
 30
0.0
 11
413.689040
 21
248.389610
 31
0.0
  0
LINE
  5
191
100
AcDbEntity
  8
Layer_1
 62
7
100
AcDbLine
 10
412.292050
 20
244.367940
 30
0.0
 11
411.826380
 21
243.013280
 31
0.0
  0
LINE
  5
192
100
AcDbEntity
  8
Layer_1
 62
7
100
AcDbLine
 10
410.471710
 20
239.033940
 30
0.0
 11
410.006050
 21
237.679280
 31
0.0
  0
LINE
  5
193
100
AcDbEntity
  8
Layer_1
 62
7
100
AcDbLine
 10
408.609050
 20
233.657610
 30
0.0
 11
408.143380
 21
232.345280
 31
0.0
  0
LINE
  5
194
100
AcDbEntity
  8
Layer_1
 62
7
100
AcDbLine
 10
448.571710
 20
244.918280
 30
0.0
 11
447.217040
 21
245.341610
 31
0.0
  0
LINE
  5
195
100
AcDbEntity
  8
Layer_1
 62
7
100
AcDbLine
 10
443.153040
 20
246.611610
 30
0.0
 11
441.798380
 21
247.034940
 31
0.0
  0
LINE
  5
196
100
AcDbEntity
  8
Layer_1
 62
7
100
AcDbLine
 10
437.776710
 20
248.262610
 30
0.0
 11
436.422040
 21
248.685940
 31
0.0
  0
LINE
  5
197
100
AcDbEntity
  8
Layer_1
 62
7
100
AcDbLine
 10
432.358040
 20
249.955950
 30
0.0
 11
431.003380
 21
250.379280
 31
0.0
  0
LINE
  5
198
100
AcDbEntity
  8
Layer_1
 62
7
100
AcDbLine
 10
426.939380
 20
251.649280
 30
0.0
 11
425.584710
 21
252.072610
 31
0.0
  0
LINE
  5
199
100
AcDbEntity
  8
Layer_1
 62
7
100
AcDbLine
 10
421.563040
 20
253.342610
 30
0.0
 11
420.208380
 21
253.765950
 31
0.0
  0
LINE
  5
19a
100
AcDbEntity
  8
Layer_1
 62
7
100
AcDbLine
 10
416.144380
 20
254.993610
 30
0.0
 11
416.017380
 21
255.035910
 31
0.0
  0
LINE
  5
19b
100
AcDbEntity
  8
Layer_1
 62
7
100
AcDbLine
 10
406.915710
 20
228.831610
 30
0.0
 11
423.510380
 21
204.701520
 31
0.0
  0
LINE
  5
19c
100
AcDbEntity
  8
Layer_1
 62
7
100
AcDbLine
 10
416.017380
 20
255.035950
 30
0.0
 11
415.001380
 21
256.051950
 31
0.0
  0
LINE
  5
19d
100
AcDbEntity
  8
Layer_1
 62
7
100
AcDbLine
 10
411.953380
 20
259.015280
 30
0.0
 11
410.937380
 21
259.988950
 31
0.0
  0
LINE
  5
19e
100
AcDbEntity
  8
Layer_1
 62
7
100
AcDbLine
 10
407.889380
 20
262.952280
 30
0.0
 11
406.873380
 21
263.925950
 31
0.0
  0
LINE
  5
19f
100
AcDbEntity
  8
Layer_1
 62
7
100
AcDbLine
 10
403.867710
 20
266.889280
 30
0.0
 11
402.851710
 21
267.905280
 31
0.0
  0
LINE
  5
1a0
100
AcDbEntity
  8
Layer_1
 62
7
100
AcDbLine
 10
399.803710
 20
270.868620
 30
0.0
 11
398.787710
 21
271.842280
 31
0.0
  0
LINE
  5
1a1
100
AcDbEntity
  8
Layer_1
 62
7
100
AcDbLine
 10
395.739710
 20
274.805620
 30
0.0
 11
395.316380
 21
275.228950
 31
0.0
  0
LINE
  5
1a2
100
AcDbEntity
  8
Layer_1
 62
7
100
AcDbLine
 10
373.260710
 20
271.249620
 30
0.0
 11
372.752710
 21
269.937280
 31
0.0
  0
LINE
  5
1a3
100
AcDbEntity
  8
Layer_1
 62
7
100
AcDbLine
 10
371.228710
 20
266.000280
 30
0.0
 11
370.720720
 21
264.645610
 31
0.0
  0
LINE
  5
1a4
100
AcDbEntity
  8
Layer_1
 62
7
100
AcDbLine
 10
369.196720
 20
260.708610
 30
0.0
 11
368.646380
 21
259.396280
 31
0.0
  0
LINE
  5
1a5
100
AcDbEntity
  8
Layer_1
 62
7
100
AcDbLine
 10
367.122380
 20
255.416950
 30
0.0
 11
366.614380
 21
254.104610
 31
0.0
  0
LINE
  5
1a6
100
AcDbEntity
  8
Layer_1
 62
7
100
AcDbLine
 10
365.090380
 20
250.167610
 30
0.0
 11
364.582380
 21
248.855280
 31
0.0
  0
LINE
  5
1a7
100
AcDbEntity
  8
Layer_1
 62
7
100
AcDbLine
 10
363.058380
 20
244.875940
 30
0.0
 11
362.550380
 21
243.563610
 31
0.0
  0
LINE
  5
1a8
100
AcDbEntity
  8
Layer_1
 62
7
100
AcDbLine
 10
329.488050
 20
242.970940
 30
0.0
 11
330.885050
 21
242.970940
 31
0.0
  0
LINE
  5
1a9
100
AcDbEntity
  8
Layer_1
 62
7
100
AcDbLine
 10
335.118380
 20
242.970940
 30
0.0
 11
336.557720
 21
242.970940
 31
0.0
  0
LINE
  5
1aa
100
AcDbEntity
  8
Layer_1
 62
7
100
AcDbLine
 10
340.791050
 20
242.928610
 30
0.0
 11
342.188050
 21
242.928610
 31
0.0
  0
LINE
  5
1ab
100
AcDbEntity
  8
Layer_1
 62
7
100
AcDbLine
 10
346.463720
 20
242.928610
 30
0.0
 11
347.860720
 21
242.928610
 31
0.0
  0
LINE
  5
1ac
100
AcDbEntity
  8
Layer_1
 62
7
100
AcDbLine
 10
352.094050
 20
242.928610
 30
0.0
 11
353.533380
 21
242.928610
 31
0.0
  0
LINE
  5
1ad
100
AcDbEntity
  8
Layer_1
 62
7
100
AcDbLine
 10
357.766720
 20
242.928610
 30
0.0
 11
359.163720
 21
242.928610
 31
0.0
  0
LINE
  5
1ae
100
AcDbEntity
  8
Layer_1
 62
7
100
AcDbLine
 10
338.928380
 20
290.045620
 30
0.0
 11
338.632050
 21
288.690950
 31
0.0
  0
LINE
  5
1af
100
AcDbEntity
  8
Layer_1
 62
7
100
AcDbLine
 10
337.827720
 20
284.499950
 30
0.0
 11
337.658380
 21
283.822620
 31
0.0
  0
LINE
  5
1b0
100
AcDbEntity
  8
Layer_1
 62
7
100
AcDbLine
 10
336.854050
 20
279.673950
 30
0.0
 11
336.557720
 21
278.276950
 31
0.0
  0
LINE
  5
1b1
100
AcDbEntity
  8
Layer_1
 62
7
100
AcDbLine
 10
335.711050
 20
274.128280
 30
0.0
 11
335.584050
 21
273.408620
 31
0.0
  0
LINE
  5
1b2
100
AcDbEntity
  8
Layer_1
 62
7
100
AcDbLine
 10
334.737380
 20
269.259950
 30
0.0
 11
334.483380
 21
267.862950
 31
0.0
  0
LINE
  5
1b3
100
AcDbEntity
  8
Layer_1
 62
7
100
AcDbLine
 10
333.636720
 20
263.714280
 30
0.0
 11
333.509720
 21
263.036950
 31
0.0
  0
LINE
  5
1b4
100
AcDbEntity
  8
Layer_1
 62
7
100
AcDbLine
 10
332.663050
 20
258.888280
 30
0.0
 11
332.366720
 21
257.491280
 31
0.0
  0
LINE
  5
1b5
100
AcDbEntity
  8
Layer_1
 62
7
100
AcDbLine
 10
331.562380
 20
253.300280
 30
0.0
 11
331.393050
 21
252.622950
 31
0.0
  0
LINE
  5
1b6
100
AcDbEntity
  8
Layer_1
 62
7
100
AcDbLine
 10
330.588720
 20
248.474280
 30
0.0
 11
330.292380
 21
247.077280
 31
0.0
  0
LINE
  5
1b7
100
AcDbEntity
  8
Layer_1
 62
7
100
AcDbLine
 10
373.260710
 20
271.249620
 30
0.0
 11
338.928380
 21
290.045620
 31
0.0
  0
LINE
  5
1b8
100
AcDbEntity
  8
Layer_1
 62
7
100
AcDbLine
 10
362.296380
 20
242.928610
 30
0.0
 11
332.620720
 21
228.873940
 31
0.0
  0
LINE
  5
1b9
100
AcDbEntity
  8
Layer_1
 62
7
100
AcDbLine
 10
332.620720
 20
228.873940
 30
0.0
 11
333.721380
 21
228.027280
 31
0.0
  0
LINE
  5
1ba
100
AcDbEntity
  8
Layer_1
 62
7
100
AcDbLine
 10
337.065720
 20
225.360270
 30
0.0
 11
337.616050
 21
224.936940
 31
0.0
  0
LINE
  5
1bb
100
AcDbEntity
  8
Layer_1
 62
7
100
AcDbLine
 10
340.960380
 20
222.312270
 30
0.0
 11
342.061050
 21
221.423270
 31
0.0
  0
LINE
  5
1bc
100
AcDbEntity
  8
Layer_1
 62
7
100
AcDbLine
 10
345.363050
 20
218.798610
 30
0.0
 11
345.913380
 21
218.332940
 31
0.0
  0
LINE
  5
1bd
100
AcDbEntity
  8
Layer_1
 62
7
100
AcDbLine
 10
349.257720
 20
215.708190
 30
0.0
 11
350.358380
 21
214.861520
 31
0.0
  0
LINE
  5
1be
100
AcDbEntity
  8
Layer_1
 62
7
100
AcDbLine
 10
353.702720
 20
212.194520
 30
0.0
 11
354.253050
 21
211.771190
 31
0.0
  0
LINE
  5
1bf
100
AcDbEntity
  8
Layer_1
 62
7
100
AcDbLine
 10
357.555050
 20
209.146520
 30
0.0
 11
358.698050
 21
208.257520
 31
0.0
  0
LINE
  5
1c0
100
AcDbEntity
  8
Layer_1
 62
7
100
AcDbLine
 10
362.000050
 20
205.632850
 30
0.0
 11
362.550380
 21
205.167190
 31
0.0
  0
LINE
  5
1c1
100
AcDbEntity
  8
Layer_1
 62
7
100
AcDbLine
 10
365.894720
 20
202.542520
 30
0.0
 11
366.995380
 21
201.695850
 31
0.0
  0
LINE
  5
1c2
100
AcDbEntity
  8
Layer_1
 62
7
100
AcDbLine
 10
423.510380
 20
204.701520
 30
0.0
 11
424.272380
 21
205.929190
 31
0.0
  0
LINE
  5
1c3
100
AcDbEntity
  8
Layer_1
 62
7
100
AcDbLine
 10
426.516040
 20
209.527520
 30
0.0
 11
426.897040
 21
210.120190
 31
0.0
  0
LINE
  5
1c4
100
AcDbEntity
  8
Layer_1
 62
7
100
AcDbLine
 10
429.140710
 20
213.718520
 30
0.0
 11
429.902710
 21
214.903850
 31
0.0
  0
LINE
  5
1c5
100
AcDbEntity
  8
Layer_1
 62
7
100
AcDbLine
 10
432.104040
 20
218.502270
 30
0.0
 11
432.485040
 21
219.137270
 31
0.0
  0
LINE
  5
1c6
100
AcDbEntity
  8
Layer_1
 62
7
100
AcDbLine
 10
434.728710
 20
222.735610
 30
0.0
 11
435.490710
 21
223.920940
 31
0.0
  0
LINE
  5
1c7
100
AcDbEntity
  8
Layer_1
 62
7
100
AcDbLine
 10
437.734380
 20
227.519270
 30
0.0
 11
438.115380
 21
228.111940
 31
0.0
  0
LINE
  5
1c8
100
AcDbEntity
  8
Layer_1
 62
7
100
AcDbLine
 10
440.359040
 20
231.710280
 30
0.0
 11
441.078710
 21
232.937940
 31
0.0
  0
LINE
  5
1c9
100
AcDbEntity
  8
Layer_1
 62
7
100
AcDbLine
 10
443.322380
 20
236.536280
 30
0.0
 11
443.703380
 21
237.128940
 31
0.0
  0
LINE
  5
1ca
100
AcDbEntity
  8
Layer_1
 62
7
100
AcDbLine
 10
445.947040
 20
240.727280
 30
0.0
 11
446.709040
 21
241.912610
 31
0.0
  0
LINE
  5
1cb
100
AcDbEntity
  8
Layer_1
 62
7
100
AcDbLine
 10
368.392380
 20
200.552850
 30
0.0
 11
369.069720
 21
201.822850
 31
0.0
  0
LINE
  5
1cc
100
AcDbEntity
  8
Layer_1
 62
7
100
AcDbLine
 10
371.017050
 20
205.590520
 30
0.0
 11
371.694380
 21
206.818190
 31
0.0
  0
LINE
  5
1cd
100
AcDbEntity
  8
Layer_1
 62
7
100
AcDbLine
 10
373.684050
 20
210.585850
 30
0.0
 11
374.319050
 21
211.813520
 31
0.0
  0
LINE
  5
1ce
100
AcDbEntity
  8
Layer_1
 62
7
100
AcDbLine
 10
376.308710
 20
215.581190
 30
0.0
 11
376.943710
 21
216.851190
 31
0.0
  0
LINE
  5
1cf
100
AcDbEntity
  8
Layer_1
 62
7
100
AcDbLine
 10
378.933380
 20
220.618940
 30
0.0
 11
379.568380
 21
221.846610
 31
0.0
  0
LINE
  5
1d0
100
AcDbEntity
  8
Layer_1
 62
7
100
AcDbLine
 10
416.102040
 20
201.018520
 30
0.0
 11
415.636380
 21
202.373190
 31
0.0
  0
LINE
  5
1d1
100
AcDbEntity
  8
Layer_1
 62
7
100
AcDbLine
 10
414.324040
 20
206.394850
 30
0.0
 11
413.858380
 21
207.749520
 31
0.0
  0
LINE
  5
1d2
100
AcDbEntity
  8
Layer_1
 62
7
100
AcDbLine
 10
412.546050
 20
211.771190
 30
0.0
 11
412.122710
 21
213.125850
 31
0.0
  0
LINE
  5
1d3
100
AcDbEntity
  8
Layer_1
 62
7
100
AcDbLine
 10
410.768050
 20
217.147520
 30
0.0
 11
410.344710
 21
218.502270
 31
0.0
  0
LINE
  5
1d4
100
AcDbEntity
  8
Layer_1
 62
7
100
AcDbLine
 10
408.990050
 20
222.523940
 30
0.0
 11
408.566710
 21
223.878610
 31
0.0
  0
LINE
  5
1d5
100
AcDbEntity
  8
Layer_1
 62
7
100
AcDbLine
 10
407.254380
 20
227.900280
 30
0.0
 11
406.915710
 21
228.831610
 31
0.0
  0
LINE
  5
1d6
100
AcDbEntity
  8
Layer_1
 62
7
100
AcDbLine
 10
374.742380
 20
198.182190
 30
0.0
 11
376.139380
 21
198.266890
 31
0.0
  0
LINE
  5
1d7
100
AcDbEntity
  8
Layer_1
 62
7
100
AcDbLine
 10
380.372710
 20
198.563190
 30
0.0
 11
381.050050
 21
198.605490
 31
0.0
  0
LINE
  5
1d8
100
AcDbEntity
  8
Layer_1
 62
7
100
AcDbLine
 10
385.283380
 20
198.901850
 30
0.0
 11
386.722710
 21
198.986550
 31
0.0
  0
LINE
  5
1d9
100
AcDbEntity
  8
Layer_1
 62
7
100
AcDbLine
 10
390.956050
 20
199.282850
 30
0.0
 11
391.633380
 21
199.325150
 31
0.0
  0
LINE
  5
1da
100
AcDbEntity
  8
Layer_1
 62
7
100
AcDbLine
 10
395.866710
 20
199.621520
 30
0.0
 11
397.306050
 21
199.748520
 31
0.0
  0
LINE
  5
1db
100
AcDbEntity
  8
Layer_1
 62
7
100
AcDbLine
 10
401.539380
 20
200.002520
 30
0.0
 11
402.216710
 21
200.087220
 31
0.0
  0
LINE
  5
1dc
100
AcDbEntity
  8
Layer_1
 62
7
100
AcDbLine
 10
406.450050
 20
200.341190
 30
0.0
 11
407.889380
 21
200.468190
 31
0.0
  0
LINE
  5
1dd
100
AcDbEntity
  8
Layer_1
 62
7
100
AcDbLine
 10
412.122710
 20
200.764520
 30
0.0
 11
412.800050
 21
200.806820
 31
0.0
  0
LINE
  5
1de
100
AcDbEntity
  8
Layer_1
 62
7
100
AcDbLine
 10
381.431050
 20
225.360270
 30
0.0
 11
374.742380
 21
198.182190
 31
0.0
  0
LINE
  5
1df
100
AcDbEntity
  8
Layer_1
 62
7
100
AcDbLine
 10
448.825710
 20
264.222280
 30
0.0
 11
448.148380
 21
265.449950
 31
0.0
  0
LINE
  5
1e0
100
AcDbEntity
  8
Layer_1
 62
7
100
AcDbLine
 10
446.116380
 20
269.175280
 30
0.0
 11
445.777710
 21
269.810280
 31
0.0
  0
LINE
  5
1e1
100
AcDbEntity
  8
Layer_1
 62
7
100
AcDbLine
 10
443.745710
 20
273.493280
 30
0.0
 11
443.026040
 21
274.763280
 31
0.0
  0
LINE
  5
1e2
100
AcDbEntity
  8
Layer_1
 62
7
100
AcDbLine
 10
440.994040
 20
278.446280
 30
0.0
 11
440.655380
 21
279.081280
 31
0.0
  0
LINE
  5
1e3
100
AcDbEntity
  8
Layer_1
 62
7
100
AcDbLine
 10
438.623380
 20
282.806620
 30
0.0
 11
437.903710
 21
284.034280
 31
0.0
  0
LINE
  5
1e4
100
AcDbEntity
  8
Layer_1
 62
7
100
AcDbLine
 10
435.871710
 20
287.759620
 30
0.0
 11
435.533040
 21
288.352280
 31
0.0
  0
LINE
  5
1e5
100
AcDbEntity
  8
Layer_1
 62
7
100
AcDbLine
 10
433.501040
 20
292.077620
 30
0.0
 11
432.781380
 21
293.305290
 31
0.0
  0
LINE
  5
1e6
100
AcDbEntity
  8
Layer_1
 62
7
100
AcDbLine
 10
430.749380
 20
297.030620
 30
0.0
 11
430.410710
 21
297.665620
 31
0.0
  0
LINE
  5
1e7
100
AcDbEntity
  8
Layer_1
 62
7
100
AcDbLine
 10
428.378710
 20
301.390950
 30
0.0
 11
427.659040
 21
302.618620
 31
0.0
  0
LINE
  5
1e8
100
AcDbEntity
  8
Layer_1
 62
7
100
AcDbLine
 10
425.627040
 20
306.343950
 30
0.0
 11
425.288380
 21
306.936620
 31
0.0
  0
LINE
  5
1e9
100
AcDbEntity
  8
Layer_1
 62
7
100
AcDbLine
 10
423.256380
 20
310.661950
 30
0.0
 11
422.536710
 21
311.889620
 31
0.0
  0
LINE
  5
1ea
100
AcDbEntity
  8
Layer_1
 62
7
100
AcDbLine
 10
416.017380
 20
255.035950
 30
0.0
 11
448.825710
 21
264.222280
 31
0.0
  0
LINE
  5
1eb
100
AcDbEntity
  8
Layer_1
 62
7
100
AcDbLine
 10
420.758710
 20
315.149290
 30
0.0
 11
419.996710
 21
313.921620
 31
0.0
  0
LINE
  5
1ec
100
AcDbEntity
  8
Layer_1
 62
7
100
AcDbLine
 10
417.710710
 20
310.365620
 30
0.0
 11
416.948710
 21
309.180290
 31
0.0
  0
LINE
  5
1ed
100
AcDbEntity
  8
Layer_1
 62
7
100
AcDbLine
 10
414.705040
 20
305.581950
 30
0.0
 11
413.943040
 21
304.396620
 31
0.0
  0
LINE
  5
1ee
100
AcDbEntity
  8
Layer_1
 62
7
100
AcDbLine
 10
411.657050
 20
300.840620
 30
0.0
 11
410.895050
 21
299.655290
 31
0.0
  0
LINE
  5
1ef
100
AcDbEntity
  8
Layer_1
 62
7
100
AcDbLine
 10
408.609050
 20
296.056950
 30
0.0
 11
407.847050
 21
294.871620
 31
0.0
  0
LINE
  5
1f0
100
AcDbEntity
  8
Layer_1
 62
7
100
AcDbLine
 10
405.561050
 20
291.273280
 30
0.0
 11
404.799050
 21
290.087950
 31
0.0
  0
LINE
  5
1f1
100
AcDbEntity
  8
Layer_1
 62
7
100
AcDbLine
 10
402.513050
 20
286.531950
 30
0.0
 11
401.751050
 21
285.346620
 31
0.0
  0
LINE
  5
1f2
100
AcDbEntity
  8
Layer_1
 62
7
100
AcDbLine
 10
399.465050
 20
281.748280
 30
0.0
 11
398.703050
 21
280.562950
 31
0.0
  0
LINE
  5
1f3
100
AcDbEntity
  8
Layer_1
 62
7
100
AcDbLine
 10
396.417050
 20
277.006950
 30
0.0
 11
395.655050
 21
275.779280
 31
0.0
  0
LINE
  5
1f4
100
AcDbEntity
  8
Layer_1
 62
7
100
AcDbLine
 10
336.769380
 20
405.065300
 30
0.0
 11
336.515380
 21
403.668300
 31
0.0
  0
LINE
  5
1f5
100
AcDbEntity
  8
Layer_1
 62
7
100
AcDbLine
 10
335.753380
 20
399.477300
 30
0.0
 11
335.499380
 21
398.122640
 31
0.0
  0
LINE
  5
1f6
100
AcDbEntity
  8
Layer_1
 62
7
100
AcDbLine
 10
334.737380
 20
393.931630
 30
0.0
 11
334.483380
 21
392.534630
 31
0.0
  0
LINE
  5
1f7
100
AcDbEntity
  8
Layer_1
 62
7
100
AcDbLine
 10
333.721380
 20
388.343630
 30
0.0
 11
333.467380
 21
386.988970
 31
0.0
  0
LINE
  5
1f8
100
AcDbEntity
  8
Layer_1
 62
7
100
AcDbLine
 10
332.705380
 20
383.009630
 30
0.0
 11
333.721380
 21
381.993630
 31
0.0
  0
LINE
  5
1f9
100
AcDbEntity
  8
Layer_1
 62
7
100
AcDbLine
 10
336.642380
 20
378.945630
 30
0.0
 11
337.658380
 21
377.929630
 31
0.0
  0
LINE
  5
1fa
100
AcDbEntity
  8
Layer_1
 62
7
100
AcDbLine
 10
340.579380
 20
374.881630
 30
0.0
 11
341.595380
 21
373.865630
 31
0.0
  0
LINE
  5
1fb
100
AcDbEntity
  8
Layer_1
 62
7
100
AcDbLine
 10
344.558720
 20
370.859960
 30
0.0
 11
345.532380
 21
369.843960
 31
0.0
  0
LINE
  5
1fc
100
AcDbEntity
  8
Layer_1
 62
7
100
AcDbLine
 10
348.495720
 20
366.795960
 30
0.0
 11
349.469380
 21
365.779960
 31
0.0
  0
LINE
  5
1fd
100
AcDbEntity
  8
Layer_1
 62
7
100
AcDbLine
 10
352.432720
 20
362.731960
 30
0.0
 11
352.856050
 21
362.266300
 31
0.0
  0
LINE
  5
1fe
100
AcDbEntity
  8
Layer_1
 62
7
100
AcDbLine
 10
365.132720
 20
415.944970
 30
0.0
 11
363.820380
 21
415.436970
 31
0.0
  0
LINE
  5
1ff
100
AcDbEntity
  8
Layer_1
 62
7
100
AcDbLine
 10
359.841050
 20
413.912970
 30
0.0
 11
358.528720
 21
413.404970
 31
0.0
  0
LINE
  5
200
100
AcDbEntity
  8
Layer_1
 62
7
100
AcDbLine
 10
354.591720
 20
411.880970
 30
0.0
 11
353.237050
 21
411.372970
 31
0.0
  0
LINE
  5
201
100
AcDbEntity
  8
Layer_1
 62
7
100
AcDbLine
 10
349.300050
 20
409.848970
 30
0.0
 11
347.987720
 21
409.383300
 31
0.0
  0
LINE
  5
202
100
AcDbEntity
  8
Layer_1
 62
7
100
AcDbLine
 10
344.008380
 20
407.859300
 30
0.0
 11
342.696050
 21
407.351300
 31
0.0
  0
LINE
  5
203
100
AcDbEntity
  8
Layer_1
 62
7
100
AcDbLine
 10
338.716720
 20
405.827300
 30
0.0
 11
337.404380
 21
405.319300
 31
0.0
  0
LINE
  5
204
100
AcDbEntity
  8
Layer_1
 62
7
100
AcDbLine
 10
365.132720
 20
415.944970
 30
0.0
 11
365.175020
 21
448.753310
 31
0.0
  0
LINE
  5
205
100
AcDbEntity
  8
Layer_1
 62
7
100
AcDbLine
 10
365.175050
 20
448.753310
 30
0.0
 11
363.778050
 21
448.499310
 31
0.0
  0
LINE
  5
206
100
AcDbEntity
  8
Layer_1
 62
7
100
AcDbLine
 10
359.629380
 20
447.652640
 30
0.0
 11
358.952050
 21
447.525640
 31
0.0
  0
LINE
  5
207
100
AcDbEntity
  8
Layer_1
 62
7
100
AcDbLine
 10
354.761050
 20
446.721310
 30
0.0
 11
353.364050
 21
446.424980
 31
0.0
  0
LINE
  5
208
100
AcDbEntity
  8
Layer_1
 62
7
100
AcDbLine
 10
349.215380
 20
445.620640
 30
0.0
 11
348.538050
 21
445.493640
 31
0.0
  0
LINE
  5
209
100
AcDbEntity
  8
Layer_1
 62
7
100
AcDbLine
 10
344.347050
 20
444.646980
 30
0.0
 11
342.992380
 21
444.392980
 31
0.0
  0
LINE
  5
20a
100
AcDbEntity
  8
Layer_1
 62
7
100
AcDbLine
 10
338.801380
 20
443.546310
 30
0.0
 11
338.124050
 21
443.419310
 31
0.0
  0
LINE
  5
20b
100
AcDbEntity
  8
Layer_1
 62
7
100
AcDbLine
 10
333.975380
 20
442.614980
 30
0.0
 11
332.578380
 21
442.318640
 31
0.0
  0
LINE
  5
20c
100
AcDbEntity
  8
Layer_1
 62
7
100
AcDbLine
 10
328.429720
 20
441.514310
 30
0.0
 11
327.710050
 21
441.344980
 31
0.0
  0
LINE
  5
20d
100
AcDbEntity
  8
Layer_1
 62
7
100
AcDbLine
 10
323.561390
 20
440.540640
 30
0.0
 11
322.164390
 21
440.244310
 31
0.0
  0
LINE
  5
20e
100
AcDbEntity
  8
Layer_1
 62
7
100
AcDbLine
 10
318.058050
 20
439.439970
 30
0.0
 11
336.769380
 21
405.065300
 31
0.0
  0
LINE
  5
20f
100
AcDbEntity
  8
Layer_1
 62
7
100
AcDbLine
 10
352.856050
 20
362.266300
 30
0.0
 11
354.168380
 21
362.731960
 31
0.0
  0
LINE
  5
210
100
AcDbEntity
  8
Layer_1
 62
7
100
AcDbLine
 10
358.190050
 20
364.086630
 30
0.0
 11
359.544720
 21
364.552300
 31
0.0
  0
LINE
  5
211
100
AcDbEntity
  8
Layer_1
 62
7
100
AcDbLine
 10
363.566380
 20
365.949300
 30
0.0
 11
364.878720
 21
366.414960
 31
0.0
  0
LINE
  5
212
100
AcDbEntity
  8
Layer_1
 62
7
100
AcDbLine
 10
368.900380
 20
367.769630
 30
0.0
 11
370.255050
 21
368.235300
 31
0.0
  0
LINE
  5
213
100
AcDbEntity
  8
Layer_1
 62
7
100
AcDbLine
 10
374.234380
 20
369.632300
 30
0.0
 11
375.589050
 21
370.055630
 31
0.0
  0
LINE
  5
214
100
AcDbEntity
  8
Layer_1
 62
7
100
AcDbLine
 10
379.229710
 20
445.578310
 30
0.0
 11
378.637050
 21
444.308310
 31
0.0
  0
LINE
  5
215
100
AcDbEntity
  8
Layer_1
 62
7
100
AcDbLine
 10
376.816710
 20
440.455980
 30
0.0
 11
376.224050
 21
439.185970
 31
0.0
  0
LINE
  5
216
100
AcDbEntity
  8
Layer_1
 62
7
100
AcDbLine
 10
374.361380
 20
435.375970
 30
0.0
 11
373.768710
 21
434.105970
 31
0.0
  0
LINE
  5
217
100
AcDbEntity
  8
Layer_1
 62
7
100
AcDbLine
 10
371.948380
 20
430.253640
 30
0.0
 11
371.355710
 21
428.983640
 31
0.0
  0
LINE
  5
218
100
AcDbEntity
  8
Layer_1
 62
7
100
AcDbLine
 10
369.535380
 20
425.131310
 30
0.0
 11
368.900380
 21
423.861310
 31
0.0
  0
LINE
  5
219
100
AcDbEntity
  8
Layer_1
 62
7
100
AcDbLine
 10
367.080050
 20
420.051310
 30
0.0
 11
366.487380
 21
418.781310
 31
0.0
  0
LINE
  5
21a
100
AcDbEntity
  8
Layer_1
 62
7
100
AcDbLine
 10
407.466050
 20
409.721970
 30
0.0
 11
406.577050
 21
410.822640
 31
0.0
  0
LINE
  5
21b
100
AcDbEntity
  8
Layer_1
 62
7
100
AcDbLine
 10
403.952380
 20
414.166970
 30
0.0
 11
403.529050
 21
414.717300
 31
0.0
  0
LINE
  5
21c
100
AcDbEntity
  8
Layer_1
 62
7
100
AcDbLine
 10
400.904380
 20
418.061640
 30
0.0
 11
400.015380
 21
419.162310
 31
0.0
  0
LINE
  5
21d
100
AcDbEntity
  8
Layer_1
 62
7
100
AcDbLine
 10
397.433050
 20
422.506640
 30
0.0
 11
396.967380
 21
423.056970
 31
0.0
  0
LINE
  5
21e
100
AcDbEntity
  8
Layer_1
 62
7
100
AcDbLine
 10
394.342710
 20
426.401310
 30
0.0
 11
393.496050
 21
427.501970
 31
0.0
  0
LINE
  5
21f
100
AcDbEntity
  8
Layer_1
 62
7
100
AcDbLine
 10
390.871380
 20
430.846310
 30
0.0
 11
390.405710
 21
431.396640
 31
0.0
  0
LINE
  5
220
100
AcDbEntity
  8
Layer_1
 62
7
100
AcDbLine
 10
387.781050
 20
434.740970
 30
0.0
 11
386.934380
 21
435.841640
 31
0.0
  0
LINE
  5
221
100
AcDbEntity
  8
Layer_1
 62
7
100
AcDbLine
 10
384.309710
 20
439.185970
 30
0.0
 11
383.844050
 21
439.736310
 31
0.0
  0
LINE
  5
222
100
AcDbEntity
  8
Layer_1
 62
7
100
AcDbLine
 10
381.219380
 20
443.038310
 30
0.0
 11
380.372710
 21
444.181310
 31
0.0
  0
LINE
  5
223
100
AcDbEntity
  8
Layer_1
 62
7
100
AcDbLine
 10
382.616380
 20
396.767970
 30
0.0
 11
383.886380
 21
397.402970
 31
0.0
  0
LINE
  5
224
100
AcDbEntity
  8
Layer_1
 62
7
100
AcDbLine
 10
387.654050
 20
399.392640
 30
0.0
 11
388.881710
 21
400.027640
 31
0.0
  0
LINE
  5
225
100
AcDbEntity
  8
Layer_1
 62
7
100
AcDbLine
 10
392.649380
 20
402.017300
 30
0.0
 11
393.919380
 21
402.652300
 31
0.0
  0
LINE
  5
226
100
AcDbEntity
  8
Layer_1
 62
7
100
AcDbLine
 10
397.687050
 20
404.599640
 30
0.0
 11
398.914710
 21
405.276970
 31
0.0
  0
LINE
  5
227
100
AcDbEntity
  8
Layer_1
 62
7
100
AcDbLine
 10
402.682380
 20
407.224300
 30
0.0
 11
403.952380
 21
407.901640
 31
0.0
  0
LINE
  5
228
100
AcDbEntity
  8
Layer_1
 62
7
100
AcDbLine
 10
406.873380
 20
362.054630
 30
0.0
 11
407.000380
 21
363.451630
 31
0.0
  0
LINE
  5
229
100
AcDbEntity
  8
Layer_1
 62
7
100
AcDbLine
 10
407.296710
 20
367.684960
 30
0.0
 11
407.339010
 21
368.404630
 31
0.0
  0
LINE
  5
22a
100
AcDbEntity
  8
Layer_1
 62
7
100
AcDbLine
 10
407.635380
 20
372.595630
 30
0.0
 11
407.720080
 21
374.034960
 31
0.0
  0
LINE
  5
22b
100
AcDbEntity
  8
Layer_1
 62
7
100
AcDbLine
 10
408.058710
 20
378.268300
 30
0.0
 11
408.101010
 21
378.945630
 31
0.0
  0
LINE
  5
22c
100
AcDbEntity
  8
Layer_1
 62
7
100
AcDbLine
 10
408.397380
 20
383.178970
 30
0.0
 11
408.482080
 21
384.618300
 31
0.0
  0
LINE
  5
22d
100
AcDbEntity
  8
Layer_1
 62
7
100
AcDbLine
 10
408.820710
 20
388.851630
 30
0.0
 11
408.863010
 21
389.528970
 31
0.0
  0
LINE
  5
22e
100
AcDbEntity
  8
Layer_1
 62
7
100
AcDbLine
 10
409.159380
 20
393.762300
 30
0.0
 11
409.244080
 21
395.201630
 31
0.0
  0
LINE
  5
22f
100
AcDbEntity
  8
Layer_1
 62
7
100
AcDbLine
 10
409.582710
 20
399.434970
 30
0.0
 11
409.625010
 21
400.112300
 31
0.0
  0
LINE
  5
230
100
AcDbEntity
  8
Layer_1
 62
7
100
AcDbLine
 10
409.836710
 20
403.414300
 30
0.0
 11
382.616380
 21
396.767970
 31
0.0
  0
LINE
  5
231
100
AcDbEntity
  8
Layer_1
 62
7
100
AcDbLine
 10
379.102710
 20
371.283300
 30
0.0
 11
406.873380
 21
362.054630
 31
0.0
  0
LINE
  5
232
100
AcDbEntity
  8
Layer_1
 62
7
100
AcDbLine
 10
352.856050
 20
362.266300
 30
0.0
 11
353.279380
 21
360.911630
 31
0.0
  0
LINE
  5
233
100
AcDbEntity
  8
Layer_1
 62
7
100
AcDbLine
 10
354.507050
 20
356.847630
 30
0.0
 11
354.930380
 21
355.492960
 31
0.0
  0
LINE
  5
234
100
AcDbEntity
  8
Layer_1
 62
7
100
AcDbLine
 10
356.200380
 20
351.471290
 30
0.0
 11
356.623720
 21
350.116630
 31
0.0
  0
LINE
  5
235
100
AcDbEntity
  8
Layer_1
 62
7
100
AcDbLine
 10
357.851380
 20
346.052630
 30
0.0
 11
358.274720
 21
344.697960
 31
0.0
  0
LINE
  5
236
100
AcDbEntity
  8
Layer_1
 62
7
100
AcDbLine
 10
359.502380
 20
340.633960
 30
0.0
 11
359.925720
 21
339.279290
 31
0.0
  0
LINE
  5
237
100
AcDbEntity
  8
Layer_1
 62
7
100
AcDbLine
 10
361.195720
 20
335.257630
 30
0.0
 11
361.619050
 21
333.902960
 31
0.0
  0
LINE
  5
238
100
AcDbEntity
  8
Layer_1
 62
7
100
AcDbLine
 10
362.846720
 20
329.838960
 30
0.0
 11
362.889020
 21
329.669620
 31
0.0
  0
LINE
  5
239
100
AcDbEntity
  8
Layer_1
 62
7
100
AcDbLine
 10
403.148050
 20
354.603960
 30
0.0
 11
402.005050
 21
355.408300
 31
0.0
  0
LINE
  5
23a
100
AcDbEntity
  8
Layer_1
 62
7
100
AcDbLine
 10
398.533710
 20
357.821300
 30
0.0
 11
397.348380
 21
358.625630
 31
0.0
  0
LINE
  5
23b
100
AcDbEntity
  8
Layer_1
 62
7
100
AcDbLine
 10
393.877050
 20
361.038630
 30
0.0
 11
392.691710
 21
361.842960
 31
0.0
  0
LINE
  5
23c
100
AcDbEntity
  8
Layer_1
 62
7
100
AcDbLine
 10
389.220380
 20
364.255960
 30
0.0
 11
388.035050
 21
365.060300
 31
0.0
  0
LINE
  5
23d
100
AcDbEntity
  8
Layer_1
 62
7
100
AcDbLine
 10
384.563710
 20
367.473300
 30
0.0
 11
383.420710
 21
368.277630
 31
0.0
  0
LINE
  5
23e
100
AcDbEntity
  8
Layer_1
 62
7
100
AcDbLine
 10
379.907050
 20
370.690630
 30
0.0
 11
379.102710
 21
371.283300
 31
0.0
  0
LINE
  5
23f
100
AcDbEntity
  8
Layer_1
 62
7
100
AcDbLine
 10
362.889050
 20
329.669620
 30
0.0
 11
364.116720
 21
330.431620
 31
0.0
  0
LINE
  5
240
100
AcDbEntity
  8
Layer_1
 62
7
100
AcDbLine
 10
367.715050
 20
332.675290
 30
0.0
 11
368.307720
 21
333.056290
 31
0.0
  0
LINE
  5
241
100
AcDbEntity
  8
Layer_1
 62
7
100
AcDbLine
 10
371.906050
 20
335.257630
 30
0.0
 11
373.133710
 21
336.019630
 31
0.0
  0
LINE
  5
242
100
AcDbEntity
  8
Layer_1
 62
7
100
AcDbLine
 10
376.732050
 20
338.263290
 30
0.0
 11
377.324710
 21
338.601960
 31
0.0
  0
LINE
  5
243
100
AcDbEntity
  8
Layer_1
 62
7
100
AcDbLine
 10
380.923050
 20
340.845630
 30
0.0
 11
382.150710
 21
341.607630
 31
0.0
  0
LINE
  5
244
100
AcDbEntity
  8
Layer_1
 62
7
100
AcDbLine
 10
385.749050
 20
343.851290
 30
0.0
 11
386.341710
 21
344.189960
 31
0.0
  0
LINE
  5
245
100
AcDbEntity
  8
Layer_1
 62
7
100
AcDbLine
 10
389.940050
 20
346.433630
 30
0.0
 11
391.167710
 21
347.195630
 31
0.0
  0
LINE
  5
246
100
AcDbEntity
  8
Layer_1
 62
7
100
AcDbLine
 10
394.766050
 20
349.396960
 30
0.0
 11
395.358710
 21
349.777960
 31
0.0
  0
LINE
  5
247
100
AcDbEntity
  8
Layer_1
 62
7
100
AcDbLine
 10
398.999380
 20
352.021630
 30
0.0
 11
400.184710
 21
352.741290
 31
0.0
  0
LINE
  5
248
100
AcDbEntity
  8
Layer_1
 62
7
100
AcDbLine
 10
292.742720
 20
357.651960
 30
0.0
 11
294.012720
 21
356.974630
 31
0.0
  0
LINE
  5
249
100
AcDbEntity
  8
Layer_1
 62
7
100
AcDbLine
 10
297.695720
 20
354.900300
 30
0.0
 11
298.330720
 21
354.561630
 31
0.0
  0
LINE
  5
24a
100
AcDbEntity
  8
Layer_1
 62
7
100
AcDbLine
 10
302.013720
 20
352.529630
 30
0.0
 11
303.283720
 21
351.852290
 31
0.0
  0
LINE
  5
24b
100
AcDbEntity
  8
Layer_1
 62
7
100
AcDbLine
 10
306.966720
 20
349.777960
 30
0.0
 11
307.601720
 21
349.439290
 31
0.0
  0
LINE
  5
24c
100
AcDbEntity
  8
Layer_1
 62
7
100
AcDbLine
 10
311.327050
 20
347.364960
 30
0.0
 11
312.554720
 21
346.687630
 31
0.0
  0
LINE
  5
24d
100
AcDbEntity
  8
Layer_1
 62
7
100
AcDbLine
 10
316.237720
 20
344.613290
 30
0.0
 11
316.872720
 21
344.274630
 31
0.0
  0
LINE
  5
24e
100
AcDbEntity
  8
Layer_1
 62
7
100
AcDbLine
 10
320.598050
 20
342.242630
 30
0.0
 11
321.825720
 21
341.522960
 31
0.0
  0
LINE
  5
24f
100
AcDbEntity
  8
Layer_1
 62
7
100
AcDbLine
 10
325.508720
 20
339.490960
 30
0.0
 11
326.143720
 21
339.152290
 31
0.0
  0
LINE
  5
250
100
AcDbEntity
  8
Layer_1
 62
7
100
AcDbLine
 10
329.869050
 20
337.077960
 30
0.0
 11
331.096720
 21
336.400630
 31
0.0
  0
LINE
  5
251
100
AcDbEntity
  8
Layer_1
 62
7
100
AcDbLine
 10
334.822050
 20
334.326290
 30
0.0
 11
335.414720
 21
333.987630
 31
0.0
  0
LINE
  5
252
100
AcDbEntity
  8
Layer_1
 62
7
100
AcDbLine
 10
339.140050
 20
331.913290
 30
0.0
 11
340.367720
 21
331.235960
 31
0.0
  0
LINE
  5
253
100
AcDbEntity
  8
Layer_1
 62
7
100
AcDbLine
 10
332.705380
 20
383.009630
 30
0.0
 11
331.520050
 21
382.247630
 31
0.0
  0
LINE
  5
254
100
AcDbEntity
  8
Layer_1
 62
7
100
AcDbLine
 10
327.964050
 20
380.003970
 30
0.0
 11
326.736390
 21
379.241970
 31
0.0
  0
LINE
  5
255
100
AcDbEntity
  8
Layer_1
 62
7
100
AcDbLine
 10
323.180390
 20
376.955970
 30
0.0
 11
321.995050
 21
376.193970
 31
0.0
  0
LINE
  5
256
100
AcDbEntity
  8
Layer_1
 62
7
100
AcDbLine
 10
318.396720
 20
373.950300
 30
0.0
 11
317.211390
 21
373.188300
 31
0.0
  0
LINE
  5
257
100
AcDbEntity
  8
Layer_1
 62
7
100
AcDbLine
 10
313.613050
 20
370.902300
 30
0.0
 11
312.427720
 21
370.140300
 31
0.0
  0
LINE
  5
258
100
AcDbEntity
  8
Layer_1
 62
7
100
AcDbLine
 10
308.829390
 20
367.854300
 30
0.0
 11
307.644050
 21
367.092300
 31
0.0
  0
LINE
  5
259
100
AcDbEntity
  8
Layer_1
 62
7
100
AcDbLine
 10
304.045720
 20
364.848630
 30
0.0
 11
302.860390
 21
364.086630
 31
0.0
  0
LINE
  5
25a
100
AcDbEntity
  8
Layer_1
 62
7
100
AcDbLine
 10
299.304390
 20
361.800630
 30
0.0
 11
298.076720
 21
361.038630
 31
0.0
  0
LINE
  5
25b
100
AcDbEntity
  8
Layer_1
 62
7
100
AcDbLine
 10
294.520720
 20
358.794960
 30
0.0
 11
293.335390
 21
358.032960
 31
0.0
  0
LINE
  5
25c
100
AcDbEntity
  8
Layer_1
 62
7
100
AcDbLine
 10
343.585050
 20
329.457960
 30
0.0
 11
352.856050
 21
362.266300
 31
0.0
  0
LINE
  5
25d
100
AcDbEntity
  8
Layer_1
 62
7
100
AcDbLine
 10
336.769380
 20
405.065300
 30
0.0
 11
335.584050
 21
405.827300
 31
0.0
  0
LINE
  5
25e
100
AcDbEntity
  8
Layer_1
 62
7
100
AcDbLine
 10
332.070380
 20
408.197970
 30
0.0
 11
330.885050
 21
408.959970
 31
0.0
  0
LINE
  5
25f
100
AcDbEntity
  8
Layer_1
 62
7
100
AcDbLine
 10
327.329050
 20
411.330640
 30
0.0
 11
326.143720
 21
412.092640
 31
0.0
  0
LINE
  5
260
100
AcDbEntity
  8
Layer_1
 62
7
100
AcDbLine
 10
322.630050
 20
414.463300
 30
0.0
 11
321.444720
 21
415.225300
 31
0.0
  0
LINE
  5
261
100
AcDbEntity
  8
Layer_1
 62
7
100
AcDbLine
 10
317.931050
 20
417.595970
 30
0.0
 11
316.745720
 21
418.357970
 31
0.0
  0
LINE
  5
262
100
AcDbEntity
  8
Layer_1
 62
7
100
AcDbLine
 10
313.189720
 20
420.728640
 30
0.0
 11
312.046720
 21
421.490640
 31
0.0
  0
LINE
  5
263
100
AcDbEntity
  8
Layer_1
 62
7
100
AcDbLine
 10
308.490720
 20
423.818970
 30
0.0
 11
307.305390
 21
424.623310
 31
0.0
  0
LINE
  5
264
100
AcDbEntity
  8
Layer_1
 62
7
100
AcDbLine
 10
304.172720
 20
426.739970
 30
0.0
 11
303.622390
 21
425.427640
 31
0.0
  0
LINE
  5
265
100
AcDbEntity
  8
Layer_1
 62
7
100
AcDbLine
 10
301.971390
 20
421.490640
 30
0.0
 11
301.675050
 21
420.855640
 31
0.0
  0
LINE
  5
266
100
AcDbEntity
  8
Layer_1
 62
7
100
AcDbLine
 10
300.024050
 20
416.960970
 30
0.0
 11
299.473720
 21
415.648640
 31
0.0
  0
LINE
  5
267
100
AcDbEntity
  8
Layer_1
 62
7
100
AcDbLine
 10
297.865050
 20
411.711640
 30
0.0
 11
297.568720
 21
411.076640
 31
0.0
  0
LINE
  5
268
100
AcDbEntity
  8
Layer_1
 62
7
100
AcDbLine
 10
295.917720
 20
407.181970
 30
0.0
 11
295.367390
 21
405.869640
 31
0.0
  0
LINE
  5
269
100
AcDbEntity
  8
Layer_1
 62
7
100
AcDbLine
 10
293.716390
 20
401.974970
 30
0.0
 11
293.462390
 21
401.297640
 31
0.0
  0
LINE
  5
26a
100
AcDbEntity
  8
Layer_1
 62
7
100
AcDbLine
 10
291.811390
 20
397.402970
 30
0.0
 11
291.261050
 21
396.090630
 31
0.0
  0
LINE
  5
26b
100
AcDbEntity
  8
Layer_1
 62
7
100
AcDbLine
 10
289.610050
 20
392.195970
 30
0.0
 11
289.356050
 21
391.518630
 31
0.0
  0
LINE
  5
26c
100
AcDbEntity
  8
Layer_1
 62
7
100
AcDbLine
 10
287.705050
 20
387.623970
 30
0.0
 11
287.154720
 21
386.311630
 31
0.0
  0
LINE
  5
26d
100
AcDbEntity
  8
Layer_1
 62
7
100
AcDbLine
 10
285.503720
 20
382.416970
 30
0.0
 11
285.419020
 21
382.162970
 31
0.0
  0
LINE
  5
26e
100
AcDbEntity
  8
Layer_1
 62
7
100
AcDbLine
 10
285.419060
 20
382.162970
 30
0.0
 11
332.705380
 21
383.009630
 31
0.0
  0
LINE
  5
26f
100
AcDbEntity
  8
Layer_1
 62
1
100
AcDbLine
 10
279.972170
 20
455.512470
 30
0.0
 11
458.219740
 21
455.512470
 31
0.0
  0
LINE
  5
270
100
AcDbEntity
  8
Layer_1
 62
1
100
AcDbLine
 10
458.219740
 20
455.512470
 30
0.0
 11
458.219740
 21
190.264880
 31
0.0
  0
LINE
  5
271
100
AcDbEntity
  8
Layer_1
 62
1
100
AcDbLine
 10
458.219740
 20
190.264880
 30
0.0
 11
279.972170
 21
190.264880
 31
0.0
  0
LINE
  5
272
100
AcDbEntity
  8
Layer_1
 62
1
100
AcDbLine
 10
279.972170
 20
190.264880
 30
0.0
 11
279.972170
 21
455.512470
 31
0.0
  0
ENDSEC
  0
SECTION
  2
OBJECTS
  0
DICTIONARY
  5
C
330
0
100
AcDbDictionary
  3
ACAD_GROUP
350
D
  3
ACAD_MLINESTYLE
350
17
  0
DICTIONARY
  5
D
330
C
100
AcDbDictionary
  0
DICTIONARY
  5
1A
330
C
100
AcDbDictionary
  0
DICTIONARY
  5
17
330
C
100
AcDbDictionary
  3
STANDARD
350
18
  0
DICTIONARY
  5
19
330
C
100
AcDbDictionary
  0
ENDSEC
  0
EOF
