  0
SECTION
  2
HEADER
  9
$ACADVER
  1
AC1014
  9
$HANDSEED
  5
FFFF
  9
$MEASUREMENT
 70
     1
  0
ENDSEC
  0
SECTION
  2
TABLES
  0
TABLE
  2
VPORT
  5
8
330
0
100
AcDbSymbolTable
 70
     4
  0
VPORT
  5
2E
330
8
100
AcDbSymbolTableRecord
100
AcDbViewportTableRecord
  2
*ACTIVE
 70
     0
 10
0.0
 20
0.0
 11
1.0
 21
1.0
 12
210.0
 22
148.5
 13
0.0
 23
0.0
 14
10.0
 24
10.0
 15
10.0
 25
10.0
 16
0.0
 26
0.0
 36
1.0
 17
0.0
 27
0.0
 37
0.0
 40
341.0
 41
1.24
 42
50.0
 43
0.0
 44
0.0
 50
0.0
 51
0.0
 71
     0
 72
   100
 73
     1
 74
     3
 75
     0
 76
     0
 77
     0
 78
     0
  0
ENDTAB
  0
TABLE
  2
LTYPE
  5
5
330
0
100
AcDbSymbolTable
 70
     1
  0
LTYPE
  5
14
330
5
100
AcDbSymbolTableRecord
100
AcDbLinetypeTableRecord
  2
BYBLOCK
 70
     0
  3

 72
    65
 73
     0
 40
0.0
  0
LTYPE
  5
15
330
5
100
AcDbSymbolTableRecord
100
AcDbLinetypeTableRecord
  2
BYLAYER
 70
     0
  3

 72
    65
 73
     0
 40
0.0
  0
LTYPE
  5
16
330
5
100
AcDbSymbolTableRecord
100
AcDbLinetypeTableRecord
  2
CONTINUOUS
 70
     0
  3
Solid line
 72
    65
 73
     0
 40
0.0
  0
ENDTAB
  0
TABLE
  2
LAYER
  5
2
100
AcDbSymbolTable
 70
2
  0
LAYER
  5
50
100
AcDbSymbolTableRecord
100
AcDbLayerTableRecord
  2
0
 70
0
  6
CONTINUOUS
  0
LAYER
  5
51
100
AcDbSymbolTableRecord
100
AcDbLayerTableRecord
  2
Layer_1
 70
0
  6
CONTINUOUS
  0
ENDTAB
  0
TABLE
  2
STYLE
  5
3
330
0
100
AcDbSymbolTable
 70
     1
  0
STYLE
  5
11
330
3
100
AcDbSymbolTableRecord
100
AcDbTextStyleTableRecord
  2
STANDARD
 70
     0
 40
0.0
 41
1.0
 50
0.0
 71
     0
 42
2.5
  3
txt
  4

  0
ENDTAB
  0
TABLE
  2
VIEW
  5
6
330
0
100
AcDbSymbolTable
 70
     0
  0
ENDTAB
  0
TABLE
  2
UCS
  5
7
330
0
100
AcDbSymbolTable
 70
     0
  0
ENDTAB
  0
TABLE
  2
APPID
  5
9
330
0
100
AcDbSymbolTable
 70
     2
  0
APPID
  5
12
330
9
100
AcDbSymbolTableRecord
100
AcDbRegAppTableRecord
  2
ACAD
 70
     0
  0
ENDTAB
  0
TABLE
  2
DIMSTYLE
  5
A
330
0
100
AcDbSymbolTable
 70
     1
  0
DIMSTYLE
105
27
330
A
100
AcDbSymbolTableRecord
100
AcDbDimStyleTableRecord
  2
ISO-25
 70
     0
  3

  4

  5

  6

  7

 40
1.0
 41
2.5
 42
0.625
 43
3.75
 44
1.25
 45
0.0
 46
0.0
 47
0.0
 48
0.0
140
2.5
141
2.5
142
0.0
143
0.03937007874016
144
1.0
145
0.0
146
1.0
147
0.625
 71
     0
 72
     0
 73
     0
 74
     0
 75
     0
 76
     0
 77
     1
 78
     8
170
     0
171
     3
172
     1
173
     0
174
     0
175
     0
176
     0
177
     0
178
     0
270
     2
271
     2
272
     2
273
     2
274
     3
340
11
275
     0
280
     0
281
     0
282
     0
283
     0
284
     8
285
     0
286
     0
287
     3
288
     0
  0
ENDTAB
  0
TABLE
  2
BLOCK_RECORD
  5
1
330
0
100
AcDbSymbolTable
 70
     1
  0
BLOCK_RECORD
  5
1F
330
1
100
AcDbSymbolTableRecord
100
AcDbBlockTableRecord
  2
*MODEL_SPACE
  0
BLOCK_RECORD
  5
1B
330
1
100
AcDbSymbolTableRecord
100
AcDbBlockTableRecord
  2
*PAPER_SPACE
  0
ENDTAB
  0
ENDSEC
  0
SECTION
  2
BLOCKS
  0
BLOCK
  5
20
330
1F
100
AcDbEntity
  8
0
100
AcDbBlockBegin
  2
*MODEL_SPACE
 70
     0
 10
0.0
 20
0.0
 30
0.0
  3
*MODEL_SPACE
  1

  0
ENDBLK
  5
21
330
1F
100
AcDbEntity
  8
0
100
AcDbBlockEnd
  0
BLOCK
  5
1C
330
1B
100
AcDbEntity
 67
     1
  8
0
100
AcDbBlockBegin
  2
*PAPER_SPACE
  1

  0
ENDBLK
  5
1D
330
1B
100
AcDbEntity
 67
     1
  8
0
100
AcDbBlockEnd
  0
ENDSEC
  0
SECTION
  2
ENTITIES
  0
LWPOLYLINE
  5
100
100
AcDbEntity
  8
Layer_1
 62
7
100
AcDbPolyline
 90
43
 70
1
 10
264.034808
 20
690.220652
 30
0.0
 10
244.209808
 20
690.220652
 30
0.0
 10
244.209808
 20
681.720652
 30
0.0
 10
224.359808
 20
681.720652
 30
0.0
 10
224.359808
 20
690.220652
 30
0.0
 10
210.184808
 20
690.220652
 30
0.0
 10
210.184808
 20
681.720652
 30
0.0
 10
196.009808
 20
681.720652
 30
0.0
 10
196.009808
 20
690.220652
 30
0.0
 10
181.834808
 20
690.220652
 30
0.0
 10
181.834808
 20
681.720652
 30
0.0
 10
162.009808
 20
681.720652
 30
0.0
 10
162.009808
 20
690.220652
 30
0.0
 10
142.159808
 20
690.220652
 30
0.0
 10
142.159808
 20
670.395652
 30
0.0
 10
150.659808
 20
670.395652
 30
0.0
 10
150.659808
 20
650.545652
 30
0.0
 10
142.159808
 20
650.545652
 30
0.0
 10
142.159808
 20
636.370652
 30
0.0
 10
150.659808
 20
636.370652
 30
0.0
 10
150.659808
 20
622.195652
 30
0.0
 10
142.159808
 20
622.195652
 30
0.0
 10
142.159808
 20
608.020652
 30
0.0
 10
150.659808
 20
608.020652
 30
0.0
 10
150.659808
 20
588.195652
 30
0.0
 10
142.159808
 20
588.195652
 30
0.0
 10
142.159808
 20
568.345652
 30
0.0
 10
162.009808
 20
568.345652
 30
0.0
 10
162.009808
 20
576.845652
 30
0.0
 10
181.834808
 20
576.845652
 30
0.0
 10
181.834808
 20
568.345652
 30
0.0
 10
196.009808
 20
568.345652
 30
0.0
 10
196.009808
 20
576.845652
 30
0.0
 10
210.184808
 20
576.845652
 30
0.0
 10
210.184808
 20
568.345652
 30
0.0
 10
224.359808
 20
568.345652
 30
0.0
 10
224.359808
 20
576.845652
 30
0.0
 10
244.209808
 20
576.845652
 30
0.0
 10
244.209808
 20
568.345652
 30
0.0
 10
264.034808
 20
568.345652
 30
0.0
 10
264.034808
 20
588.195652
 30
0.0
 10
255.534808
 20
588.195652
 30
0.0
 10
255.534808
 20
620.445652
 30
0.0
  0
LWPOLYLINE
  5
101
100
AcDbEntity
  8
Layer_1
 62
7
100
AcDbPolyline
 90
5
 70
1
 10
255.534808
 20
638.295732
 30
0.0
 10
255.534808
 20
670.395732
 30
0.0
 10
264.034808
 20
670.395732
 30
0.0
 10
264.034808
 20
690.220732
 30
0.0
 10
264.034808
 20
690.220652
 30
0.0
  0
LWPOLYLINE
  5
102
100
AcDbEntity
  8
Layer_1
 62
7
100
AcDbPolyline
 90
53
 70
1
 10
541.172976
 20
759.117444
 30
0.0
 10
541.172976
 20
742.109556
 30
0.0
 10
549.676912
 20
742.109556
 30
0.0
 10
549.676912
 20
725.101668
 30
0.0
 10
541.172976
 20
725.101668
 30
0.0
 10
541.172976
 20
702.424484
 30
0.0
 10
549.676912
 20
702.424484
 30
0.0
 10
549.676912
 20
679.747300
 30
0.0
 10
526.999736
 20
679.747300
 30
0.0
 10
526.999736
 20
688.251244
 30
0.0
 10
504.322544
 20
688.251244
 30
0.0
 10
504.322544
 20
679.747300
 30
0.0
 10
487.314656
 20
679.747300
 30
0.0
 10
487.314656
 20
688.251244
 30
0.0
 10
470.306768
 20
688.251244
 30
0.0
 10
470.306768
 20
679.747300
 30
0.0
 10
453.298880
 20
679.747300
 30
0.0
 10
453.298880
 20
688.251244
 30
0.0
 10
430.621696
 20
688.251244
 30
0.0
 10
430.621696
 20
679.747300
 30
0.0
 10
407.944512
 20
679.747300
 30
0.0
 10
407.944512
 20
702.424484
 30
0.0
 10
416.448456
 20
702.424484
 30
0.0
 10
416.448456
 20
725.101668
 30
0.0
 10
407.944512
 20
725.101668
 30
0.0
 10
407.944512
 20
742.109556
 30
0.0
 10
416.448456
 20
742.109556
 30
0.0
 10
416.448456
 20
759.117444
 30
0.0
 10
407.944512
 20
759.117444
 30
0.0
 10
407.944512
 20
776.125329
 30
0.0
 10
416.448456
 20
776.125329
 30
0.0
 10
416.448456
 20
798.802513
 30
0.0
 10
407.944512
 20
798.802513
 30
0.0
 10
407.944512
 20
821.479697
 30
0.0
 10
430.621696
 20
821.479697
 30
0.0
 10
430.621696
 20
812.975753
 30
0.0
 10
453.298880
 20
812.975753
 30
0.0
 10
453.298880
 20
821.479697
 30
0.0
 10
470.306768
 20
821.479697
 30
0.0
 10
470.306768
 20
812.975753
 30
0.0
 10
487.314656
 20
812.975753
 30
0.0
 10
487.314656
 20
821.479697
 30
0.0
 10
504.322544
 20
821.479697
 30
0.0
 10
504.322544
 20
812.975753
 30
0.0
 10
526.999736
 20
812.975753
 30
0.0
 10
526.999736
 20
821.479697
 30
0.0
 10
549.676912
 20
821.479697
 30
0.0
 10
549.676912
 20
798.802513
 30
0.0
 10
541.172976
 20
798.802513
 30
0.0
 10
541.172976
 20
776.125329
 30
0.0
 10
549.676912
 20
776.125329
 30
0.0
 10
549.676912
 20
759.117444
 30
0.0
 10
541.172976
 20
759.117444
 30
0.0
  0
SPLINE
  5
103
100
AcDbEntity
  8
Layer_1
 62
7
100
AcDbSpline
 70
0
 71
3
 72
19
 73
15
 74
13
 40
0.000000
 40
0.000000
 40
0.000000
 40
0.000000
 40
0.150011
 40
0.299600
 40
0.450817
 40
4.137184
 40
8.192922
 40
12.807641
 40
17.422358
 40
21.478096
 40
25.164464
 40
25.315618
 40
25.465330
 40
25.615280
 40
25.615280
 40
25.615280
 40
25.615280
 10
255.534808
 20
620.445652
 30
0.0
 10
255.484982
 20
620.441457
 30
0.0
 10
255.385469
 20
620.433081
 30
0.0
 10
255.235483
 20
620.423228
 30
0.0
 10
253.906653
 20
620.393596
 30
0.0
 10
251.241621
 20
621.425818
 30
0.0
 10
248.763043
 20
624.908759
 30
0.0
 10
247.877051
 20
629.370683
 30
0.0
 10
248.763045
 20
633.832650
 30
0.0
 10
251.241620
 20
637.315482
 30
0.0
 10
253.906634
 20
638.347943
 30
0.0
 10
255.235481
 20
638.318136
 30
0.0
 10
255.385466
 20
638.308262
 30
0.0
 10
255.485001
 20
638.299911
 30
0.0
 10
255.534808
 20
638.295732
 30
0.0
 11
255.534808
 21
620.445652
 31
0.0
 11
255.385288
 21
620.433527
 31
0.0
 11
255.235981
 21
620.424336
 31
0.0
 11
255.084808
 21
620.420692
 31
0.0
 11
251.606884
 21
621.642719
 31
0.0
 11
249.129180
 21
624.853635
 31
0.0
 11
248.184808
 21
629.370692
 31
0.0
 11
249.129180
 21
633.887745
 31
0.0
 11
251.606884
 21
637.098663
 31
0.0
 11
255.084808
 21
638.320692
 31
0.0
 11
255.235917
 21
638.317030
 31
0.0
 11
255.385347
 21
638.307821
 31
0.0
 11
255.534808
 21
638.295732
 31
0.0
  0
LWPOLYLINE
  5
104
100
AcDbEntity
  8
Layer_1
 62
7
100
AcDbPolyline
 90
43
 70
1
 10
549.687896
 20
679.744316
 30
0.0
 10
526.987896
 20
679.744316
 30
0.0
 10
526.987896
 20
671.244316
 30
0.0
 10
504.312896
 20
671.244316
 30
0.0
 10
504.312896
 20
679.744316
 30
0.0
 10
487.312888
 20
679.744316
 30
0.0
 10
487.312888
 20
671.244316
 30
0.0
 10
470.312888
 20
671.244316
 30
0.0
 10
470.312888
 20
679.744316
 30
0.0
 10
453.287888
 20
679.744316
 30
0.0
 10
453.287888
 20
671.244316
 30
0.0
 10
430.612888
 20
671.244316
 30
0.0
 10
430.612888
 20
679.744316
 30
0.0
 10
407.937888
 20
679.744316
 30
0.0
 10
407.937888
 20
657.069316
 30
0.0
 10
416.437888
 20
657.069316
 30
0.0
 10
416.437888
 20
634.394316
 30
0.0
 10
407.937888
 20
634.394316
 30
0.0
 10
407.937888
 20
617.394316
 30
0.0
 10
416.437888
 20
617.394316
 30
0.0
 10
416.437888
 20
600.369316
 30
0.0
 10
407.937888
 20
600.369316
 30
0.0
 10
407.937888
 20
583.369316
 30
0.0
 10
416.437888
 20
583.369316
 30
0.0
 10
416.437888
 20
560.694316
 30
0.0
 10
407.937888
 20
560.694316
 30
0.0
 10
407.937888
 20
538.019316
 30
0.0
 10
430.612888
 20
538.019316
 30
0.0
 10
430.612888
 20
546.519316
 30
0.0
 10
453.287888
 20
546.519316
 30
0.0
 10
453.287888
 20
538.019316
 30
0.0
 10
470.312888
 20
538.019316
 30
0.0
 10
470.312888
 20
546.519316
 30
0.0
 10
487.312888
 20
546.519316
 30
0.0
 10
487.312888
 20
538.019316
 30
0.0
 10
504.312896
 20
538.019316
 30
0.0
 10
504.312896
 20
546.519316
 30
0.0
 10
526.987896
 20
546.519316
 30
0.0
 10
526.987896
 20
538.019316
 30
0.0
 10
549.687896
 20
538.019316
 30
0.0
 10
549.687896
 20
560.694316
 30
0.0
 10
541.162896
 20
560.694316
 30
0.0
 10
541.162896
 20
596.869316
 30
0.0
  0
LWPOLYLINE
  5
105
100
AcDbEntity
  8
Layer_1
 62
7
100
AcDbPolyline
 90
5
 70
1
 10
541.162896
 20
621.294316
 30
0.0
 10
541.162896
 20
657.069316
 30
0.0
 10
549.687896
 20
657.069316
 30
0.0
 10
549.687896
 20
679.744316
 30
0.0
 10
549.687896
 20
679.744316
 30
0.0
  0
LWPOLYLINE
  5
106
100
AcDbEntity
  8
Layer_1
 62
7
100
AcDbPolyline
 90
41
 70
1
 10
549.676912
 20
404.786692
 30
0.0
 10
526.999736
 20
404.786692
 30
0.0
 10
526.999736
 20
396.282748
 30
0.0
 10
504.322544
 20
396.282748
 30
0.0
 10
504.322544
 20
404.786692
 30
0.0
 10
487.314656
 20
404.786692
 30
0.0
 10
487.314656
 20
396.282748
 30
0.0
 10
470.306768
 20
396.282748
 30
0.0
 10
470.306768
 20
404.786692
 30
0.0
 10
453.298880
 20
404.786692
 30
0.0
 10
453.298880
 20
396.282748
 30
0.0
 10
430.621696
 20
396.282748
 30
0.0
 10
430.621696
 20
404.786692
 30
0.0
 10
407.944512
 20
404.786692
 30
0.0
 10
407.944512
 20
418.959932
 30
0.0
 10
416.448456
 20
418.959932
 30
0.0
 10
416.448456
 20
441.637116
 30
0.0
 10
407.944512
 20
441.637116
 30
0.0
 10
407.944512
 20
458.645004
 30
0.0
 10
416.448456
 20
458.645004
 30
0.0
 10
416.448456
 20
475.652892
 30
0.0
 10
407.944512
 20
475.652892
 30
0.0
 10
407.944512
 20
492.660780
 30
0.0
 10
416.448456
 20
492.660780
 30
0.0
 10
416.448456
 20
515.337964
 30
0.0
 10
407.944512
 20
515.337964
 30
0.0
 10
407.944512
 20
529.511204
 30
0.0
 10
430.621696
 20
529.511204
 30
0.0
 10
430.621696
 20
538.015148
 30
0.0
 10
453.298880
 20
538.015148
 30
0.0
 10
453.298880
 20
529.511204
 30
0.0
 10
470.306768
 20
529.511204
 30
0.0
 10
470.306768
 20
538.015148
 30
0.0
 10
487.314656
 20
538.015148
 30
0.0
 10
487.314656
 20
529.511204
 30
0.0
 10
504.322544
 20
529.511204
 30
0.0
 10
504.322544
 20
538.015148
 30
0.0
 10
526.999736
 20
538.015148
 30
0.0
 10
526.999736
 20
529.511204
 30
0.0
 10
549.676912
 20
529.511204
 30
0.0
 10
549.676912
 20
404.786692
 30
0.0
  0
LWPOLYLINE
  5
107
100
AcDbEntity
  8
Layer_1
 62
7
100
AcDbPolyline
 90
41
 70
1
 10
407.944640
 20
404.786692
 30
0.0
 10
385.267456
 20
404.786692
 30
0.0
 10
385.267456
 20
396.282748
 30
0.0
 10
362.590272
 20
396.282748
 30
0.0
 10
362.590272
 20
404.786692
 30
0.0
 10
345.582384
 20
404.786692
 30
0.0
 10
345.582384
 20
396.282748
 30
0.0
 10
328.574496
 20
396.282748
 30
0.0
 10
328.574496
 20
404.786692
 30
0.0
 10
311.566608
 20
404.786692
 30
0.0
 10
311.566608
 20
396.282748
 30
0.0
 10
288.889424
 20
396.282748
 30
0.0
 10
288.889424
 20
404.786692
 30
0.0
 10
266.212240
 20
404.786692
 30
0.0
 10
266.212240
 20
418.959932
 30
0.0
 10
274.716184
 20
418.959932
 30
0.0
 10
274.716184
 20
441.637116
 30
0.0
 10
266.212240
 20
441.637116
 30
0.0
 10
266.212240
 20
458.645004
 30
0.0
 10
274.716184
 20
458.645004
 30
0.0
 10
274.716184
 20
475.652892
 30
0.0
 10
266.212240
 20
475.652892
 30
0.0
 10
266.212240
 20
492.660780
 30
0.0
 10
274.716184
 20
492.660780
 30
0.0
 10
274.716184
 20
515.337964
 30
0.0
 10
266.212240
 20
515.337964
 30
0.0
 10
266.212240
 20
529.511204
 30
0.0
 10
288.889424
 20
529.511204
 30
0.0
 10
288.889424
 20
538.015148
 30
0.0
 10
311.566608
 20
538.015148
 30
0.0
 10
311.566608
 20
529.511204
 30
0.0
 10
328.574496
 20
529.511204
 30
0.0
 10
328.574496
 20
538.015148
 30
0.0
 10
345.582384
 20
538.015148
 30
0.0
 10
345.582384
 20
529.511204
 30
0.0
 10
362.590272
 20
529.511204
 30
0.0
 10
362.590272
 20
538.015148
 30
0.0
 10
385.267456
 20
538.015148
 30
0.0
 10
385.267456
 20
529.511204
 30
0.0
 10
407.944640
 20
529.511204
 30
0.0
 10
407.944640
 20
404.786692
 30
0.0
  0
LWPOLYLINE
  5
108
100
AcDbEntity
  8
Layer_1
 62
7
100
AcDbPolyline
 90
21
 70
1
 10
407.944640
 20
759.117444
 30
0.0
 10
407.944640
 20
742.109556
 30
0.0
 10
399.440696
 20
742.109556
 30
0.0
 10
399.440696
 20
725.101668
 30
0.0
 10
407.944640
 20
725.101668
 30
0.0
 10
407.944640
 20
702.424484
 30
0.0
 10
399.440696
 20
702.424484
 30
0.0
 10
399.440696
 20
688.251244
 30
0.0
 10
274.716184
 20
688.251244
 30
0.0
 10
274.716184
 20
702.424484
 30
0.0
 10
266.212240
 20
702.424484
 30
0.0
 10
266.212240
 20
798.802513
 30
0.0
 10
274.716184
 20
798.802513
 30
0.0
 10
274.716184
 20
812.975753
 30
0.0
 10
399.440696
 20
812.975753
 30
0.0
 10
399.440696
 20
798.802513
 30
0.0
 10
407.944640
 20
798.802513
 30
0.0
 10
407.944640
 20
776.125329
 30
0.0
 10
399.440696
 20
776.125329
 30
0.0
 10
399.440696
 20
759.117444
 30
0.0
 10
407.944640
 20
759.117444
 30
0.0
  0
LWPOLYLINE
  5
109
100
AcDbEntity
  8
Layer_1
 62
7
100
AcDbPolyline
 90
53
 70
1
 10
407.944640
 20
617.385172
 30
0.0
 10
407.944640
 20
600.377284
 30
0.0
 10
399.440696
 20
600.377284
 30
0.0
 10
399.440696
 20
583.369396
 30
0.0
 10
407.944640
 20
583.369396
 30
0.0
 10
407.944640
 20
560.692212
 30
0.0
 10
399.440696
 20
560.692212
 30
0.0
 10
399.440696
 20
546.518972
 30
0.0
 10
385.267456
 20
546.518972
 30
0.0
 10
385.267456
 20
538.015028
 30
0.0
 10
362.590272
 20
538.015028
 30
0.0
 10
362.590272
 20
546.518972
 30
0.0
 10
345.582384
 20
546.518972
 30
0.0
 10
345.582384
 20
538.015028
 30
0.0
 10
328.574496
 20
538.015028
 30
0.0
 10
328.574496
 20
546.518972
 30
0.0
 10
311.566608
 20
546.518972
 30
0.0
 10
311.566608
 20
538.015028
 30
0.0
 10
288.889424
 20
538.015028
 30
0.0
 10
288.889424
 20
546.518972
 30
0.0
 10
274.716184
 20
546.518972
 30
0.0
 10
274.716184
 20
560.692212
 30
0.0
 10
266.212240
 20
560.692212
 30
0.0
 10
266.212240
 20
583.369396
 30
0.0
 10
274.716184
 20
583.369396
 30
0.0
 10
274.716184
 20
600.377284
 30
0.0
 10
266.212240
 20
600.377284
 30
0.0
 10
266.212240
 20
617.385172
 30
0.0
 10
274.716184
 20
617.385172
 30
0.0
 10
274.716184
 20
634.393060
 30
0.0
 10
266.212240
 20
634.393060
 30
0.0
 10
266.212240
 20
657.070244
 30
0.0
 10
274.716184
 20
657.070244
 30
0.0
 10
274.716184
 20
671.243484
 30
0.0
 10
288.889424
 20
671.243484
 30
0.0
 10
288.889424
 20
679.747428
 30
0.0
 10
311.566608
 20
679.747428
 30
0.0
 10
311.566608
 20
671.243484
 30
0.0
 10
328.574496
 20
671.243484
 30
0.0
 10
328.574496
 20
679.747428
 30
0.0
 10
345.582384
 20
679.747428
 30
0.0
 10
345.582384
 20
671.243484
 30
0.0
 10
362.590272
 20
671.243484
 30
0.0
 10
362.590272
 20
679.747428
 30
0.0
 10
385.267456
 20
679.747428
 30
0.0
 10
385.267456
 20
671.243484
 30
0.0
 10
399.440696
 20
671.243484
 30
0.0
 10
399.440696
 20
657.070244
 30
0.0
 10
407.944640
 20
657.070244
 30
0.0
 10
407.944640
 20
634.393060
 30
0.0
 10
399.440696
 20
634.393060
 30
0.0
 10
399.440696
 20
617.385172
 30
0.0
 10
407.944640
 20
617.385172
 30
0.0
  0
LWPOLYLINE
  5
10a
100
AcDbEntity
  8
Layer_1
 62
7
100
AcDbPolyline
 90
53
 70
1
 10
255.542776
 20
758.263132
 30
0.0
 10
255.542776
 20
744.089892
 30
0.0
 10
264.046720
 20
744.089892
 30
0.0
 10
264.046720
 20
729.916652
 30
0.0
 10
255.542776
 20
729.916652
 30
0.0
 10
255.542776
 20
710.074116
 30
0.0
 10
264.046720
 20
710.074116
 30
0.0
 10
264.046720
 20
690.231580
 30
0.0
 10
244.204184
 20
690.231580
 30
0.0
 10
244.204184
 20
698.735524
 30
0.0
 10
224.361648
 20
698.735524
 30
0.0
 10
224.361648
 20
690.231580
 30
0.0
 10
210.188408
 20
690.231580
 30
0.0
 10
210.188408
 20
698.735524
 30
0.0
 10
196.015168
 20
698.735524
 30
0.0
 10
196.015168
 20
690.231580
 30
0.0
 10
181.841928
 20
690.231580
 30
0.0
 10
181.841928
 20
698.735524
 30
0.0
 10
161.999392
 20
698.735524
 30
0.0
 10
161.999392
 20
690.231580
 30
0.0
 10
142.156856
 20
690.231580
 30
0.0
 10
142.156856
 20
710.074116
 30
0.0
 10
150.660800
 20
710.074116
 30
0.0
 10
150.660800
 20
729.916652
 30
0.0
 10
142.156856
 20
729.916652
 30
0.0
 10
142.156856
 20
744.089892
 30
0.0
 10
150.660800
 20
744.089892
 30
0.0
 10
150.660800
 20
758.263132
 30
0.0
 10
142.156856
 20
758.263132
 30
0.0
 10
142.156856
 20
772.436369
 30
0.0
 10
150.660800
 20
772.436369
 30
0.0
 10
150.660800
 20
792.278905
 30
0.0
 10
142.156856
 20
792.278905
 30
0.0
 10
142.156856
 20
812.121441
 30
0.0
 10
161.999392
 20
812.121441
 30
0.0
 10
161.999392
 20
803.617497
 30
0.0
 10
181.841928
 20
803.617497
 30
0.0
 10
181.841928
 20
812.121441
 30
0.0
 10
196.015168
 20
812.121441
 30
0.0
 10
196.015168
 20
803.617497
 30
0.0
 10
210.188408
 20
803.617497
 30
0.0
 10
210.188408
 20
812.121441
 30
0.0
 10
224.361648
 20
812.121441
 30
0.0
 10
224.361648
 20
803.617497
 30
0.0
 10
244.204184
 20
803.617497
 30
0.0
 10
244.204184
 20
812.121441
 30
0.0
 10
264.046720
 20
812.121441
 30
0.0
 10
264.046720
 20
792.278905
 30
0.0
 10
255.542776
 20
792.278905
 30
0.0
 10
255.542776
 20
772.436369
 30
0.0
 10
264.046720
 20
772.436369
 30
0.0
 10
264.046720
 20
758.263132
 30
0.0
 10
255.542776
 20
758.263132
 30
0.0
  0
LWPOLYLINE
  5
10b
100
AcDbEntity
  8
Layer_1
 62
7
100
AcDbPolyline
 90
21
 70
1
 10
142.156960
 20
758.263132
 30
0.0
 10
142.156960
 20
744.089892
 30
0.0
 10
133.653016
 20
744.089892
 30
0.0
 10
133.653016
 20
729.916652
 30
0.0
 10
142.156960
 20
729.916652
 30
0.0
 10
142.156960
 20
710.074116
 30
0.0
 10
133.653016
 20
710.074116
 30
0.0
 10
133.653016
 20
698.735524
 30
0.0
 10
28.771040
 20
698.735524
 30
0.0
 10
28.771040
 20
710.074116
 30
0.0
 10
20.267096
 20
710.074116
 30
0.0
 10
20.267096
 20
792.278905
 30
0.0
 10
28.771040
 20
792.278905
 30
0.0
 10
28.771040
 20
803.617497
 30
0.0
 10
133.653016
 20
803.617497
 30
0.0
 10
133.653016
 20
792.278905
 30
0.0
 10
142.156960
 20
792.278905
 30
0.0
 10
142.156960
 20
772.436369
 30
0.0
 10
133.653016
 20
772.436369
 30
0.0
 10
133.653016
 20
758.263132
 30
0.0
 10
142.156960
 20
758.263132
 30
0.0
  0
SPLINE
  5
10c
100
AcDbEntity
  8
Layer_1
 62
7
100
AcDbSpline
 70
0
 71
3
 72
13
 73
9
 74
7
 40
0.000000
 40
0.000000
 40
0.000000
 40
0.000000
 40
3.911799
 40
8.939914
 40
15.125959
 40
21.318408
 40
26.356984
 40
30.271635
 40
30.271635
 40
30.271635
 40
30.271635
 10
541.162896
 20
596.869316
 30
0.0
 10
539.888745
 20
597.319552
 30
0.0
 10
536.976838
 20
598.348509
 30
0.0
 10
534.774841
 20
603.339564
 30
0.0
 10
533.902461
 20
609.071605
 30
0.0
 10
534.776737
 20
614.806077
 30
0.0
 10
536.974066
 20
619.806631
 30
0.0
 10
539.888575
 20
620.841734
 30
0.0
 10
541.162896
 20
621.294316
 30
0.0
 11
541.162896
 21
596.869316
 31
0.0
 11
537.648788
 21
598.587809
 31
0.0
 11
535.158620
 21
602.955990
 31
0.0
 11
534.212896
 21
609.069316
 31
0.0
 11
535.158620
 21
615.189123
 31
0.0
 11
537.648788
 21
619.569341
 31
0.0
 11
541.162896
 21
621.294316
 31
0.0
  0
LWPOLYLINE
  5
10d
100
AcDbEntity
  8
Layer_1
 62
7
100
AcDbPolyline
 90
53
 70
1
 10
142.156960
 20
636.373372
 30
0.0
 10
142.156960
 20
622.200132
 30
0.0
 10
133.653016
 20
622.200132
 30
0.0
 10
133.653016
 20
608.026892
 30
0.0
 10
142.156960
 20
608.026892
 30
0.0
 10
142.156960
 20
588.184356
 30
0.0
 10
133.653016
 20
588.184356
 30
0.0
 10
133.653016
 20
576.845764
 30
0.0
 10
122.314424
 20
576.845764
 30
0.0
 10
122.314424
 20
568.341820
 30
0.0
 10
102.471888
 20
568.341820
 30
0.0
 10
102.471888
 20
576.845764
 30
0.0
 10
88.298648
 20
576.845764
 30
0.0
 10
88.298648
 20
568.341820
 30
0.0
 10
74.125408
 20
568.341820
 30
0.0
 10
74.125408
 20
576.845764
 30
0.0
 10
59.952168
 20
576.845764
 30
0.0
 10
59.952168
 20
568.341820
 30
0.0
 10
40.109632
 20
568.341820
 30
0.0
 10
40.109632
 20
576.845764
 30
0.0
 10
28.771040
 20
576.845764
 30
0.0
 10
28.771040
 20
588.184356
 30
0.0
 10
20.267096
 20
588.184356
 30
0.0
 10
20.267096
 20
608.026892
 30
0.0
 10
28.771040
 20
608.026892
 30
0.0
 10
28.771040
 20
622.200132
 30
0.0
 10
20.267096
 20
622.200132
 30
0.0
 10
20.267096
 20
636.373372
 30
0.0
 10
28.771040
 20
636.373372
 30
0.0
 10
28.771040
 20
650.546612
 30
0.0
 10
20.267096
 20
650.546612
 30
0.0
 10
20.267096
 20
670.389148
 30
0.0
 10
28.771040
 20
670.389148
 30
0.0
 10
28.771040
 20
681.727740
 30
0.0
 10
40.109632
 20
681.727740
 30
0.0
 10
40.109632
 20
690.231684
 30
0.0
 10
59.952168
 20
690.231684
 30
0.0
 10
59.952168
 20
681.727740
 30
0.0
 10
74.125408
 20
681.727740
 30
0.0
 10
74.125408
 20
690.231684
 30
0.0
 10
88.298648
 20
690.231684
 30
0.0
 10
88.298648
 20
681.727740
 30
0.0
 10
102.471888
 20
681.727740
 30
0.0
 10
102.471888
 20
690.231684
 30
0.0
 10
122.314424
 20
690.231684
 30
0.0
 10
122.314424
 20
681.727740
 30
0.0
 10
133.653016
 20
681.727740
 30
0.0
 10
133.653016
 20
670.389148
 30
0.0
 10
142.156960
 20
670.389148
 30
0.0
 10
142.156960
 20
650.546612
 30
0.0
 10
133.653016
 20
650.546612
 30
0.0
 10
133.653016
 20
636.373372
 30
0.0
 10
142.156960
 20
636.373372
 30
0.0
  0
SPLINE
  5
10e
100
AcDbEntity
  8
Layer_1
 62
3
100
AcDbSpline
 70
0
 71
3
 72
19
 73
15
 74
13
 40
0.000000
 40
0.000000
 40
0.000000
 40
0.000000
 40
7.659703
 40
15.388435
 40
22.772614
 40
29.145567
 40
34.955058
 40
41.645302
 40
49.305006
 40
57.033737
 40
64.417916
 40
70.790869
 40
76.600360
 40
83.290605
 40
83.290605
 40
83.290605
 40
83.290605
 10
497.460568
 20
617.154908
 30
0.0
 10
495.103074
 20
618.224232
 30
0.0
 10
490.366840
 20
620.372518
 30
0.0
 10
485.650103
 20
626.685058
 30
0.0
 10
483.585292
 20
633.730022
 30
0.0
 10
485.259879
 20
640.532750
 30
0.0
 10
490.891203
 20
644.388650
 30
0.0
 10
497.977526
 20
643.883525
 30
0.0
 10
504.491404
 20
640.064047
 30
0.0
 10
509.288214
 20
633.961228
 30
0.0
 10
511.328591
 20
626.852269
 30
0.0
 10
509.673235
 20
620.099911
 30
0.0
 10
503.989516
 20
616.106781
 30
0.0
 10
499.736769
 20
616.789497
 30
0.0
 10
497.460568
 20
617.154908
 30
0.0
 11
497.460568
 21
617.154908
 31
0.0
 11
490.771852
 21
620.887486
 31
0.0
 11
486.017551
 21
626.980917
 31
0.0
 11
484.208216
 21
634.139996
 31
0.0
 11
486.017551
 21
640.250710
 31
0.0
 11
490.771852
 21
643.589393
 31
0.0
 11
497.460568
 21
643.446380
 31
0.0
 11
504.149284
 21
639.713802
 31
0.0
 11
508.903585
 21
633.620371
 31
0.0
 11
510.712920
 21
626.461292
 31
0.0
 11
508.903585
 21
620.350577
 31
0.0
 11
504.149284
 21
617.011894
 31
0.0
 11
497.460568
 21
617.154908
 31
0.0
  0
LWPOLYLINE
  5
10f
100
AcDbEntity
  8
Layer_1
 62
3
100
AcDbPolyline
 90
2
 70
1
 10
497.460568
 20
617.154908
 30
0.0
 10
497.460568
 20
617.154908
 30
0.0
  0
SPLINE
  5
110
100
AcDbEntity
  8
Layer_1
 62
3
100
AcDbSpline
 70
0
 71
3
 72
19
 73
15
 74
13
 40
0.000000
 40
0.000000
 40
0.000000
 40
0.000000
 40
6.531820
 40
13.080878
 40
19.304826
 40
24.678283
 40
29.624792
 40
35.352024
 40
41.883841
 40
48.432897
 40
54.656842
 40
60.030300
 40
64.976806
 40
70.704033
 40
70.704033
 40
70.704033
 40
70.704033
 10
497.163800
 20
619.144644
 30
0.0
 10
495.147543
 20
620.042672
 30
0.0
 10
491.109707
 20
621.841098
 30
0.0
 10
487.061272
 20
627.151825
 30
0.0
 10
485.280999
 20
633.101146
 30
0.0
 10
486.735648
 20
638.854705
 30
0.0
 10
491.557291
 20
642.076660
 30
0.0
 10
497.591063
 20
641.652753
 30
0.0
 10
503.166838
 20
638.449143
 30
0.0
 10
507.280150
 20
633.312720
 30
0.0
 10
509.040764
 20
627.310585
 30
0.0
 10
507.601627
 20
621.598700
 30
0.0
 10
502.737204
 20
618.261806
 30
0.0
 10
499.110037
 20
618.836356
 30
0.0
 10
497.163800
 20
619.144644
 30
0.0
 11
497.163800
 21
619.144644
 31
0.0
 11
491.437833
 21
622.287568
 31
0.0
 11
487.367849
 21
627.418397
 31
0.0
 11
485.818944
 21
633.446532
 31
0.0
 11
487.367849
 21
638.591912
 31
0.0
 11
491.437833
 21
641.403170
 31
0.0
 11
497.163800
 21
641.282748
 31
0.0
 11
502.889761
 21
638.139820
 31
0.0
 11
506.959743
 21
633.008993
 31
0.0
 11
508.508648
 21
626.980860
 31
0.0
 11
506.959743
 21
621.835479
 31
0.0
 11
502.889761
 21
619.024222
 31
0.0
 11
497.163800
 21
619.144644
 31
0.0
  0
LWPOLYLINE
  5
111
100
AcDbEntity
  8
Layer_1
 62
3
100
AcDbPolyline
 90
2
 70
1
 10
497.163800
 20
619.144644
 30
0.0
 10
497.163800
 20
619.144644
 30
0.0
  0
SPLINE
  5
112
100
AcDbEntity
  8
Layer_1
 62
3
100
AcDbSpline
 70
0
 71
3
 72
19
 73
15
 74
13
 40
0.000000
 40
0.000000
 40
0.000000
 40
0.000000
 40
1.139997
 40
2.246190
 40
3.386200
 40
4.526189
 40
5.632376
 40
6.772373
 40
7.912373
 40
9.018558
 40
10.158547
 40
11.298557
 40
12.404748
 40
13.544748
 40
13.544748
 40
13.544748
 40
13.544748
 10
497.163792
 20
628.802900
 30
0.0
 10
496.779439
 20
628.862827
 30
0.0
 10
496.022129
 20
628.980904
 30
0.0
 10
495.188400
 20
629.848938
 30
0.0
 10
494.879477
 20
630.981236
 30
0.0
 10
495.188403
 20
632.125418
 30
0.0
 10
496.022132
 20
632.958479
 30
0.0
 10
497.163793
 20
633.267637
 30
0.0
 10
498.305454
 20
632.958480
 30
0.0
 10
499.139183
 20
632.125418
 30
0.0
 10
499.448106
 20
630.981236
 30
0.0
 10
499.139186
 20
629.848938
 30
0.0
 10
498.305457
 20
628.980902
 30
0.0
 10
497.548147
 20
628.862826
 30
0.0
 10
497.163792
 20
628.802900
 30
0.0
 11
497.163792
 21
628.802900
 31
0.0
 11
496.063347
 21
629.100581
 31
0.0
 11
495.281157
 21
629.882784
 31
0.0
 11
494.983480
 21
630.983244
 31
0.0
 11
495.281157
 21
632.083681
 31
0.0
 11
496.063347
 21
632.865875
 31
0.0
 11
497.163792
 21
633.163556
 31
0.0
 11
498.264240
 21
632.865875
 31
0.0
 11
499.046429
 21
632.083681
 31
0.0
 11
499.344104
 21
630.983244
 31
0.0
 11
499.046429
 21
629.882784
 31
0.0
 11
498.264240
 21
629.100581
 31
0.0
 11
497.163792
 21
628.802900
 31
0.0
  0
LWPOLYLINE
  5
113
100
AcDbEntity
  8
Layer_1
 62
3
100
AcDbPolyline
 90
2
 70
1
 10
497.163792
 20
628.802900
 30
0.0
 10
497.163792
 20
628.802900
 30
0.0
  0
SPLINE
  5
114
100
AcDbEntity
  8
Layer_1
 62
3
100
AcDbSpline
 70
0
 71
3
 72
19
 73
15
 74
13
 40
0.000000
 40
0.000000
 40
0.000000
 40
0.000000
 40
7.659705
 40
15.388439
 40
22.772619
 40
29.145572
 40
34.955066
 40
41.645313
 40
49.305013
 40
57.033745
 40
64.417925
 40
70.790878
 40
76.600369
 40
83.290613
 40
83.290613
 40
83.290613
 40
83.290613
 10
499.087608
 20
576.411548
 30
0.0
 10
496.730113
 20
577.480872
 30
0.0
 10
491.993878
 20
579.629158
 30
0.0
 10
487.277138
 20
585.941697
 30
0.0
 10
485.212323
 20
592.986662
 30
0.0
 10
486.886914
 20
599.789391
 30
0.0
 10
492.518241
 20
603.645289
 30
0.0
 10
499.604565
 20
603.140166
 30
0.0
 10
506.118441
 20
599.320685
 30
0.0
 10
510.915252
 20
593.217869
 30
0.0
 10
512.955632
 20
586.108909
 30
0.0
 10
511.300275
 20
579.356551
 30
0.0
 10
505.616556
 20
575.363421
 30
0.0
 10
501.363809
 20
576.046137
 30
0.0
 10
499.087608
 20
576.411548
 30
0.0
 11
499.087608
 21
576.411548
 31
0.0
 11
492.398890
 21
580.144126
 31
0.0
 11
487.644585
 21
586.237557
 31
0.0
 11
485.835248
 21
593.396636
 31
0.0
 11
487.644585
 21
599.507350
 31
0.0
 11
492.398890
 21
602.846033
 31
0.0
 11
499.087608
 21
602.703020
 31
0.0
 11
505.776320
 21
598.970442
 31
0.0
 11
510.530624
 21
592.877011
 31
0.0
 11
512.339960
 21
585.717932
 31
0.0
 11
510.530625
 21
579.607217
 31
0.0
 11
505.776324
 21
576.268534
 31
0.0
 11
499.087608
 21
576.411548
 31
0.0
  0
LWPOLYLINE
  5
115
100
AcDbEntity
  8
Layer_1
 62
3
100
AcDbPolyline
 90
2
 70
1
 10
499.087608
 20
576.411548
 30
0.0
 10
499.087608
 20
576.411548
 30
0.0
  0
SPLINE
  5
116
100
AcDbEntity
  8
Layer_1
 62
3
100
AcDbSpline
 70
0
 71
3
 72
19
 73
15
 74
13
 40
0.000000
 40
0.000000
 40
0.000000
 40
0.000000
 40
6.531815
 40
13.080872
 40
19.304819
 40
24.678277
 40
29.624783
 40
35.352011
 40
41.883832
 40
48.432889
 40
54.656835
 40
60.030293
 40
64.976801
 40
70.704033
 40
70.704033
 40
70.704033
 40
70.704033
 10
498.790832
 20
578.401268
 30
0.0
 10
496.774577
 20
579.299296
 30
0.0
 10
492.736743
 20
581.097723
 30
0.0
 10
488.688312
 20
586.408450
 30
0.0
 10
486.908039
 20
592.357770
 30
0.0
 10
488.362687
 20
598.111328
 30
0.0
 10
493.184327
 20
601.333284
 30
0.0
 10
499.218098
 20
600.909375
 30
0.0
 10
504.793875
 20
597.705769
 30
0.0
 10
508.907190
 20
592.569344
 30
0.0
 10
510.667804
 20
586.567209
 30
0.0
 10
509.228667
 20
580.855323
 30
0.0
 10
504.364240
 20
577.518430
 30
0.0
 10
500.737071
 20
578.092980
 30
0.0
 10
498.790832
 20
578.401268
 30
0.0
 11
498.790832
 21
578.401268
 31
0.0
 11
493.064871
 21
581.544192
 31
0.0
 11
488.994889
 21
586.675021
 31
0.0
 11
487.445984
 21
592.703156
 31
0.0
 11
488.994889
 21
597.848536
 31
0.0
 11
493.064871
 21
600.659794
 31
0.0
 11
498.790832
 21
600.539372
 31
0.0
 11
504.516799
 21
597.396444
 31
0.0
 11
508.586783
 21
592.265617
 31
0.0
 11
510.135688
 21
586.237484
 31
0.0
 11
508.586783
 21
581.092103
 31
0.0
 11
504.516799
 21
578.280846
 31
0.0
 11
498.790832
 21
578.401268
 31
0.0
  0
LWPOLYLINE
  5
117
100
AcDbEntity
  8
Layer_1
 62
3
100
AcDbPolyline
 90
2
 70
1
 10
498.790832
 20
578.401268
 30
0.0
 10
498.790832
 20
578.401268
 30
0.0
  0
SPLINE
  5
118
100
AcDbEntity
  8
Layer_1
 62
3
100
AcDbSpline
 70
0
 71
3
 72
19
 73
15
 74
13
 40
0.000000
 40
0.000000
 40
0.000000
 40
0.000000
 40
1.140002
 40
2.246197
 40
3.386207
 40
4.526196
 40
5.632384
 40
6.772386
 40
7.912383
 40
9.018570
 40
10.158559
 40
11.298569
 40
12.404762
 40
13.544759
 40
13.544759
 40
13.544759
 40
13.544759
 10
498.790832
 20
588.059508
 30
0.0
 10
498.406477
 20
588.119435
 30
0.0
 10
497.649165
 20
588.237511
 30
0.0
 10
496.815432
 20
589.105545
 30
0.0
 10
496.506509
 20
590.237844
 30
0.0
 10
496.815436
 20
591.382027
 30
0.0
 10
497.649168
 20
592.215088
 30
0.0
 10
498.790830
 20
592.524245
 30
0.0
 10
499.932492
 20
592.215087
 30
0.0
 10
500.766221
 20
591.382026
 30
0.0
 10
501.075147
 20
590.237844
 30
0.0
 10
500.766224
 20
589.105546
 30
0.0
 10
499.932495
 20
588.237512
 30
0.0
 10
499.175185
 20
588.119435
 30
0.0
 10
498.790832
 20
588.059508
 30
0.0
 11
498.790832
 21
588.059508
 31
0.0
 11
497.690382
 21
588.357189
 31
0.0
 11
496.908189
 21
589.139392
 31
0.0
 11
496.610512
 21
590.239852
 31
0.0
 11
496.908189
 21
591.340289
 31
0.0
 11
497.690382
 21
592.122483
 31
0.0
 11
498.790832
 21
592.420164
 31
0.0
 11
499.891277
 21
592.122483
 31
0.0
 11
500.673467
 21
591.340289
 31
0.0
 11
500.971144
 21
590.239852
 31
0.0
 11
500.673467
 21
589.139392
 31
0.0
 11
499.891277
 21
588.357189
 31
0.0
 11
498.790832
 21
588.059508
 31
0.0
  0
SPLINE
  5
119
100
AcDbEntity
  8
Layer_1
 62
3
100
AcDbSpline
 70
0
 71
3
 72
10
 73
6
 74
4
 40
0.000000
 40
0.000000
 40
0.000000
 40
0.000000
 40
1.811990
 40
3.690181
 40
5.466978
 40
5.466978
 40
5.466978
 40
5.466978
 10
521.916776
 20
637.154068
 30
0.0
 10
521.352303
 20
637.443810
 30
0.0
 10
520.202734
 20
638.033880
 30
0.0
 10
518.251014
 20
636.800722
 30
0.0
 10
518.442251
 20
635.507506
 30
0.0
 10
518.535216
 20
634.878836
 30
0.0
 11
521.916776
 21
637.154068
 31
0.0
 11
520.182891
 21
637.680328
 31
0.0
 11
518.609874
 21
636.654064
 31
0.0
 11
518.535216
 21
634.878836
 31
0.0
  0
SPLINE
  5
11a
100
AcDbEntity
  8
Layer_1
 62
3
100
AcDbSpline
 70
0
 71
3
 72
10
 73
6
 74
4
 40
0.000000
 40
0.000000
 40
0.000000
 40
0.000000
 40
4.955642
 40
8.981836
 40
12.908466
 40
12.908466
 40
12.908466
 40
12.908466
 10
518.535216
 20
634.878836
 30
0.0
 10
519.533168
 20
633.537311
 30
0.0
 10
521.341903
 20
631.105869
 30
0.0
 10
521.990759
 20
626.638534
 30
0.0
 10
521.125887
 20
624.106478
 30
0.0
 10
520.698864
 20
622.856300
 30
0.0
 11
518.535216
 21
634.878836
 31
0.0
 11
521.115900
 21
630.648179
 31
0.0
 11
521.671641
 21
626.660525
 31
0.0
 11
520.698864
 21
622.856300
 31
0.0
  0
SPLINE
  5
11b
100
AcDbEntity
  8
Layer_1
 62
3
100
AcDbSpline
 70
0
 71
3
 72
10
 73
6
 74
4
 40
0.000000
 40
0.000000
 40
0.000000
 40
0.000000
 40
2.292619
 40
4.169792
 40
5.942825
 40
5.942825
 40
5.942825
 40
5.942825
 10
520.698864
 20
622.856300
 30
0.0
 10
520.545037
 20
621.995981
 30
0.0
 10
520.265258
 20
620.431242
 30
0.0
 10
522.727051
 20
619.582271
 30
0.0
 10
523.648494
 20
620.479866
 30
0.0
 10
524.096072
 20
620.915860
 30
0.0
 11
520.698864
 21
622.856300
 31
0.0
 11
520.844125
 21
620.568288
 31
0.0
 11
522.613985
 21
619.942688
 31
0.0
 11
524.096072
 21
620.915860
 31
0.0
  0
LWPOLYLINE
  5
11c
100
AcDbEntity
  8
Layer_1
 62
3
100
AcDbPolyline
 90
2
 70
1
 10
498.790832
 20
588.059508
 30
0.0
 10
498.790832
 20
588.059508
 30
0.0
  0
SPLINE
  5
11d
100
AcDbEntity
  8
Layer_1
 62
3
100
AcDbSpline
 70
0
 71
3
 72
10
 73
6
 74
4
 40
0.000000
 40
0.000000
 40
0.000000
 40
0.000000
 40
5.014169
 40
10.257116
 40
16.808426
 40
16.808426
 40
16.808426
 40
16.808426
 10
524.096072
 20
620.915860
 30
0.0
 10
524.477899
 20
622.553738
 30
0.0
 10
525.258976
 20
625.904224
 30
0.0
 10
524.497734
 20
631.589028
 30
0.0
 10
522.838451
 20
635.166759
 30
0.0
 10
521.916776
 20
637.154068
 30
0.0
 11
524.096072
 21
620.915860
 31
0.0
 11
524.943887
 21
625.857833
 31
0.0
 11
524.334652
 21
631.065262
 31
0.0
 11
521.916776
 21
637.154068
 31
0.0
  0
SPLINE
  5
11e
100
AcDbEntity
  8
Layer_1
 62
3
100
AcDbSpline
 70
0
 71
3
 72
10
 73
6
 74
4
 40
0.000000
 40
0.000000
 40
0.000000
 40
0.000000
 40
1.811975
 40
3.690178
 40
5.466910
 40
5.466910
 40
5.466910
 40
5.466910
 10
524.050440
 20
577.802644
 30
0.0
 10
523.511145
 20
577.468378
 30
0.0
 10
522.412844
 20
576.787629
 30
0.0
 10
520.368155
 20
577.859543
 30
0.0
 10
520.454563
 20
579.163937
 30
0.0
 10
520.496568
 20
579.798028
 30
0.0
 11
524.050440
 21
577.802644
 31
0.0
 11
522.364595
 21
577.138431
 31
0.0
 11
520.714008
 21
578.034651
 31
0.0
 11
520.496568
 21
579.798028
 31
0.0
  0
SPLINE
  5
11f
100
AcDbEntity
  8
Layer_1
 62
3
100
AcDbSpline
 70
0
 71
3
 72
10
 73
6
 74
4
 40
0.000000
 40
0.000000
 40
0.000000
 40
0.000000
 40
4.955635
 40
8.981831
 40
12.908460
 40
12.908460
 40
12.908460
 40
12.908460
 10
520.496568
 20
579.798028
 30
0.0
 10
521.383190
 20
581.215593
 30
0.0
 10
522.990146
 20
583.784856
 30
0.0
 10
523.276964
 20
588.289945
 30
0.0
 10
522.210896
 20
590.744087
 30
0.0
 10
521.684536
 20
591.955796
 30
0.0
 11
520.496568
 21
579.798028
 31
0.0
 11
522.728001
 21
584.222847
 31
0.0
 11
522.960655
 21
588.242315
 31
0.0
 11
521.684536
 21
591.955796
 31
0.0
  0
SPLINE
  5
120
100
AcDbEntity
  8
Layer_1
 62
3
100
AcDbSpline
 70
0
 71
3
 72
10
 73
6
 74
4
 40
0.000000
 40
0.000000
 40
0.000000
 40
0.000000
 40
2.292629
 40
4.169800
 40
5.942839
 40
5.942839
 40
5.942839
 40
5.942839
 10
521.684536
 20
591.955796
 30
0.0
 10
521.461894
 20
592.800928
 30
0.0
 10
521.056955
 20
594.338044
 30
0.0
 10
523.442351
 20
595.382594
 30
0.0
 10
524.433117
 20
594.562153
 30
0.0
 10
524.914368
 20
594.163636
 30
0.0
 11
521.684536
 21
591.955796
 31
0.0
 11
521.644984
 21
594.248083
 31
0.0
 11
523.358688
 21
595.014239
 31
0.0
 11
524.914368
 21
594.163636
 31
0.0
  0
LWPOLYLINE
  5
121
100
AcDbEntity
  8
Layer_1
 62
3
100
AcDbPolyline
 90
2
 70
1
 10
521.916776
 20
637.154068
 30
0.0
 10
521.916776
 20
637.154068
 30
0.0
  0
LWPOLYLINE
  5
122
100
AcDbEntity
  8
Layer_1
 62
3
100
AcDbPolyline
 90
2
 70
1
 10
524.050440
 20
577.802644
 30
0.0
 10
524.050440
 20
577.802644
 30
0.0
  0
SPLINE
  5
123
100
AcDbEntity
  8
Layer_1
 62
3
100
AcDbSpline
 70
0
 71
3
 72
10
 73
6
 74
4
 40
0.000000
 40
0.000000
 40
0.000000
 40
0.000000
 40
5.014171
 40
10.257114
 40
16.808416
 40
16.808416
 40
16.808416
 40
16.808416
 10
524.914368
 20
594.163636
 30
0.0
 10
525.426914
 20
592.561845
 30
0.0
 10
526.475390
 20
589.285180
 30
0.0
 10
526.174642
 20
583.557528
 30
0.0
 10
524.809005
 20
579.857746
 30
0.0
 10
524.050440
 20
577.802644
 30
0.0
 11
524.914368
 21
594.163636
 31
0.0
 11
526.157590
 21
589.306032
 31
0.0
 11
525.969890
 21
584.066450
 31
0.0
 11
524.050440
 21
577.802644
 31
0.0
  0
SPLINE
  5
124
100
AcDbEntity
  8
Layer_1
 62
3
100
AcDbSpline
 70
0
 71
3
 72
10
 73
6
 74
4
 40
0.000000
 40
0.000000
 40
0.000000
 40
0.000000
 40
2.066380
 40
3.569839
 40
5.705718
 40
5.705718
 40
5.705718
 40
5.705718
 10
473.032128
 20
646.398068
 30
0.0
 10
473.363539
 20
645.651784
 30
0.0
 10
473.936079
 20
644.362520
 30
0.0
 10
476.189972
 20
645.224268
 30
0.0
 10
476.409413
 20
646.487249
 30
0.0
 10
476.538200
 20
647.228476
 30
0.0
 11
473.032128
 21
646.398068
 31
0.0
 11
474.307019
 21
644.771851
 31
0.0
 11
475.732253
 21
645.250490
 31
0.0
 11
476.538200
 21
647.228476
 31
0.0
  0
SPLINE
  5
125
100
AcDbEntity
  8
Layer_1
 62
3
100
AcDbSpline
 70
0
 71
3
 72
10
 73
6
 74
4
 40
0.000000
 40
0.000000
 40
0.000000
 40
0.000000
 40
3.873423
 40
8.264105
 40
12.544614
 40
12.544614
 40
12.544614
 40
12.544614
 10
476.538200
 20
647.228476
 30
0.0
 10
476.426680
 20
648.513802
 30
0.0
 10
476.188748
 20
651.256096
 30
0.0
 10
474.741899
 20
655.322840
 30
0.0
 10
472.645113
 20
657.359174
 30
0.0
 10
471.610040
 20
658.364404
 30
0.0
 11
476.538200
 21
647.228476
 31
0.0
 11
476.046518
 21
651.070566
 31
0.0
 11
474.448010
 21
655.159925
 31
0.0
 11
471.610040
 21
658.364404
 31
0.0
  0
LWPOLYLINE
  5
126
100
AcDbEntity
  8
Layer_1
 62
3
100
AcDbPolyline
 90
2
 70
1
 10
472.570800
 20
650.457748
 30
0.0
 10
473.032128
 20
646.398068
 30
0.0
  0
SPLINE
  5
127
100
AcDbEntity
  8
Layer_1
 62
3
100
AcDbSpline
 70
0
 71
3
 72
10
 73
6
 74
4
 40
0.000000
 40
0.000000
 40
0.000000
 40
0.000000
 40
2.496317
 40
4.237468
 40
6.526792
 40
6.526792
 40
6.526792
 40
6.526792
 10
471.610040
 20
658.364404
 30
0.0
 10
470.832712
 20
658.742523
 30
0.0
 10
469.513208
 20
659.384375
 30
0.0
 10
467.053989
 20
657.909773
 30
0.0
 10
468.118897
 20
656.625076
 30
0.0
 10
468.723768
 20
655.895364
 30
0.0
 11
471.610040
 21
658.364404
 31
0.0
 11
469.181882
 21
658.943756
 31
0.0
 11
467.742678
 21
657.963809
 31
0.0
 11
468.723768
 21
655.895364
 31
0.0
  0
LWPOLYLINE
  5
128
100
AcDbEntity
  8
Layer_1
 62
3
100
AcDbPolyline
 90
2
 70
1
 10
468.723768
 20
655.895364
 30
0.0
 10
470.448704
 20
653.963812
 30
0.0
  0
SPLINE
  5
129
100
AcDbEntity
  8
Layer_1
 62
3
100
AcDbSpline
 70
0
 71
3
 72
10
 73
6
 74
4
 40
0.000000
 40
0.000000
 40
0.000000
 40
0.000000
 40
43.071325
 40
82.148075
 40
114.091737
 40
114.091737
 40
114.091737
 40
114.091737
 10
470.448704
 20
653.963812
 30
0.0
 10
456.932657
 20
645.979413
 30
0.0
 10
431.154086
 20
630.751114
 30
0.0
 10
438.592622
 20
584.904702
 30
0.0
 10
457.892736
 20
570.680117
 30
0.0
 10
466.573568
 20
564.282164
 30
0.0
 11
470.448704
 21
653.963812
 31
0.0
 11
438.459561
 21
625.122283
 31
0.0
 11
443.498807
 21
586.371820
 31
0.0
 11
466.573568
 21
564.282164
 31
0.0
  0
SPLINE
  5
12a
100
AcDbEntity
  8
Layer_1
 62
3
100
AcDbSpline
 70
0
 71
3
 72
10
 73
6
 74
4
 40
0.000000
 40
0.000000
 40
0.000000
 40
0.000000
 40
1.462074
 40
2.918560
 40
4.361952
 40
4.361952
 40
4.361952
 40
4.361952
 10
465.743184
 20
562.312508
 30
0.0
 10
465.715363
 20
561.800668
 30
0.0
 10
465.659828
 20
560.778943
 30
0.0
 10
467.125192
 20
559.753025
 30
0.0
 10
468.050548
 20
560.189673
 30
0.0
 10
468.511136
 20
560.407012
 30
0.0
 11
465.743184
 21
562.312508
 31
0.0
 11
465.919715
 21
560.861130
 31
0.0
 11
467.117272
 21
560.032149
 31
0.0
 11
468.511136
 21
560.407012
 31
0.0
  0
SPLINE
  5
12b
100
AcDbEntity
  8
Layer_1
 62
3
100
AcDbSpline
 70
0
 71
3
 72
10
 73
6
 74
4
 40
0.000000
 40
0.000000
 40
0.000000
 40
0.000000
 40
2.990648
 40
5.922186
 40
8.819798
 40
8.819798
 40
8.819798
 40
8.819798
 10
468.511136
 20
560.407012
 30
0.0
 10
468.956681
 20
561.299002
 30
0.0
 10
469.838965
 20
563.065353
 30
0.0
 10
470.998356
 20
565.768468
 30
0.0
 10
471.715082
 20
567.574441
 30
0.0
 10
472.071360
 20
568.472172
 30
0.0
 11
468.511136
 21
560.407012
 31
0.0
 11
469.821302
 21
563.095401
 31
0.0
 11
470.990287
 21
565.783782
 31
0.0
 11
472.071360
 21
568.472172
 31
0.0
  0
LWPOLYLINE
  5
12c
100
AcDbEntity
  8
Layer_1
 62
3
100
AcDbPolyline
 90
2
 70
1
 10
466.573568
 20
564.282164
 30
0.0
 10
465.743184
 20
562.312508
 30
0.0
  0
SPLINE
  5
12d
100
AcDbEntity
  8
Layer_1
 62
3
100
AcDbSpline
 70
0
 71
3
 72
10
 73
6
 74
4
 40
0.000000
 40
0.000000
 40
0.000000
 40
0.000000
 40
1.783136
 40
3.679800
 40
5.865701
 40
5.865701
 40
5.865701
 40
5.865701
 10
472.071360
 20
568.472172
 30
0.0
 10
472.091287
 20
569.075573
 30
0.0
 10
472.132410
 20
570.320794
 30
0.0
 10
470.348554
 20
572.035564
 30
0.0
 10
469.098302
 20
571.117766
 30
0.0
 10
468.428888
 20
570.626356
 30
0.0
 11
472.071360
 21
568.472172
 31
0.0
 11
471.858710
 21
570.242582
 31
0.0
 11
470.434642
 21
571.495327
 31
0.0
 11
468.428888
 21
570.626356
 31
0.0
  0
LWPOLYLINE
  5
12e
100
AcDbEntity
  8
Layer_1
 62
3
100
AcDbPolyline
 90
2
 70
1
 10
468.428888
 20
570.626356
 30
0.0
 10
467.496224
 20
569.079948
 30
0.0
  0
LWPOLYLINE
  5
12f
100
AcDbEntity
  8
Layer_1
 62
3
100
AcDbPolyline
 90
2
 70
1
 10
472.570800
 20
650.457748
 30
0.0
 10
472.570800
 20
650.457748
 30
0.0
  0
LWPOLYLINE
  5
130
100
AcDbEntity
  8
Layer_1
 62
7
100
AcDbPolyline
 90
29
 70
1
 10
236.900240
 20
189.026420
 30
0.0
 10
290.225240
 20
189.001460
 30
0.0
 10
290.225240
 20
197.501460
 30
0.0
 10
300.850240
 20
197.501460
 30
0.0
 10
300.850240
 20
189.001460
 30
0.0
 10
309.350240
 20
189.001460
 30
0.0
 10
309.350240
 20
197.501460
 30
0.0
 10
319.975240
 20
197.501460
 30
0.0
 10
319.975240
 20
189.001460
 30
0.0
 10
330.600240
 20
189.001460
 30
0.0
 10
330.600240
 20
199.626460
 30
0.0
 10
322.100240
 20
199.626460
 30
0.0
 10
322.100240
 20
210.276460
 30
0.0
 10
330.600240
 20
210.276460
 30
0.0
 10
330.600240
 20
218.776460
 30
0.0
 10
322.100240
 20
218.776460
 30
0.0
 10
322.100240
 20
229.401460
 30
0.0
 10
330.600240
 20
229.401460
 30
0.0
 10
330.600240
 20
240.026460
 30
0.0
 10
319.975240
 20
240.026460
 30
0.0
 10
319.975240
 20
231.526460
 30
0.0
 10
309.350240
 20
231.526460
 30
0.0
 10
309.350240
 20
240.026460
 30
0.0
 10
300.850240
 20
240.026460
 30
0.0
 10
300.850240
 20
231.526460
 30
0.0
 10
290.225240
 20
231.526460
 30
0.0
 10
290.225240
 20
240.026460
 30
0.0
 10
236.900240
 20
239.901460
 30
0.0
 10
236.900240
 20
189.026420
 30
0.0
  0
LWPOLYLINE
  5
131
100
AcDbEntity
  8
Layer_1
 62
7
100
AcDbPolyline
 90
37
 70
1
 10
244.532232
 20
271.799056
 30
0.0
 10
244.532232
 20
282.428986
 30
0.0
 10
236.028288
 20
282.428986
 30
0.0
 10
236.028288
 20
293.058916
 30
0.0
 10
246.658218
 20
293.058916
 30
0.0
 10
246.658218
 20
284.554972
 30
0.0
 10
257.288148
 20
284.554972
 30
0.0
 10
257.288148
 20
293.058916
 30
0.0
 10
265.792092
 20
293.058916
 30
0.0
 10
265.792092
 20
284.554972
 30
0.0
 10
276.422022
 20
284.554972
 30
0.0
 10
276.422022
 20
293.058916
 30
0.0
 10
287.051952
 20
293.058916
 30
0.0
 10
287.051952
 20
282.428986
 30
0.0
 10
278.548008
 20
282.428986
 30
0.0
 10
278.548008
 20
271.799056
 30
0.0
 10
287.051952
 20
271.799056
 30
0.0
 10
287.051952
 20
263.295112
 30
0.0
 10
278.548008
 20
263.295112
 30
0.0
 10
278.548008
 20
252.665182
 30
0.0
 10
287.051952
 20
252.665182
 30
0.0
 10
287.051952
 20
242.035252
 30
0.0
 10
276.422022
 20
242.035252
 30
0.0
 10
276.422022
 20
250.539196
 30
0.0
 10
265.792092
 20
250.539196
 30
0.0
 10
265.792092
 20
242.035252
 30
0.0
 10
257.288148
 20
242.035252
 30
0.0
 10
257.288148
 20
250.539196
 30
0.0
 10
246.658218
 20
250.539196
 30
0.0
 10
246.658218
 20
242.035252
 30
0.0
 10
236.028288
 20
242.035252
 30
0.0
 10
236.028288
 20
252.665182
 30
0.0
 10
244.532232
 20
252.665182
 30
0.0
 10
244.532232
 20
263.295112
 30
0.0
 10
236.028288
 20
263.295112
 30
0.0
 10
236.028288
 20
271.799056
 30
0.0
 10
244.532232
 20
271.799056
 30
0.0
  0
LWPOLYLINE
  5
132
100
AcDbEntity
  8
Layer_1
 62
7
100
AcDbPolyline
 90
61
 70
1
 10
244.532232
 20
322.822736
 30
0.0
 10
244.532232
 20
331.326680
 30
0.0
 10
236.028288
 20
331.326680
 30
0.0
 10
236.028288
 20
339.830624
 30
0.0
 10
244.532232
 20
339.830624
 30
0.0
 10
244.532232
 20
348.334568
 30
0.0
 10
236.028288
 20
348.334568
 30
0.0
 10
236.028288
 20
356.838512
 30
0.0
 10
244.532232
 20
356.838512
 30
0.0
 10
244.532232
 20
365.342456
 30
0.0
 10
236.028288
 20
365.342456
 30
0.0
 10
236.028288
 20
373.846404
 30
0.0
 10
244.532232
 20
373.846404
 30
0.0
 10
244.532232
 20
384.476332
 30
0.0
 10
236.028288
 20
384.476332
 30
0.0
 10
236.028288
 20
386.602316
 30
0.0
 10
246.658218
 20
386.602316
 30
0.0
 10
246.658218
 20
395.106260
 30
0.0
 10
257.288148
 20
395.106260
 30
0.0
 10
257.288148
 20
386.602316
 30
0.0
 10
265.792092
 20
386.602316
 30
0.0
 10
265.792092
 20
395.106260
 30
0.0
 10
276.422022
 20
395.106260
 30
0.0
 10
276.422022
 20
386.602316
 30
0.0
 10
287.051952
 20
386.602316
 30
0.0
 10
287.051952
 20
384.476332
 30
0.0
 10
278.548008
 20
384.476332
 30
0.0
 10
278.548008
 20
373.846404
 30
0.0
 10
287.051952
 20
373.846404
 30
0.0
 10
287.051952
 20
365.342456
 30
0.0
 10
278.548008
 20
365.342456
 30
0.0
 10
278.548008
 20
356.838512
 30
0.0
 10
287.051952
 20
356.838512
 30
0.0
 10
287.051952
 20
348.334568
 30
0.0
 10
278.548008
 20
348.334568
 30
0.0
 10
278.548008
 20
339.830624
 30
0.0
 10
287.051952
 20
339.830624
 30
0.0
 10
287.051952
 20
331.326680
 30
0.0
 10
278.548008
 20
331.326680
 30
0.0
 10
278.548008
 20
322.822736
 30
0.0
 10
287.051952
 20
322.822736
 30
0.0
 10
287.051952
 20
314.318792
 30
0.0
 10
278.548008
 20
314.318792
 30
0.0
 10
278.548008
 20
303.688862
 30
0.0
 10
287.051952
 20
303.688862
 30
0.0
 10
287.051952
 20
301.562876
 30
0.0
 10
276.422022
 20
301.562876
 30
0.0
 10
276.422022
 20
293.058932
 30
0.0
 10
265.792092
 20
293.058932
 30
0.0
 10
265.792092
 20
301.562876
 30
0.0
 10
257.288148
 20
301.562876
 30
0.0
 10
257.288148
 20
293.058932
 30
0.0
 10
246.658218
 20
293.058932
 30
0.0
 10
246.658218
 20
301.562876
 30
0.0
 10
236.028288
 20
301.562876
 30
0.0
 10
236.028288
 20
303.688862
 30
0.0
 10
244.532232
 20
303.688862
 30
0.0
 10
244.532232
 20
314.318792
 30
0.0
 10
236.028288
 20
314.318792
 30
0.0
 10
236.028288
 20
322.822736
 30
0.0
 10
244.532232
 20
322.822736
 30
0.0
  0
LWPOLYLINE
  5
133
100
AcDbEntity
  8
Layer_1
 62
7
100
AcDbPolyline
 90
61
 70
1
 10
295.555848
 20
322.822736
 30
0.0
 10
295.555848
 20
331.326680
 30
0.0
 10
287.051904
 20
331.326680
 30
0.0
 10
287.051904
 20
339.830624
 30
0.0
 10
295.555848
 20
339.830624
 30
0.0
 10
295.555848
 20
348.334568
 30
0.0
 10
287.051904
 20
348.334568
 30
0.0
 10
287.051904
 20
356.838512
 30
0.0
 10
295.555848
 20
356.838512
 30
0.0
 10
295.555848
 20
365.342456
 30
0.0
 10
287.051904
 20
365.342456
 30
0.0
 10
287.051904
 20
373.846404
 30
0.0
 10
295.555848
 20
373.846404
 30
0.0
 10
295.555848
 20
384.476332
 30
0.0
 10
287.051904
 20
384.476332
 30
0.0
 10
287.051904
 20
386.602316
 30
0.0
 10
297.681834
 20
386.602316
 30
0.0
 10
297.681834
 20
395.106260
 30
0.0
 10
308.311764
 20
395.106260
 30
0.0
 10
308.311764
 20
386.602316
 30
0.0
 10
316.815708
 20
386.602316
 30
0.0
 10
316.815708
 20
395.106260
 30
0.0
 10
327.445638
 20
395.106260
 30
0.0
 10
327.445638
 20
386.602316
 30
0.0
 10
338.075568
 20
386.602316
 30
0.0
 10
338.075568
 20
384.476332
 30
0.0
 10
329.571624
 20
384.476332
 30
0.0
 10
329.571624
 20
373.846404
 30
0.0
 10
338.075568
 20
373.846404
 30
0.0
 10
338.075568
 20
365.342456
 30
0.0
 10
329.571624
 20
365.342456
 30
0.0
 10
329.571624
 20
356.838512
 30
0.0
 10
338.075568
 20
356.838512
 30
0.0
 10
338.075568
 20
348.334568
 30
0.0
 10
329.571624
 20
348.334568
 30
0.0
 10
329.571624
 20
339.830624
 30
0.0
 10
338.075568
 20
339.830624
 30
0.0
 10
338.075568
 20
331.326680
 30
0.0
 10
329.571624
 20
331.326680
 30
0.0
 10
329.571624
 20
322.822736
 30
0.0
 10
338.075568
 20
322.822736
 30
0.0
 10
338.075568
 20
314.318792
 30
0.0
 10
329.571624
 20
314.318792
 30
0.0
 10
329.571624
 20
303.688862
 30
0.0
 10
338.075568
 20
303.688862
 30
0.0
 10
338.075568
 20
301.562876
 30
0.0
 10
327.445638
 20
301.562876
 30
0.0
 10
327.445638
 20
293.058932
 30
0.0
 10
316.815708
 20
293.058932
 30
0.0
 10
316.815708
 20
301.562876
 30
0.0
 10
308.311764
 20
301.562876
 30
0.0
 10
308.311764
 20
293.058932
 30
0.0
 10
297.681834
 20
293.058932
 30
0.0
 10
297.681834
 20
301.562876
 30
0.0
 10
287.051904
 20
301.562876
 30
0.0
 10
287.051904
 20
303.688862
 30
0.0
 10
295.555848
 20
303.688862
 30
0.0
 10
295.555848
 20
314.318792
 30
0.0
 10
287.051904
 20
314.318792
 30
0.0
 10
287.051904
 20
322.822736
 30
0.0
 10
295.555848
 20
322.822736
 30
0.0
  0
LWPOLYLINE
  5
134
100
AcDbEntity
  8
Layer_1
 62
7
100
AcDbPolyline
 90
53
 70
1
 10
381.238576
 20
386.798892
 30
0.0
 10
381.238576
 20
384.672905
 30
0.0
 10
389.742520
 20
384.672905
 30
0.0
 10
389.742520
 20
374.042976
 30
0.0
 10
381.238576
 20
374.042976
 30
0.0
 10
381.238576
 20
365.539032
 30
0.0
 10
389.742520
 20
365.539032
 30
0.0
 10
389.742520
 20
357.035088
 30
0.0
 10
381.238576
 20
357.035088
 30
0.0
 10
381.238576
 20
348.531144
 30
0.0
 10
389.742520
 20
348.531144
 30
0.0
 10
389.742520
 20
340.027200
 30
0.0
 10
381.238576
 20
340.027200
 30
0.0
 10
381.238576
 20
331.523256
 30
0.0
 10
389.742520
 20
331.523256
 30
0.0
 10
389.742520
 20
323.019312
 30
0.0
 10
381.238576
 20
323.019312
 30
0.0
 10
381.238576
 20
314.515364
 30
0.0
 10
389.742520
 20
314.515364
 30
0.0
 10
389.742520
 20
303.885436
 30
0.0
 10
381.238576
 20
303.885436
 30
0.0
 10
381.238576
 20
301.759452
 30
0.0
 10
379.112590
 20
301.759452
 30
0.0
 10
379.112590
 20
293.255508
 30
0.0
 10
368.482660
 20
293.255508
 30
0.0
 10
368.482660
 20
301.759452
 30
0.0
 10
359.978716
 20
301.759452
 30
0.0
 10
359.978716
 20
293.255508
 30
0.0
 10
349.348786
 20
293.255508
 30
0.0
 10
349.348786
 20
301.759452
 30
0.0
 10
347.222800
 20
301.759452
 30
0.0
 10
347.222800
 20
303.885436
 30
0.0
 10
338.718856
 20
303.885436
 30
0.0
 10
338.718856
 20
314.515364
 30
0.0
 10
347.222800
 20
314.515364
 30
0.0
 10
347.222800
 20
323.019312
 30
0.0
 10
338.718856
 20
323.019312
 30
0.0
 10
338.718856
 20
331.523256
 30
0.0
 10
347.222800
 20
331.523256
 30
0.0
 10
347.222800
 20
340.027200
 30
0.0
 10
338.718856
 20
340.027200
 30
0.0
 10
338.718856
 20
348.531144
 30
0.0
 10
347.222800
 20
348.531144
 30
0.0
 10
347.222800
 20
357.035088
 30
0.0
 10
338.718856
 20
357.035088
 30
0.0
 10
338.718856
 20
365.539032
 30
0.0
 10
347.222800
 20
365.539032
 30
0.0
 10
347.222800
 20
374.042976
 30
0.0
 10
338.718856
 20
374.042976
 30
0.0
 10
338.718856
 20
384.672905
 30
0.0
 10
347.222800
 20
384.672905
 30
0.0
 10
347.222800
 20
386.798892
 30
0.0
 10
381.238576
 20
386.798892
 30
0.0
  0
LWPOLYLINE
  5
135
100
AcDbEntity
  8
Layer_1
 62
7
100
AcDbPolyline
 90
61
 70
1
 10
287.051904
 20
271.799056
 30
0.0
 10
287.051904
 20
282.428986
 30
0.0
 10
295.555848
 20
282.428986
 30
0.0
 10
295.555848
 20
284.554972
 30
0.0
 10
297.681834
 20
284.554972
 30
0.0
 10
297.681834
 20
293.058916
 30
0.0
 10
308.311764
 20
293.058916
 30
0.0
 10
308.311764
 20
284.554972
 30
0.0
 10
316.815708
 20
284.554972
 30
0.0
 10
316.815708
 20
293.058916
 30
0.0
 10
325.319652
 20
293.058916
 30
0.0
 10
325.319652
 20
284.554972
 30
0.0
 10
333.823596
 20
284.554972
 30
0.0
 10
333.823596
 20
293.058916
 30
0.0
 10
342.327540
 20
293.058916
 30
0.0
 10
342.327540
 20
284.554972
 30
0.0
 10
350.831484
 20
284.554972
 30
0.0
 10
350.831484
 20
293.058916
 30
0.0
 10
359.335428
 20
293.058916
 30
0.0
 10
359.335428
 20
284.554972
 30
0.0
 10
367.839376
 20
284.554972
 30
0.0
 10
367.839376
 20
293.058916
 30
0.0
 10
378.469304
 20
293.058916
 30
0.0
 10
378.469304
 20
284.554972
 30
0.0
 10
380.595288
 20
284.554972
 30
0.0
 10
380.595288
 20
282.428986
 30
0.0
 10
389.099232
 20
282.428986
 30
0.0
 10
389.099232
 20
271.799056
 30
0.0
 10
380.595288
 20
271.799056
 30
0.0
 10
380.595288
 20
263.295112
 30
0.0
 10
389.099232
 20
263.295112
 30
0.0
 10
389.099232
 20
252.665182
 30
0.0
 10
380.595288
 20
252.665182
 30
0.0
 10
380.595288
 20
250.539196
 30
0.0
 10
378.469304
 20
250.539196
 30
0.0
 10
378.469304
 20
242.035252
 30
0.0
 10
367.839376
 20
242.035252
 30
0.0
 10
367.839376
 20
250.539196
 30
0.0
 10
359.335428
 20
250.539196
 30
0.0
 10
359.335428
 20
242.035252
 30
0.0
 10
350.831484
 20
242.035252
 30
0.0
 10
350.831484
 20
250.539196
 30
0.0
 10
342.327540
 20
250.539196
 30
0.0
 10
342.327540
 20
242.035252
 30
0.0
 10
333.823596
 20
242.035252
 30
0.0
 10
333.823596
 20
250.539196
 30
0.0
 10
325.319652
 20
250.539196
 30
0.0
 10
325.319652
 20
242.035252
 30
0.0
 10
316.815708
 20
242.035252
 30
0.0
 10
316.815708
 20
250.539196
 30
0.0
 10
308.311764
 20
250.539196
 30
0.0
 10
308.311764
 20
242.035252
 30
0.0
 10
297.681834
 20
242.035252
 30
0.0
 10
297.681834
 20
250.539196
 30
0.0
 10
295.555848
 20
250.539196
 30
0.0
 10
295.555848
 20
252.665182
 30
0.0
 10
287.051904
 20
252.665182
 30
0.0
 10
287.051904
 20
263.295112
 30
0.0
 10
295.555848
 20
263.295112
 30
0.0
 10
295.555848
 20
271.799056
 30
0.0
 10
287.051904
 20
271.799056
 30
0.0
  0
LWPOLYLINE
  5
136
100
AcDbEntity
  8
Layer_1
 62
7
100
AcDbPolyline
 90
29
 70
1
 10
392.872056
 20
185.689652
 30
0.0
 10
446.197056
 20
185.664692
 30
0.0
 10
446.197056
 20
194.164692
 30
0.0
 10
456.822056
 20
194.164692
 30
0.0
 10
456.822056
 20
185.664692
 30
0.0
 10
465.322056
 20
185.664692
 30
0.0
 10
465.322056
 20
194.164692
 30
0.0
 10
475.947056
 20
194.164692
 30
0.0
 10
475.947056
 20
185.664692
 30
0.0
 10
486.572056
 20
185.664692
 30
0.0
 10
486.572056
 20
196.289692
 30
0.0
 10
478.072056
 20
196.289692
 30
0.0
 10
478.072056
 20
206.939692
 30
0.0
 10
486.572056
 20
206.939692
 30
0.0
 10
486.572056
 20
215.439692
 30
0.0
 10
478.072056
 20
215.439692
 30
0.0
 10
478.072056
 20
226.064692
 30
0.0
 10
486.572056
 20
226.064692
 30
0.0
 10
486.572056
 20
236.689692
 30
0.0
 10
475.947056
 20
236.689692
 30
0.0
 10
475.947056
 20
228.189692
 30
0.0
 10
465.322056
 20
228.189692
 30
0.0
 10
465.322056
 20
236.689692
 30
0.0
 10
456.822056
 20
236.689692
 30
0.0
 10
456.822056
 20
228.189692
 30
0.0
 10
446.197056
 20
228.189692
 30
0.0
 10
446.197056
 20
236.689692
 30
0.0
 10
392.872056
 20
236.564692
 30
0.0
 10
392.872056
 20
185.689652
 30
0.0
  0
LWPOLYLINE
  5
137
100
AcDbEntity
  8
Layer_1
 62
7
100
AcDbPolyline
 90
37
 70
1
 10
413.259964
 20
281.218228
 30
0.0
 10
413.259964
 20
289.722172
 30
0.0
 10
421.763908
 20
289.722172
 30
0.0
 10
421.763908
 20
281.218228
 30
0.0
 10
432.393838
 20
281.218228
 30
0.0
 10
432.393838
 20
289.722172
 30
0.0
 10
443.023768
 20
289.722172
 30
0.0
 10
443.023768
 20
279.092242
 30
0.0
 10
434.519824
 20
279.092242
 30
0.0
 10
434.519824
 20
268.462312
 30
0.0
 10
443.023768
 20
268.462312
 30
0.0
 10
443.023768
 20
259.958368
 30
0.0
 10
434.519824
 20
259.958368
 30
0.0
 10
434.519824
 20
249.328438
 30
0.0
 10
443.023768
 20
249.328438
 30
0.0
 10
443.023768
 20
238.698508
 30
0.0
 10
432.393838
 20
238.698508
 30
0.0
 10
432.393838
 20
247.202452
 30
0.0
 10
421.763908
 20
247.202452
 30
0.0
 10
421.763908
 20
238.698508
 30
0.0
 10
413.259964
 20
238.698508
 30
0.0
 10
413.259964
 20
247.202452
 30
0.0
 10
402.630034
 20
247.202452
 30
0.0
 10
402.630034
 20
238.698508
 30
0.0
 10
392.000104
 20
238.698508
 30
0.0
 10
392.000104
 20
249.328438
 30
0.0
 10
400.504048
 20
249.328438
 30
0.0
 10
400.504048
 20
259.958368
 30
0.0
 10
392.000104
 20
259.958368
 30
0.0
 10
392.000104
 20
268.462312
 30
0.0
 10
400.504048
 20
268.462312
 30
0.0
 10
400.504048
 20
279.092242
 30
0.0
 10
392.000104
 20
279.092242
 30
0.0
 10
392.000104
 20
289.722172
 30
0.0
 10
402.630034
 20
289.722172
 30
0.0
 10
402.630034
 20
281.218228
 30
0.0
 10
413.259964
 20
281.218228
 30
0.0
  0
LWPOLYLINE
  5
138
100
AcDbEntity
  8
Layer_1
 62
7
100
AcDbPolyline
 90
61
 70
1
 10
392.000104
 20
344.997824
 30
0.0
 10
392.000104
 20
353.501768
 30
0.0
 10
400.504048
 20
353.501768
 30
0.0
 10
400.504048
 20
362.005712
 30
0.0
 10
392.000104
 20
362.005712
 30
0.0
 10
392.000104
 20
370.509660
 30
0.0
 10
400.504048
 20
370.509660
 30
0.0
 10
400.504048
 20
381.139588
 30
0.0
 10
392.000104
 20
381.139588
 30
0.0
 10
392.000104
 20
383.265572
 30
0.0
 10
402.630034
 20
383.265572
 30
0.0
 10
402.630034
 20
391.769516
 30
0.0
 10
413.259964
 20
391.769516
 30
0.0
 10
413.259964
 20
383.265572
 30
0.0
 10
421.763908
 20
383.265572
 30
0.0
 10
421.763908
 20
391.769516
 30
0.0
 10
432.393838
 20
391.769516
 30
0.0
 10
432.393838
 20
383.265572
 30
0.0
 10
443.023768
 20
383.265572
 30
0.0
 10
443.023768
 20
381.139588
 30
0.0
 10
434.519824
 20
381.139588
 30
0.0
 10
434.519824
 20
370.509660
 30
0.0
 10
443.023768
 20
370.509660
 30
0.0
 10
443.023768
 20
362.005712
 30
0.0
 10
434.519824
 20
362.005712
 30
0.0
 10
434.519824
 20
353.501768
 30
0.0
 10
443.023768
 20
353.501768
 30
0.0
 10
443.023768
 20
344.997824
 30
0.0
 10
434.519824
 20
344.997824
 30
0.0
 10
434.519824
 20
336.493880
 30
0.0
 10
443.023768
 20
336.493880
 30
0.0
 10
443.023768
 20
327.989936
 30
0.0
 10
434.519824
 20
327.989936
 30
0.0
 10
434.519824
 20
319.485992
 30
0.0
 10
443.023768
 20
319.485992
 30
0.0
 10
443.023768
 20
310.982048
 30
0.0
 10
434.519824
 20
310.982048
 30
0.0
 10
434.519824
 20
300.352118
 30
0.0
 10
443.023768
 20
300.352118
 30
0.0
 10
443.023768
 20
298.226132
 30
0.0
 10
432.393838
 20
298.226132
 30
0.0
 10
432.393838
 20
289.722188
 30
0.0
 10
421.763908
 20
289.722188
 30
0.0
 10
421.763908
 20
298.226132
 30
0.0
 10
413.259964
 20
298.226132
 30
0.0
 10
413.259964
 20
289.722188
 30
0.0
 10
402.630034
 20
289.722188
 30
0.0
 10
402.630034
 20
298.226132
 30
0.0
 10
392.000104
 20
298.226132
 30
0.0
 10
392.000104
 20
300.352118
 30
0.0
 10
400.504048
 20
300.352118
 30
0.0
 10
400.504048
 20
310.982048
 30
0.0
 10
392.000104
 20
310.982048
 30
0.0
 10
392.000104
 20
319.485992
 30
0.0
 10
400.504048
 20
319.485992
 30
0.0
 10
400.504048
 20
327.989936
 30
0.0
 10
392.000104
 20
327.989936
 30
0.0
 10
392.000104
 20
336.493880
 30
0.0
 10
400.504048
 20
336.493880
 30
0.0
 10
400.504048
 20
344.997824
 30
0.0
 10
392.000104
 20
344.997824
 30
0.0
  0
LWPOLYLINE
  5
139
100
AcDbEntity
  8
Layer_1
 62
7
100
AcDbPolyline
 90
61
 70
1
 10
443.023720
 20
344.997824
 30
0.0
 10
443.023720
 20
353.501768
 30
0.0
 10
451.527664
 20
353.501768
 30
0.0
 10
451.527664
 20
362.005712
 30
0.0
 10
443.023720
 20
362.005712
 30
0.0
 10
443.023720
 20
370.509660
 30
0.0
 10
451.527664
 20
370.509660
 30
0.0
 10
451.527664
 20
381.139588
 30
0.0
 10
443.023720
 20
381.139588
 30
0.0
 10
443.023720
 20
383.265572
 30
0.0
 10
453.653650
 20
383.265572
 30
0.0
 10
453.653650
 20
391.769516
 30
0.0
 10
464.283580
 20
391.769516
 30
0.0
 10
464.283580
 20
383.265572
 30
0.0
 10
472.787524
 20
383.265572
 30
0.0
 10
472.787524
 20
391.769516
 30
0.0
 10
483.417454
 20
391.769516
 30
0.0
 10
483.417454
 20
383.265572
 30
0.0
 10
494.047384
 20
383.265572
 30
0.0
 10
494.047384
 20
381.139588
 30
0.0
 10
485.543440
 20
381.139588
 30
0.0
 10
485.543440
 20
370.509660
 30
0.0
 10
494.047384
 20
370.509660
 30
0.0
 10
494.047384
 20
362.005712
 30
0.0
 10
485.543440
 20
362.005712
 30
0.0
 10
485.543440
 20
353.501768
 30
0.0
 10
494.047384
 20
353.501768
 30
0.0
 10
494.047384
 20
344.997824
 30
0.0
 10
485.543440
 20
344.997824
 30
0.0
 10
485.543440
 20
336.493880
 30
0.0
 10
494.047384
 20
336.493880
 30
0.0
 10
494.047384
 20
327.989936
 30
0.0
 10
485.543440
 20
327.989936
 30
0.0
 10
485.543440
 20
319.485992
 30
0.0
 10
494.047384
 20
319.485992
 30
0.0
 10
494.047384
 20
310.982048
 30
0.0
 10
485.543440
 20
310.982048
 30
0.0
 10
485.543440
 20
300.352118
 30
0.0
 10
494.047384
 20
300.352118
 30
0.0
 10
494.047384
 20
298.226132
 30
0.0
 10
483.417454
 20
298.226132
 30
0.0
 10
483.417454
 20
289.722188
 30
0.0
 10
472.787524
 20
289.722188
 30
0.0
 10
472.787524
 20
298.226132
 30
0.0
 10
464.283580
 20
298.226132
 30
0.0
 10
464.283580
 20
289.722188
 30
0.0
 10
453.653650
 20
289.722188
 30
0.0
 10
453.653650
 20
298.226132
 30
0.0
 10
443.023720
 20
298.226132
 30
0.0
 10
443.023720
 20
300.352118
 30
0.0
 10
451.527664
 20
300.352118
 30
0.0
 10
451.527664
 20
310.982048
 30
0.0
 10
443.023720
 20
310.982048
 30
0.0
 10
443.023720
 20
319.485992
 30
0.0
 10
451.527664
 20
319.485992
 30
0.0
 10
451.527664
 20
327.989936
 30
0.0
 10
443.023720
 20
327.989936
 30
0.0
 10
443.023720
 20
336.493880
 30
0.0
 10
451.527664
 20
336.493880
 30
0.0
 10
451.527664
 20
344.997824
 30
0.0
 10
443.023720
 20
344.997824
 30
0.0
  0
LWPOLYLINE
  5
13a
100
AcDbEntity
  8
Layer_1
 62
7
100
AcDbPolyline
 90
53
 70
1
 10
537.210392
 20
383.462092
 30
0.0
 10
537.210392
 20
381.336105
 30
0.0
 10
545.714336
 20
381.336105
 30
0.0
 10
545.714336
 20
370.706176
 30
0.0
 10
537.210392
 20
370.706176
 30
0.0
 10
537.210392
 20
362.202232
 30
0.0
 10
545.714336
 20
362.202232
 30
0.0
 10
545.714336
 20
353.698288
 30
0.0
 10
537.210392
 20
353.698288
 30
0.0
 10
537.210392
 20
345.194344
 30
0.0
 10
545.714336
 20
345.194344
 30
0.0
 10
545.714336
 20
336.690400
 30
0.0
 10
537.210392
 20
336.690400
 30
0.0
 10
537.210392
 20
328.186456
 30
0.0
 10
545.714336
 20
328.186456
 30
0.0
 10
545.714336
 20
319.682512
 30
0.0
 10
537.210392
 20
319.682512
 30
0.0
 10
537.210392
 20
311.178564
 30
0.0
 10
545.714336
 20
311.178564
 30
0.0
 10
545.714336
 20
300.548636
 30
0.0
 10
537.210392
 20
300.548636
 30
0.0
 10
537.210392
 20
298.422652
 30
0.0
 10
535.084406
 20
298.422652
 30
0.0
 10
535.084406
 20
289.918708
 30
0.0
 10
524.454476
 20
289.918708
 30
0.0
 10
524.454476
 20
298.422652
 30
0.0
 10
515.950532
 20
298.422652
 30
0.0
 10
515.950532
 20
289.918708
 30
0.0
 10
505.320602
 20
289.918708
 30
0.0
 10
505.320602
 20
298.422652
 30
0.0
 10
503.194616
 20
298.422652
 30
0.0
 10
503.194616
 20
300.548636
 30
0.0
 10
494.690672
 20
300.548636
 30
0.0
 10
494.690672
 20
311.178564
 30
0.0
 10
503.194616
 20
311.178564
 30
0.0
 10
503.194616
 20
319.682512
 30
0.0
 10
494.690672
 20
319.682512
 30
0.0
 10
494.690672
 20
328.186456
 30
0.0
 10
503.194616
 20
328.186456
 30
0.0
 10
503.194616
 20
336.690400
 30
0.0
 10
494.690672
 20
336.690400
 30
0.0
 10
494.690672
 20
345.194344
 30
0.0
 10
503.194616
 20
345.194344
 30
0.0
 10
503.194616
 20
353.698288
 30
0.0
 10
494.690672
 20
353.698288
 30
0.0
 10
494.690672
 20
362.202232
 30
0.0
 10
503.194616
 20
362.202232
 30
0.0
 10
503.194616
 20
370.706176
 30
0.0
 10
494.690672
 20
370.706176
 30
0.0
 10
494.690672
 20
381.336105
 30
0.0
 10
503.194616
 20
381.336105
 30
0.0
 10
503.194616
 20
383.462092
 30
0.0
 10
537.210392
 20
383.462092
 30
0.0
  0
LWPOLYLINE
  5
13b
100
AcDbEntity
  8
Layer_1
 62
7
100
AcDbPolyline
 90
61
 70
1
 10
464.283580
 20
289.722172
 30
0.0
 10
464.283580
 20
281.218228
 30
0.0
 10
472.787524
 20
281.218228
 30
0.0
 10
472.787524
 20
289.722172
 30
0.0
 10
481.291468
 20
289.722172
 30
0.0
 10
481.291468
 20
281.218228
 30
0.0
 10
489.795412
 20
281.218228
 30
0.0
 10
489.795412
 20
289.722172
 30
0.0
 10
498.299356
 20
289.722172
 30
0.0
 10
498.299356
 20
281.218228
 30
0.0
 10
506.803300
 20
281.218228
 30
0.0
 10
506.803300
 20
289.722172
 30
0.0
 10
515.307244
 20
289.722172
 30
0.0
 10
515.307244
 20
281.218228
 30
0.0
 10
523.811192
 20
281.218228
 30
0.0
 10
523.811192
 20
289.722172
 30
0.0
 10
534.441120
 20
289.722172
 30
0.0
 10
534.441120
 20
281.218228
 30
0.0
 10
536.567104
 20
281.218228
 30
0.0
 10
536.567104
 20
279.092242
 30
0.0
 10
545.071048
 20
279.092242
 30
0.0
 10
545.071048
 20
268.462312
 30
0.0
 10
536.567104
 20
268.462312
 30
0.0
 10
536.567104
 20
259.958368
 30
0.0
 10
545.071048
 20
259.958368
 30
0.0
 10
545.071048
 20
249.328438
 30
0.0
 10
536.567104
 20
249.328438
 30
0.0
 10
536.567104
 20
247.202452
 30
0.0
 10
534.441120
 20
247.202452
 30
0.0
 10
534.441120
 20
238.698508
 30
0.0
 10
523.811192
 20
238.698508
 30
0.0
 10
523.811192
 20
247.202452
 30
0.0
 10
515.307244
 20
247.202452
 30
0.0
 10
515.307244
 20
238.698508
 30
0.0
 10
506.803300
 20
238.698508
 30
0.0
 10
506.803300
 20
247.202452
 30
0.0
 10
498.299356
 20
247.202452
 30
0.0
 10
498.299356
 20
238.698508
 30
0.0
 10
489.795412
 20
238.698508
 30
0.0
 10
489.795412
 20
247.202452
 30
0.0
 10
481.291468
 20
247.202452
 30
0.0
 10
481.291468
 20
238.698508
 30
0.0
 10
472.787524
 20
238.698508
 30
0.0
 10
472.787524
 20
247.202452
 30
0.0
 10
464.283580
 20
247.202452
 30
0.0
 10
464.283580
 20
238.698508
 30
0.0
 10
453.653650
 20
238.698508
 30
0.0
 10
453.653650
 20
247.202452
 30
0.0
 10
451.527664
 20
247.202452
 30
0.0
 10
451.527664
 20
249.328438
 30
0.0
 10
443.023720
 20
249.328438
 30
0.0
 10
443.023720
 20
259.958368
 30
0.0
 10
451.527664
 20
259.958368
 30
0.0
 10
451.527664
 20
268.462312
 30
0.0
 10
443.023720
 20
268.462312
 30
0.0
 10
443.023720
 20
279.092242
 30
0.0
 10
451.527664
 20
279.092242
 30
0.0
 10
451.527664
 20
281.218228
 30
0.0
 10
453.653650
 20
281.218228
 30
0.0
 10
453.653650
 20
289.722172
 30
0.0
 10
464.283580
 20
289.722172
 30
0.0
  0
LWPOLYLINE
  5
13c
100
AcDbEntity
  8
Layer_1
 62
3
100
AcDbPolyline
 90
3
 70
0
 10
302.113405
 20
208.503351
 30
0.0
 10
308.247398
 20
208.503351
 30
0.0
 10
308.247398
 20
212.008490
 30
0.0
  0
LWPOLYLINE
  5
13d
100
AcDbEntity
  8
Layer_1
 62
3
100
AcDbPolyline
 90
17
 70
0
 10
305.910639
 20
213.176870
 30
0.0
 10
305.910639
 20
216.682009
 30
0.0
 10
305.326449
 20
216.682009
 30
0.0
 10
304.742259
 20
216.389914
 30
0.0
 10
304.450164
 20
216.097819
 30
0.0
 10
304.158069
 20
215.513630
 30
0.0
 10
304.158069
 20
214.637345
 30
0.0
 10
304.450164
 20
214.053155
 30
0.0
 10
305.034354
 20
213.468965
 30
0.0
 10
305.910639
 20
213.176870
 30
0.0
 10
306.494829
 20
213.176870
 30
0.0
 10
307.371114
 20
213.468965
 30
0.0
 10
307.955303
 20
214.053155
 30
0.0
 10
308.247398
 20
214.637345
 30
0.0
 10
308.247398
 20
215.513630
 30
0.0
 10
307.955303
 20
216.097819
 30
0.0
 10
307.371114
 20
216.682009
 30
0.0
  0
LWPOLYLINE
  5
13e
100
AcDbEntity
  8
Layer_1
 62
3
100
AcDbPolyline
 90
7
 70
0
 10
304.158069
 20
221.939718
 30
0.0
 10
308.831588
 20
221.939718
 30
0.0
 10
309.707873
 20
221.647623
 30
0.0
 10
309.999968
 20
221.355528
 30
0.0
 10
310.292063
 20
220.771338
 30
0.0
 10
310.292063
 20
219.895053
 30
0.0
 10
309.999968
 20
219.310863
 30
0.0
  0
LWPOLYLINE
  5
13f
100
AcDbEntity
  8
Layer_1
 62
3
100
AcDbPolyline
 90
14
 70
0
 10
305.034354
 20
221.939718
 30
0.0
 10
304.450164
 20
221.355528
 30
0.0
 10
304.158069
 20
220.771338
 30
0.0
 10
304.158069
 20
219.895053
 30
0.0
 10
304.450164
 20
219.310863
 30
0.0
 10
305.034354
 20
218.726674
 30
0.0
 10
305.910639
 20
218.434579
 30
0.0
 10
306.494829
 20
218.434579
 30
0.0
 10
307.371114
 20
218.726674
 30
0.0
 10
307.955303
 20
219.310863
 30
0.0
 10
308.247398
 20
219.895053
 30
0.0
 10
308.247398
 20
220.771338
 30
0.0
 10
307.955303
 20
221.355528
 30
0.0
 10
307.371114
 20
221.939718
 30
0.0
  0
LWPOLYLINE
  5
140
100
AcDbEntity
  8
Layer_1
 62
3
100
AcDbPolyline
 90
3
 70
0
 10
253.871173
 20
259.635207
 30
0.0
 10
260.005166
 20
259.635207
 30
0.0
 10
260.005166
 20
263.140346
 30
0.0
  0
LWPOLYLINE
  5
141
100
AcDbEntity
  8
Layer_1
 62
3
100
AcDbPolyline
 90
17
 70
0
 10
257.668407
 20
264.308726
 30
0.0
 10
257.668407
 20
267.813865
 30
0.0
 10
257.084217
 20
267.813865
 30
0.0
 10
256.500027
 20
267.521770
 30
0.0
 10
256.207932
 20
267.229675
 30
0.0
 10
255.915837
 20
266.645486
 30
0.0
 10
255.915837
 20
265.769201
 30
0.0
 10
256.207932
 20
265.185011
 30
0.0
 10
256.792122
 20
264.600821
 30
0.0
 10
257.668407
 20
264.308726
 30
0.0
 10
258.252597
 20
264.308726
 30
0.0
 10
259.128882
 20
264.600821
 30
0.0
 10
259.713071
 20
265.185011
 30
0.0
 10
260.005166
 20
265.769201
 30
0.0
 10
260.005166
 20
266.645486
 30
0.0
 10
259.713071
 20
267.229675
 30
0.0
 10
259.128882
 20
267.813865
 30
0.0
  0
LWPOLYLINE
  5
142
100
AcDbEntity
  8
Layer_1
 62
3
100
AcDbPolyline
 90
7
 70
0
 10
255.915837
 20
273.071574
 30
0.0
 10
260.589356
 20
273.071574
 30
0.0
 10
261.465641
 20
272.779479
 30
0.0
 10
261.757736
 20
272.487384
 30
0.0
 10
262.049831
 20
271.903194
 30
0.0
 10
262.049831
 20
271.026909
 30
0.0
 10
261.757736
 20
270.442719
 30
0.0
  0
LWPOLYLINE
  5
143
100
AcDbEntity
  8
Layer_1
 62
3
100
AcDbPolyline
 90
14
 70
0
 10
256.792122
 20
273.071574
 30
0.0
 10
256.207932
 20
272.487384
 30
0.0
 10
255.915837
 20
271.903194
 30
0.0
 10
255.915837
 20
271.026909
 30
0.0
 10
256.207932
 20
270.442719
 30
0.0
 10
256.792122
 20
269.858530
 30
0.0
 10
257.668407
 20
269.566435
 30
0.0
 10
258.252597
 20
269.566435
 30
0.0
 10
259.128882
 20
269.858530
 30
0.0
 10
259.713071
 20
270.442719
 30
0.0
 10
260.005166
 20
271.026909
 30
0.0
 10
260.005166
 20
271.903194
 30
0.0
 10
259.713071
 20
272.487384
 30
0.0
 10
259.128882
 20
273.071574
 30
0.0
  0
LWPOLYLINE
  5
144
100
AcDbEntity
  8
Layer_1
 62
3
100
AcDbPolyline
 90
3
 70
0
 10
256.939765
 20
330.826567
 30
0.0
 10
263.073758
 20
330.826567
 30
0.0
 10
263.073758
 20
334.331706
 30
0.0
  0
LWPOLYLINE
  5
145
100
AcDbEntity
  8
Layer_1
 62
3
100
AcDbPolyline
 90
17
 70
0
 10
260.736999
 20
335.500086
 30
0.0
 10
260.736999
 20
339.005225
 30
0.0
 10
260.152809
 20
339.005225
 30
0.0
 10
259.568619
 20
338.713130
 30
0.0
 10
259.276524
 20
338.421035
 30
0.0
 10
258.984429
 20
337.836846
 30
0.0
 10
258.984429
 20
336.960561
 30
0.0
 10
259.276524
 20
336.376371
 30
0.0
 10
259.860714
 20
335.792181
 30
0.0
 10
260.736999
 20
335.500086
 30
0.0
 10
261.321189
 20
335.500086
 30
0.0
 10
262.197474
 20
335.792181
 30
0.0
 10
262.781663
 20
336.376371
 30
0.0
 10
263.073758
 20
336.960561
 30
0.0
 10
263.073758
 20
337.836846
 30
0.0
 10
262.781663
 20
338.421035
 30
0.0
 10
262.197474
 20
339.005225
 30
0.0
  0
LWPOLYLINE
  5
146
100
AcDbEntity
  8
Layer_1
 62
3
100
AcDbPolyline
 90
7
 70
0
 10
258.984429
 20
344.262934
 30
0.0
 10
263.657948
 20
344.262934
 30
0.0
 10
264.534233
 20
343.970839
 30
0.0
 10
264.826328
 20
343.678744
 30
0.0
 10
265.118423
 20
343.094554
 30
0.0
 10
265.118423
 20
342.218269
 30
0.0
 10
264.826328
 20
341.634079
 30
0.0
  0
LWPOLYLINE
  5
147
100
AcDbEntity
  8
Layer_1
 62
3
100
AcDbPolyline
 90
14
 70
0
 10
259.860714
 20
344.262934
 30
0.0
 10
259.276524
 20
343.678744
 30
0.0
 10
258.984429
 20
343.094554
 30
0.0
 10
258.984429
 20
342.218269
 30
0.0
 10
259.276524
 20
341.634079
 30
0.0
 10
259.860714
 20
341.049890
 30
0.0
 10
260.736999
 20
340.757795
 30
0.0
 10
261.321189
 20
340.757795
 30
0.0
 10
262.197474
 20
341.049890
 30
0.0
 10
262.781663
 20
341.634079
 30
0.0
 10
263.073758
 20
342.218269
 30
0.0
 10
263.073758
 20
343.094554
 30
0.0
 10
262.781663
 20
343.678744
 30
0.0
 10
262.197474
 20
344.262934
 30
0.0
  0
LWPOLYLINE
  5
148
100
AcDbEntity
  8
Layer_1
 62
3
100
AcDbPolyline
 90
3
 70
0
 10
306.037261
 20
338.191191
 30
0.0
 10
312.171254
 20
338.191191
 30
0.0
 10
312.171254
 20
341.696330
 30
0.0
  0
LWPOLYLINE
  5
149
100
AcDbEntity
  8
Layer_1
 62
3
100
AcDbPolyline
 90
17
 70
0
 10
309.834495
 20
342.864710
 30
0.0
 10
309.834495
 20
346.369849
 30
0.0
 10
309.250305
 20
346.369849
 30
0.0
 10
308.666115
 20
346.077754
 30
0.0
 10
308.374020
 20
345.785659
 30
0.0
 10
308.081925
 20
345.201470
 30
0.0
 10
308.081925
 20
344.325185
 30
0.0
 10
308.374020
 20
343.740995
 30
0.0
 10
308.958210
 20
343.156805
 30
0.0
 10
309.834495
 20
342.864710
 30
0.0
 10
310.418685
 20
342.864710
 30
0.0
 10
311.294970
 20
343.156805
 30
0.0
 10
311.879159
 20
343.740995
 30
0.0
 10
312.171254
 20
344.325185
 30
0.0
 10
312.171254
 20
345.201470
 30
0.0
 10
311.879159
 20
345.785659
 30
0.0
 10
311.294970
 20
346.369849
 30
0.0
  0
LWPOLYLINE
  5
14a
100
AcDbEntity
  8
Layer_1
 62
3
100
AcDbPolyline
 90
7
 70
0
 10
308.081925
 20
351.627558
 30
0.0
 10
312.755444
 20
351.627558
 30
0.0
 10
313.631729
 20
351.335463
 30
0.0
 10
313.923824
 20
351.043368
 30
0.0
 10
314.215919
 20
350.459178
 30
0.0
 10
314.215919
 20
349.582893
 30
0.0
 10
313.923824
 20
348.998703
 30
0.0
  0
LWPOLYLINE
  5
14b
100
AcDbEntity
  8
Layer_1
 62
3
100
AcDbPolyline
 90
14
 70
0
 10
308.958210
 20
351.627558
 30
0.0
 10
308.374020
 20
351.043368
 30
0.0
 10
308.081925
 20
350.459178
 30
0.0
 10
308.081925
 20
349.582893
 30
0.0
 10
308.374020
 20
348.998703
 30
0.0
 10
308.958210
 20
348.414514
 30
0.0
 10
309.834495
 20
348.122419
 30
0.0
 10
310.418685
 20
348.122419
 30
0.0
 10
311.294970
 20
348.414514
 30
0.0
 10
311.879159
 20
348.998703
 30
0.0
 10
312.171254
 20
349.582893
 30
0.0
 10
312.171254
 20
350.459178
 30
0.0
 10
311.879159
 20
351.043368
 30
0.0
 10
311.294970
 20
351.627558
 30
0.0
  0
LWPOLYLINE
  5
14c
100
AcDbEntity
  8
Layer_1
 62
3
100
AcDbPolyline
 90
3
 70
0
 10
364.340533
 20
332.667719
 30
0.0
 10
370.474526
 20
332.667719
 30
0.0
 10
370.474526
 20
336.172858
 30
0.0
  0
LWPOLYLINE
  5
14d
100
AcDbEntity
  8
Layer_1
 62
3
100
AcDbPolyline
 90
17
 70
0
 10
368.137767
 20
337.341238
 30
0.0
 10
368.137767
 20
340.846377
 30
0.0
 10
367.553577
 20
340.846377
 30
0.0
 10
366.969387
 20
340.554282
 30
0.0
 10
366.677292
 20
340.262187
 30
0.0
 10
366.385197
 20
339.677998
 30
0.0
 10
366.385197
 20
338.801713
 30
0.0
 10
366.677292
 20
338.217523
 30
0.0
 10
367.261482
 20
337.633333
 30
0.0
 10
368.137767
 20
337.341238
 30
0.0
 10
368.721957
 20
337.341238
 30
0.0
 10
369.598242
 20
337.633333
 30
0.0
 10
370.182431
 20
338.217523
 30
0.0
 10
370.474526
 20
338.801713
 30
0.0
 10
370.474526
 20
339.677998
 30
0.0
 10
370.182431
 20
340.262187
 30
0.0
 10
369.598242
 20
340.846377
 30
0.0
  0
LWPOLYLINE
  5
14e
100
AcDbEntity
  8
Layer_1
 62
3
100
AcDbPolyline
 90
7
 70
0
 10
366.385197
 20
346.104086
 30
0.0
 10
371.058716
 20
346.104086
 30
0.0
 10
371.935001
 20
345.811991
 30
0.0
 10
372.227096
 20
345.519896
 30
0.0
 10
372.519191
 20
344.935706
 30
0.0
 10
372.519191
 20
344.059421
 30
0.0
 10
372.227096
 20
343.475231
 30
0.0
  0
LWPOLYLINE
  5
14f
100
AcDbEntity
  8
Layer_1
 62
3
100
AcDbPolyline
 90
14
 70
0
 10
367.261482
 20
346.104086
 30
0.0
 10
366.677292
 20
345.519896
 30
0.0
 10
366.385197
 20
344.935706
 30
0.0
 10
366.385197
 20
344.059421
 30
0.0
 10
366.677292
 20
343.475231
 30
0.0
 10
367.261482
 20
342.891042
 30
0.0
 10
368.137767
 20
342.598947
 30
0.0
 10
368.721957
 20
342.598947
 30
0.0
 10
369.598242
 20
342.891042
 30
0.0
 10
370.182431
 20
343.475231
 30
0.0
 10
370.474526
 20
344.059421
 30
0.0
 10
370.474526
 20
344.935706
 30
0.0
 10
370.182431
 20
345.519896
 30
0.0
 10
369.598242
 20
346.104086
 30
0.0
  0
LWPOLYLINE
  5
150
100
AcDbEntity
  8
Layer_1
 62
3
100
AcDbPolyline
 90
3
 70
0
 10
331.813445
 20
259.021487
 30
0.0
 10
337.947438
 20
259.021487
 30
0.0
 10
337.947438
 20
262.526626
 30
0.0
  0
LWPOLYLINE
  5
151
100
AcDbEntity
  8
Layer_1
 62
3
100
AcDbPolyline
 90
17
 70
0
 10
335.610679
 20
263.695006
 30
0.0
 10
335.610679
 20
267.200145
 30
0.0
 10
335.026489
 20
267.200145
 30
0.0
 10
334.442299
 20
266.908050
 30
0.0
 10
334.150204
 20
266.615955
 30
0.0
 10
333.858109
 20
266.031766
 30
0.0
 10
333.858109
 20
265.155481
 30
0.0
 10
334.150204
 20
264.571291
 30
0.0
 10
334.734394
 20
263.987101
 30
0.0
 10
335.610679
 20
263.695006
 30
0.0
 10
336.194869
 20
263.695006
 30
0.0
 10
337.071154
 20
263.987101
 30
0.0
 10
337.655343
 20
264.571291
 30
0.0
 10
337.947438
 20
265.155481
 30
0.0
 10
337.947438
 20
266.031766
 30
0.0
 10
337.655343
 20
266.615955
 30
0.0
 10
337.071154
 20
267.200145
 30
0.0
  0
LWPOLYLINE
  5
152
100
AcDbEntity
  8
Layer_1
 62
3
100
AcDbPolyline
 90
7
 70
0
 10
333.858109
 20
272.457854
 30
0.0
 10
338.531628
 20
272.457854
 30
0.0
 10
339.407913
 20
272.165759
 30
0.0
 10
339.700008
 20
271.873664
 30
0.0
 10
339.992103
 20
271.289474
 30
0.0
 10
339.992103
 20
270.413189
 30
0.0
 10
339.700008
 20
269.828999
 30
0.0
  0
LWPOLYLINE
  5
153
100
AcDbEntity
  8
Layer_1
 62
3
100
AcDbPolyline
 90
14
 70
0
 10
334.734394
 20
272.457854
 30
0.0
 10
334.150204
 20
271.873664
 30
0.0
 10
333.858109
 20
271.289474
 30
0.0
 10
333.858109
 20
270.413189
 30
0.0
 10
334.150204
 20
269.828999
 30
0.0
 10
334.734394
 20
269.244810
 30
0.0
 10
335.610679
 20
268.952715
 30
0.0
 10
336.194869
 20
268.952715
 30
0.0
 10
337.071154
 20
269.244810
 30
0.0
 10
337.655343
 20
269.828999
 30
0.0
 10
337.947438
 20
270.413189
 30
0.0
 10
337.947438
 20
271.289474
 30
0.0
 10
337.655343
 20
271.873664
 30
0.0
 10
337.071154
 20
272.457854
 30
0.0
  0
LWPOLYLINE
  5
154
100
AcDbEntity
  8
Layer_1
 62
3
100
AcDbPolyline
 90
3
 70
0
 10
458.194813
 20
205.328983
 30
0.0
 10
464.328806
 20
205.328983
 30
0.0
 10
464.328806
 20
208.834122
 30
0.0
  0
LWPOLYLINE
  5
155
100
AcDbEntity
  8
Layer_1
 62
3
100
AcDbPolyline
 90
17
 70
0
 10
461.992047
 20
210.002502
 30
0.0
 10
461.992047
 20
213.507641
 30
0.0
 10
461.407857
 20
213.507641
 30
0.0
 10
460.823667
 20
213.215546
 30
0.0
 10
460.531572
 20
212.923451
 30
0.0
 10
460.239477
 20
212.339262
 30
0.0
 10
460.239477
 20
211.462977
 30
0.0
 10
460.531572
 20
210.878787
 30
0.0
 10
461.115762
 20
210.294597
 30
0.0
 10
461.992047
 20
210.002502
 30
0.0
 10
462.576237
 20
210.002502
 30
0.0
 10
463.452522
 20
210.294597
 30
0.0
 10
464.036711
 20
210.878787
 30
0.0
 10
464.328806
 20
211.462977
 30
0.0
 10
464.328806
 20
212.339262
 30
0.0
 10
464.036711
 20
212.923451
 30
0.0
 10
463.452522
 20
213.507641
 30
0.0
  0
LWPOLYLINE
  5
156
100
AcDbEntity
  8
Layer_1
 62
3
100
AcDbPolyline
 90
7
 70
0
 10
460.239477
 20
218.765350
 30
0.0
 10
464.912996
 20
218.765350
 30
0.0
 10
465.789281
 20
218.473255
 30
0.0
 10
466.081376
 20
218.181160
 30
0.0
 10
466.373471
 20
217.596970
 30
0.0
 10
466.373471
 20
216.720685
 30
0.0
 10
466.081376
 20
216.136495
 30
0.0
  0
LWPOLYLINE
  5
157
100
AcDbEntity
  8
Layer_1
 62
3
100
AcDbPolyline
 90
14
 70
0
 10
461.115762
 20
218.765350
 30
0.0
 10
460.531572
 20
218.181160
 30
0.0
 10
460.239477
 20
217.596970
 30
0.0
 10
460.239477
 20
216.720685
 30
0.0
 10
460.531572
 20
216.136495
 30
0.0
 10
461.115762
 20
215.552306
 30
0.0
 10
461.992047
 20
215.260211
 30
0.0
 10
462.576237
 20
215.260211
 30
0.0
 10
463.452522
 20
215.552306
 30
0.0
 10
464.036711
 20
216.136495
 30
0.0
 10
464.328806
 20
216.720685
 30
0.0
 10
464.328806
 20
217.596970
 30
0.0
 10
464.036711
 20
218.181160
 30
0.0
 10
463.452522
 20
218.765350
 30
0.0
  0
LWPOLYLINE
  5
158
100
AcDbEntity
  8
Layer_1
 62
3
100
AcDbPolyline
 90
3
 70
0
 10
411.754997
 20
256.566615
 30
0.0
 10
417.888990
 20
256.566615
 30
0.0
 10
417.888990
 20
260.071754
 30
0.0
  0
LWPOLYLINE
  5
159
100
AcDbEntity
  8
Layer_1
 62
3
100
AcDbPolyline
 90
17
 70
0
 10
415.552231
 20
261.240134
 30
0.0
 10
415.552231
 20
264.745273
 30
0.0
 10
414.968041
 20
264.745273
 30
0.0
 10
414.383851
 20
264.453178
 30
0.0
 10
414.091756
 20
264.161083
 30
0.0
 10
413.799661
 20
263.576894
 30
0.0
 10
413.799661
 20
262.700609
 30
0.0
 10
414.091756
 20
262.116419
 30
0.0
 10
414.675946
 20
261.532229
 30
0.0
 10
415.552231
 20
261.240134
 30
0.0
 10
416.136421
 20
261.240134
 30
0.0
 10
417.012706
 20
261.532229
 30
0.0
 10
417.596895
 20
262.116419
 30
0.0
 10
417.888990
 20
262.700609
 30
0.0
 10
417.888990
 20
263.576894
 30
0.0
 10
417.596895
 20
264.161083
 30
0.0
 10
417.012706
 20
264.745273
 30
0.0
  0
LWPOLYLINE
  5
15a
100
AcDbEntity
  8
Layer_1
 62
3
100
AcDbPolyline
 90
7
 70
0
 10
413.799661
 20
270.002982
 30
0.0
 10
418.473180
 20
270.002982
 30
0.0
 10
419.349465
 20
269.710887
 30
0.0
 10
419.641560
 20
269.418792
 30
0.0
 10
419.933655
 20
268.834602
 30
0.0
 10
419.933655
 20
267.958317
 30
0.0
 10
419.641560
 20
267.374127
 30
0.0
  0
LWPOLYLINE
  5
15b
100
AcDbEntity
  8
Layer_1
 62
3
100
AcDbPolyline
 90
14
 70
0
 10
414.675946
 20
270.002982
 30
0.0
 10
414.091756
 20
269.418792
 30
0.0
 10
413.799661
 20
268.834602
 30
0.0
 10
413.799661
 20
267.958317
 30
0.0
 10
414.091756
 20
267.374127
 30
0.0
 10
414.675946
 20
266.789938
 30
0.0
 10
415.552231
 20
266.497843
 30
0.0
 10
416.136421
 20
266.497843
 30
0.0
 10
417.012706
 20
266.789938
 30
0.0
 10
417.596895
 20
267.374127
 30
0.0
 10
417.888990
 20
267.958317
 30
0.0
 10
417.888990
 20
268.834602
 30
0.0
 10
417.596895
 20
269.418792
 30
0.0
 10
417.012706
 20
270.002982
 30
0.0
  0
LWPOLYLINE
  5
15c
100
AcDbEntity
  8
Layer_1
 62
3
100
AcDbPolyline
 90
3
 70
0
 10
412.368717
 20
330.826567
 30
0.0
 10
418.502710
 20
330.826567
 30
0.0
 10
418.502710
 20
334.331706
 30
0.0
  0
LWPOLYLINE
  5
15d
100
AcDbEntity
  8
Layer_1
 62
3
100
AcDbPolyline
 90
17
 70
0
 10
416.165951
 20
335.500086
 30
0.0
 10
416.165951
 20
339.005225
 30
0.0
 10
415.581761
 20
339.005225
 30
0.0
 10
414.997571
 20
338.713130
 30
0.0
 10
414.705476
 20
338.421035
 30
0.0
 10
414.413381
 20
337.836846
 30
0.0
 10
414.413381
 20
336.960561
 30
0.0
 10
414.705476
 20
336.376371
 30
0.0
 10
415.289666
 20
335.792181
 30
0.0
 10
416.165951
 20
335.500086
 30
0.0
 10
416.750141
 20
335.500086
 30
0.0
 10
417.626426
 20
335.792181
 30
0.0
 10
418.210615
 20
336.376371
 30
0.0
 10
418.502710
 20
336.960561
 30
0.0
 10
418.502710
 20
337.836846
 30
0.0
 10
418.210615
 20
338.421035
 30
0.0
 10
417.626426
 20
339.005225
 30
0.0
  0
LWPOLYLINE
  5
15e
100
AcDbEntity
  8
Layer_1
 62
3
100
AcDbPolyline
 90
7
 70
0
 10
414.413381
 20
344.262934
 30
0.0
 10
419.086900
 20
344.262934
 30
0.0
 10
419.963185
 20
343.970839
 30
0.0
 10
420.255280
 20
343.678744
 30
0.0
 10
420.547375
 20
343.094554
 30
0.0
 10
420.547375
 20
342.218269
 30
0.0
 10
420.255280
 20
341.634079
 30
0.0
  0
LWPOLYLINE
  5
15f
100
AcDbEntity
  8
Layer_1
 62
3
100
AcDbPolyline
 90
14
 70
0
 10
415.289666
 20
344.262934
 30
0.0
 10
414.705476
 20
343.678744
 30
0.0
 10
414.413381
 20
343.094554
 30
0.0
 10
414.413381
 20
342.218269
 30
0.0
 10
414.705476
 20
341.634079
 30
0.0
 10
415.289666
 20
341.049890
 30
0.0
 10
416.165951
 20
340.757795
 30
0.0
 10
416.750141
 20
340.757795
 30
0.0
 10
417.626426
 20
341.049890
 30
0.0
 10
418.210615
 20
341.634079
 30
0.0
 10
418.502710
 20
342.218269
 30
0.0
 10
418.502710
 20
343.094554
 30
0.0
 10
418.210615
 20
343.678744
 30
0.0
 10
417.626426
 20
344.262934
 30
0.0
  0
LWPOLYLINE
  5
160
100
AcDbEntity
  8
Layer_1
 62
3
100
AcDbPolyline
 90
3
 70
0
 10
462.693645
 20
326.530535
 30
0.0
 10
468.827638
 20
326.530535
 30
0.0
 10
468.827638
 20
330.035674
 30
0.0
  0
LWPOLYLINE
  5
161
100
AcDbEntity
  8
Layer_1
 62
3
100
AcDbPolyline
 90
17
 70
0
 10
466.490879
 20
331.204054
 30
0.0
 10
466.490879
 20
334.709193
 30
0.0
 10
465.906689
 20
334.709193
 30
0.0
 10
465.322499
 20
334.417098
 30
0.0
 10
465.030404
 20
334.125003
 30
0.0
 10
464.738309
 20
333.540814
 30
0.0
 10
464.738309
 20
332.664529
 30
0.0
 10
465.030404
 20
332.080339
 30
0.0
 10
465.614594
 20
331.496149
 30
0.0
 10
466.490879
 20
331.204054
 30
0.0
 10
467.075069
 20
331.204054
 30
0.0
 10
467.951354
 20
331.496149
 30
0.0
 10
468.535543
 20
332.080339
 30
0.0
 10
468.827638
 20
332.664529
 30
0.0
 10
468.827638
 20
333.540814
 30
0.0
 10
468.535543
 20
334.125003
 30
0.0
 10
467.951354
 20
334.709193
 30
0.0
  0
LWPOLYLINE
  5
162
100
AcDbEntity
  8
Layer_1
 62
3
100
AcDbPolyline
 90
7
 70
0
 10
464.738309
 20
339.966902
 30
0.0
 10
469.411828
 20
339.966902
 30
0.0
 10
470.288113
 20
339.674807
 30
0.0
 10
470.580208
 20
339.382712
 30
0.0
 10
470.872303
 20
338.798522
 30
0.0
 10
470.872303
 20
337.922237
 30
0.0
 10
470.580208
 20
337.338047
 30
0.0
  0
LWPOLYLINE
  5
163
100
AcDbEntity
  8
Layer_1
 62
3
100
AcDbPolyline
 90
14
 70
0
 10
465.614594
 20
339.966902
 30
0.0
 10
465.030404
 20
339.382712
 30
0.0
 10
464.738309
 20
338.798522
 30
0.0
 10
464.738309
 20
337.922237
 30
0.0
 10
465.030404
 20
337.338047
 30
0.0
 10
465.614594
 20
336.753858
 30
0.0
 10
466.490879
 20
336.461763
 30
0.0
 10
467.075069
 20
336.461763
 30
0.0
 10
467.951354
 20
336.753858
 30
0.0
 10
468.535543
 20
337.338047
 30
0.0
 10
468.827638
 20
337.922237
 30
0.0
 10
468.827638
 20
338.798522
 30
0.0
 10
468.535543
 20
339.382712
 30
0.0
 10
467.951354
 20
339.966902
 30
0.0
  0
LWPOLYLINE
  5
164
100
AcDbEntity
  8
Layer_1
 62
3
100
AcDbPolyline
 90
3
 70
0
 10
486.014957
 20
257.794047
 30
0.0
 10
492.148950
 20
257.794047
 30
0.0
 10
492.148950
 20
261.299186
 30
0.0
  0
LWPOLYLINE
  5
165
100
AcDbEntity
  8
Layer_1
 62
3
100
AcDbPolyline
 90
17
 70
0
 10
489.812191
 20
262.467566
 30
0.0
 10
489.812191
 20
265.972705
 30
0.0
 10
489.228001
 20
265.972705
 30
0.0
 10
488.643811
 20
265.680610
 30
0.0
 10
488.351716
 20
265.388515
 30
0.0
 10
488.059621
 20
264.804326
 30
0.0
 10
488.059621
 20
263.928041
 30
0.0
 10
488.351716
 20
263.343851
 30
0.0
 10
488.935906
 20
262.759661
 30
0.0
 10
489.812191
 20
262.467566
 30
0.0
 10
490.396381
 20
262.467566
 30
0.0
 10
491.272666
 20
262.759661
 30
0.0
 10
491.856855
 20
263.343851
 30
0.0
 10
492.148950
 20
263.928041
 30
0.0
 10
492.148950
 20
264.804326
 30
0.0
 10
491.856855
 20
265.388515
 30
0.0
 10
491.272666
 20
265.972705
 30
0.0
  0
LWPOLYLINE
  5
166
100
AcDbEntity
  8
Layer_1
 62
3
100
AcDbPolyline
 90
7
 70
0
 10
488.059621
 20
271.230414
 30
0.0
 10
492.733140
 20
271.230414
 30
0.0
 10
493.609425
 20
270.938319
 30
0.0
 10
493.901520
 20
270.646224
 30
0.0
 10
494.193615
 20
270.062034
 30
0.0
 10
494.193615
 20
269.185749
 30
0.0
 10
493.901520
 20
268.601559
 30
0.0
  0
LWPOLYLINE
  5
167
100
AcDbEntity
  8
Layer_1
 62
3
100
AcDbPolyline
 90
14
 70
0
 10
488.935906
 20
271.230414
 30
0.0
 10
488.351716
 20
270.646224
 30
0.0
 10
488.059621
 20
270.062034
 30
0.0
 10
488.059621
 20
269.185749
 30
0.0
 10
488.351716
 20
268.601559
 30
0.0
 10
488.935906
 20
268.017370
 30
0.0
 10
489.812191
 20
267.725275
 30
0.0
 10
490.396381
 20
267.725275
 30
0.0
 10
491.272666
 20
268.017370
 30
0.0
 10
491.856855
 20
268.601559
 30
0.0
 10
492.148950
 20
269.185749
 30
0.0
 10
492.148950
 20
270.062034
 30
0.0
 10
491.856855
 20
270.646224
 30
0.0
 10
491.272666
 20
271.230414
 30
0.0
  0
LWPOLYLINE
  5
168
100
AcDbEntity
  8
Layer_1
 62
3
100
AcDbPolyline
 90
3
 70
0
 10
514.859733
 20
329.599127
 30
0.0
 10
520.993726
 20
329.599127
 30
0.0
 10
520.993726
 20
333.104266
 30
0.0
  0
LWPOLYLINE
  5
169
100
AcDbEntity
  8
Layer_1
 62
3
100
AcDbPolyline
 90
17
 70
0
 10
518.656967
 20
334.272646
 30
0.0
 10
518.656967
 20
337.777785
 30
0.0
 10
518.072777
 20
337.777785
 30
0.0
 10
517.488587
 20
337.485690
 30
0.0
 10
517.196492
 20
337.193595
 30
0.0
 10
516.904397
 20
336.609406
 30
0.0
 10
516.904397
 20
335.733121
 30
0.0
 10
517.196492
 20
335.148931
 30
0.0
 10
517.780682
 20
334.564741
 30
0.0
 10
518.656967
 20
334.272646
 30
0.0
 10
519.241157
 20
334.272646
 30
0.0
 10
520.117442
 20
334.564741
 30
0.0
 10
520.701631
 20
335.148931
 30
0.0
 10
520.993726
 20
335.733121
 30
0.0
 10
520.993726
 20
336.609406
 30
0.0
 10
520.701631
 20
337.193595
 30
0.0
 10
520.117442
 20
337.777785
 30
0.0
  0
LWPOLYLINE
  5
16a
100
AcDbEntity
  8
Layer_1
 62
3
100
AcDbPolyline
 90
7
 70
0
 10
516.904397
 20
343.035494
 30
0.0
 10
521.577916
 20
343.035494
 30
0.0
 10
522.454201
 20
342.743399
 30
0.0
 10
522.746296
 20
342.451304
 30
0.0
 10
523.038391
 20
341.867114
 30
0.0
 10
523.038391
 20
340.990829
 30
0.0
 10
522.746296
 20
340.406639
 30
0.0
  0
LWPOLYLINE
  5
16b
100
AcDbEntity
  8
Layer_1
 62
3
100
AcDbPolyline
 90
14
 70
0
 10
517.780682
 20
343.035494
 30
0.0
 10
517.196492
 20
342.451304
 30
0.0
 10
516.904397
 20
341.867114
 30
0.0
 10
516.904397
 20
340.990829
 30
0.0
 10
517.196492
 20
340.406639
 30
0.0
 10
517.780682
 20
339.822450
 30
0.0
 10
518.656967
 20
339.530355
 30
0.0
 10
519.241157
 20
339.530355
 30
0.0
 10
520.117442
 20
339.822450
 30
0.0
 10
520.701631
 20
340.406639
 30
0.0
 10
520.993726
 20
340.990829
 30
0.0
 10
520.993726
 20
341.867114
 30
0.0
 10
520.701631
 20
342.451304
 30
0.0
 10
520.117442
 20
343.035494
 30
0.0
  0
LWPOLYLINE
  5
16c
100
AcDbEntity
  8
Layer_1
 62
7
100
AcDbPolyline
 90
37
 70
1
 10
56.343240
 20
430.601188
 30
0.0
 10
66.973176
 20
430.601188
 30
0.0
 10
66.973176
 20
439.105132
 30
0.0
 10
77.603104
 20
439.105132
 30
0.0
 10
77.603104
 20
428.475204
 30
0.0
 10
69.099160
 20
428.475204
 30
0.0
 10
69.099160
 20
417.845268
 30
0.0
 10
77.603104
 20
417.845268
 30
0.0
 10
77.603104
 20
409.341332
 30
0.0
 10
69.099160
 20
409.341332
 30
0.0
 10
69.099160
 20
398.711396
 30
0.0
 10
77.603104
 20
398.711396
 30
0.0
 10
77.603104
 20
388.081468
 30
0.0
 10
66.973176
 20
388.081468
 30
0.0
 10
66.973176
 20
396.585412
 30
0.0
 10
56.343240
 20
396.585412
 30
0.0
 10
56.343240
 20
388.081468
 30
0.0
 10
47.839304
 20
388.081468
 30
0.0
 10
47.839304
 20
396.585412
 30
0.0
 10
37.209368
 20
396.585412
 30
0.0
 10
37.209368
 20
388.081468
 30
0.0
 10
26.579440
 20
388.081468
 30
0.0
 10
26.579440
 20
398.711396
 30
0.0
 10
35.083384
 20
398.711396
 30
0.0
 10
35.083384
 20
409.341332
 30
0.0
 10
26.579440
 20
409.341332
 30
0.0
 10
26.579440
 20
417.845268
 30
0.0
 10
35.083384
 20
417.845268
 30
0.0
 10
35.083384
 20
428.475204
 30
0.0
 10
26.579440
 20
428.475204
 30
0.0
 10
26.579440
 20
439.105132
 30
0.0
 10
37.209368
 20
439.105132
 30
0.0
 10
37.209368
 20
430.601188
 30
0.0
 10
47.839304
 20
430.601188
 30
0.0
 10
47.839304
 20
439.105132
 30
0.0
 10
56.343240
 20
439.105132
 30
0.0
 10
56.343240
 20
430.601188
 30
0.0
  0
LWPOLYLINE
  5
16d
100
AcDbEntity
  8
Layer_1
 62
7
100
AcDbPolyline
 90
37
 70
1
 10
107.366872
 20
430.601188
 30
0.0
 10
117.996800
 20
430.601188
 30
0.0
 10
117.996800
 20
439.105132
 30
0.0
 10
128.626728
 20
439.105132
 30
0.0
 10
128.626728
 20
428.475204
 30
0.0
 10
120.122784
 20
428.475204
 30
0.0
 10
120.122784
 20
417.845268
 30
0.0
 10
128.626728
 20
417.845268
 30
0.0
 10
128.626728
 20
409.341332
 30
0.0
 10
120.122784
 20
409.341332
 30
0.0
 10
120.122784
 20
398.711396
 30
0.0
 10
128.626728
 20
398.711396
 30
0.0
 10
128.626728
 20
388.081468
 30
0.0
 10
117.996800
 20
388.081468
 30
0.0
 10
117.996800
 20
396.585412
 30
0.0
 10
107.366872
 20
396.585412
 30
0.0
 10
107.366872
 20
388.081468
 30
0.0
 10
98.862928
 20
388.081468
 30
0.0
 10
98.862928
 20
396.585412
 30
0.0
 10
88.232992
 20
396.585412
 30
0.0
 10
88.232992
 20
388.081468
 30
0.0
 10
77.603064
 20
388.081468
 30
0.0
 10
77.603064
 20
398.711396
 30
0.0
 10
86.107008
 20
398.711396
 30
0.0
 10
86.107008
 20
409.341332
 30
0.0
 10
77.603064
 20
409.341332
 30
0.0
 10
77.603064
 20
417.845268
 30
0.0
 10
86.107008
 20
417.845268
 30
0.0
 10
86.107008
 20
428.475204
 30
0.0
 10
77.603064
 20
428.475204
 30
0.0
 10
77.603064
 20
439.105132
 30
0.0
 10
88.232992
 20
439.105132
 30
0.0
 10
88.232992
 20
430.601188
 30
0.0
 10
98.862928
 20
430.601188
 30
0.0
 10
98.862928
 20
439.105132
 30
0.0
 10
107.366872
 20
439.105132
 30
0.0
 10
107.366872
 20
430.601188
 30
0.0
  0
LWPOLYLINE
  5
16e
100
AcDbEntity
  8
Layer_1
 62
7
100
AcDbPolyline
 90
53
 70
1
 10
162.642464
 20
430.601188
 30
0.0
 10
171.146408
 20
430.601188
 30
0.0
 10
171.146408
 20
439.105132
 30
0.0
 10
179.650352
 20
439.105132
 30
0.0
 10
179.650352
 20
430.601188
 30
0.0
 10
188.154296
 20
430.601188
 30
0.0
 10
188.154296
 20
439.105132
 30
0.0
 10
196.658240
 20
439.105132
 30
0.0
 10
196.658240
 20
430.601188
 30
0.0
 10
209.414152
 20
430.601188
 30
0.0
 10
209.414152
 20
439.105132
 30
0.0
 10
213.666128
 20
439.105132
 30
0.0
 10
213.666128
 20
428.475204
 30
0.0
 10
222.170072
 20
428.475204
 30
0.0
 10
222.170072
 20
417.845268
 30
0.0
 10
213.666128
 20
417.845268
 30
0.0
 10
213.666128
 20
409.341332
 30
0.0
 10
222.170072
 20
409.341332
 30
0.0
 10
222.170072
 20
398.711396
 30
0.0
 10
213.666128
 20
398.711396
 30
0.0
 10
213.666128
 20
388.081468
 30
0.0
 10
209.414152
 20
388.081468
 30
0.0
 10
209.414152
 20
396.585412
 30
0.0
 10
196.658240
 20
396.585412
 30
0.0
 10
196.658240
 20
388.081468
 30
0.0
 10
188.154296
 20
388.081468
 30
0.0
 10
188.154296
 20
396.585412
 30
0.0
 10
179.650352
 20
396.585412
 30
0.0
 10
179.650352
 20
388.081468
 30
0.0
 10
171.146408
 20
388.081468
 30
0.0
 10
171.146408
 20
396.585412
 30
0.0
 10
162.642464
 20
396.585412
 30
0.0
 10
162.642464
 20
388.081468
 30
0.0
 10
154.138520
 20
388.081468
 30
0.0
 10
154.138520
 20
396.585412
 30
0.0
 10
141.382608
 20
396.585412
 30
0.0
 10
141.382608
 20
388.081468
 30
0.0
 10
137.130632
 20
388.081468
 30
0.0
 10
137.130632
 20
398.711396
 30
0.0
 10
128.626688
 20
398.711396
 30
0.0
 10
128.626688
 20
409.341332
 30
0.0
 10
137.130632
 20
409.341332
 30
0.0
 10
137.130632
 20
417.845268
 30
0.0
 10
128.626688
 20
417.845268
 30
0.0
 10
128.626688
 20
428.475204
 30
0.0
 10
137.130632
 20
428.475204
 30
0.0
 10
137.130632
 20
439.105132
 30
0.0
 10
141.382608
 20
439.105132
 30
0.0
 10
141.382608
 20
430.601188
 30
0.0
 10
154.138520
 20
430.601188
 30
0.0
 10
154.138520
 20
439.105132
 30
0.0
 10
162.642464
 20
439.105132
 30
0.0
 10
162.642464
 20
430.601188
 30
0.0
  0
LWPOLYLINE
  5
16f
100
AcDbEntity
  8
Layer_1
 62
7
100
AcDbPolyline
 90
53
 70
1
 10
162.642464
 20
379.577564
 30
0.0
 10
171.146408
 20
379.577564
 30
0.0
 10
171.146408
 20
388.081508
 30
0.0
 10
179.650352
 20
388.081508
 30
0.0
 10
179.650352
 20
379.577564
 30
0.0
 10
188.154296
 20
379.577564
 30
0.0
 10
188.154296
 20
388.081508
 30
0.0
 10
196.658240
 20
388.081508
 30
0.0
 10
196.658240
 20
379.577564
 30
0.0
 10
209.414152
 20
379.577564
 30
0.0
 10
209.414152
 20
388.081508
 30
0.0
 10
213.666128
 20
388.081508
 30
0.0
 10
213.666128
 20
377.451572
 30
0.0
 10
222.170072
 20
377.451572
 30
0.0
 10
222.170072
 20
366.821644
 30
0.0
 10
213.666128
 20
366.821644
 30
0.0
 10
213.666128
 20
358.317700
 30
0.0
 10
222.170072
 20
358.317700
 30
0.0
 10
222.170072
 20
347.687772
 30
0.0
 10
213.666128
 20
347.687772
 30
0.0
 10
213.666128
 20
337.057844
 30
0.0
 10
209.414152
 20
337.057844
 30
0.0
 10
209.414152
 20
345.561788
 30
0.0
 10
196.658240
 20
345.561788
 30
0.0
 10
196.658240
 20
337.057844
 30
0.0
 10
188.154296
 20
337.057844
 30
0.0
 10
188.154296
 20
345.561788
 30
0.0
 10
179.650352
 20
345.561788
 30
0.0
 10
179.650352
 20
337.057844
 30
0.0
 10
171.146408
 20
337.057844
 30
0.0
 10
171.146408
 20
345.561788
 30
0.0
 10
162.642464
 20
345.561788
 30
0.0
 10
162.642464
 20
337.057844
 30
0.0
 10
154.138520
 20
337.057844
 30
0.0
 10
154.138520
 20
345.561788
 30
0.0
 10
141.382608
 20
345.561788
 30
0.0
 10
141.382608
 20
337.057844
 30
0.0
 10
137.130632
 20
337.057844
 30
0.0
 10
137.130632
 20
347.687772
 30
0.0
 10
128.626688
 20
347.687772
 30
0.0
 10
128.626688
 20
358.317700
 30
0.0
 10
137.130632
 20
358.317700
 30
0.0
 10
137.130632
 20
366.821644
 30
0.0
 10
128.626688
 20
366.821644
 30
0.0
 10
128.626688
 20
377.451572
 30
0.0
 10
137.130632
 20
377.451572
 30
0.0
 10
137.130632
 20
388.081508
 30
0.0
 10
141.382608
 20
388.081508
 30
0.0
 10
141.382608
 20
379.577564
 30
0.0
 10
154.138520
 20
379.577564
 30
0.0
 10
154.138520
 20
388.081508
 30
0.0
 10
162.642464
 20
388.081508
 30
0.0
 10
162.642464
 20
379.577564
 30
0.0
  0
LWPOLYLINE
  5
170
100
AcDbEntity
  8
Layer_1
 62
7
100
AcDbPolyline
 90
53
 70
1
 10
56.343240
 20
388.081508
 30
0.0
 10
66.973176
 20
388.081508
 30
0.0
 10
66.973176
 20
379.577564
 30
0.0
 10
69.099160
 20
379.577564
 30
0.0
 10
69.099160
 20
375.325588
 30
0.0
 10
77.603104
 20
375.325588
 30
0.0
 10
77.603104
 20
362.569676
 30
0.0
 10
69.099160
 20
362.569676
 30
0.0
 10
69.099160
 20
354.065732
 30
0.0
 10
77.603104
 20
354.065732
 30
0.0
 10
77.603104
 20
345.561788
 30
0.0
 10
69.099160
 20
345.561788
 30
0.0
 10
69.099160
 20
337.057844
 30
0.0
 10
77.603104
 20
337.057844
 30
0.0
 10
77.603104
 20
328.553900
 30
0.0
 10
69.099160
 20
328.553900
 30
0.0
 10
69.099160
 20
320.049956
 30
0.0
 10
77.603104
 20
320.049956
 30
0.0
 10
77.603104
 20
307.294044
 30
0.0
 10
69.099160
 20
307.294044
 30
0.0
 10
69.099160
 20
303.042068
 30
0.0
 10
66.973176
 20
303.042068
 30
0.0
 10
66.973176
 20
294.538124
 30
0.0
 10
56.343240
 20
294.538124
 30
0.0
 10
56.343240
 20
303.042068
 30
0.0
 10
47.839304
 20
303.042068
 30
0.0
 10
47.839304
 20
294.538124
 30
0.0
 10
37.209368
 20
294.538124
 30
0.0
 10
37.209368
 20
303.042068
 30
0.0
 10
35.083384
 20
303.042068
 30
0.0
 10
35.083384
 20
307.294044
 30
0.0
 10
26.579440
 20
307.294044
 30
0.0
 10
26.579440
 20
320.049956
 30
0.0
 10
35.083384
 20
320.049956
 30
0.0
 10
35.083384
 20
328.553900
 30
0.0
 10
26.579440
 20
328.553900
 30
0.0
 10
26.579440
 20
337.057844
 30
0.0
 10
35.083384
 20
337.057844
 30
0.0
 10
35.083384
 20
345.561788
 30
0.0
 10
26.579440
 20
345.561788
 30
0.0
 10
26.579440
 20
354.065732
 30
0.0
 10
35.083384
 20
354.065732
 30
0.0
 10
35.083384
 20
362.569676
 30
0.0
 10
26.579440
 20
362.569676
 30
0.0
 10
26.579440
 20
375.325588
 30
0.0
 10
35.083384
 20
375.325588
 30
0.0
 10
35.083384
 20
379.577564
 30
0.0
 10
37.209368
 20
379.577564
 30
0.0
 10
37.209368
 20
388.081508
 30
0.0
 10
47.839304
 20
388.081508
 30
0.0
 10
47.839304
 20
379.577564
 30
0.0
 10
56.343240
 20
379.577564
 30
0.0
 10
56.343240
 20
388.081508
 30
0.0
  0
LWPOLYLINE
  5
171
100
AcDbEntity
  8
Layer_1
 62
3
100
AcDbPolyline
 90
2
 70
0
 10
45.159776
 20
417.282596
 30
0.0
 10
42.685656
 20
410.788036
 30
0.0
  0
LWPOLYLINE
  5
172
100
AcDbEntity
  8
Layer_1
 62
3
100
AcDbPolyline
 90
2
 70
0
 10
45.159776
 20
417.282596
 30
0.0
 10
47.633896
 20
410.788036
 30
0.0
  0
LWPOLYLINE
  5
173
100
AcDbEntity
  8
Layer_1
 62
3
100
AcDbPolyline
 90
2
 70
0
 10
43.613456
 20
412.952892
 30
0.0
 10
46.706096
 20
412.952892
 30
0.0
  0
LWPOLYLINE
  5
174
100
AcDbEntity
  8
Layer_1
 62
3
100
AcDbPolyline
 90
2
 70
0
 10
49.180216
 20
415.117740
 30
0.0
 10
49.180216
 20
410.788036
 30
0.0
  0
LWPOLYLINE
  5
175
100
AcDbEntity
  8
Layer_1
 62
3
100
AcDbPolyline
 90
5
 70
0
 10
49.180216
 20
413.262156
 30
0.0
 10
49.489480
 20
414.189948
 30
0.0
 10
50.108008
 20
414.808476
 30
0.0
 10
50.726536
 20
415.117740
 30
0.0
 10
51.654328
 20
415.117740
 30
0.0
  0
LWPOLYLINE
  5
176
100
AcDbEntity
  8
Layer_1
 62
3
100
AcDbPolyline
 90
2
 70
0
 10
53.200656
 20
415.117740
 30
0.0
 10
53.200656
 20
410.788036
 30
0.0
  0
LWPOLYLINE
  5
177
100
AcDbEntity
  8
Layer_1
 62
3
100
AcDbPolyline
 90
7
 70
0
 10
53.200656
 20
413.880684
 30
0.0
 10
54.128448
 20
414.808476
 30
0.0
 10
54.746984
 20
415.117740
 30
0.0
 10
55.674776
 20
415.117740
 30
0.0
 10
56.293304
 20
414.808476
 30
0.0
 10
56.602568
 20
413.880684
 30
0.0
 10
56.602568
 20
410.788036
 30
0.0
  0
LWPOLYLINE
  5
178
100
AcDbEntity
  8
Layer_1
 62
3
100
AcDbPolyline
 90
7
 70
0
 10
56.602568
 20
413.880684
 30
0.0
 10
57.530360
 20
414.808476
 30
0.0
 10
58.148888
 20
415.117740
 30
0.0
 10
59.076688
 20
415.117740
 30
0.0
 10
59.695216
 20
414.808476
 30
0.0
 10
60.004480
 20
413.880684
 30
0.0
 10
60.004480
 20
410.788036
 30
0.0
  0
LWPOLYLINE
  5
179
100
AcDbEntity
  8
Layer_1
 62
3
100
AcDbPolyline
 90
2
 70
0
 10
97.453760
 20
417.619980
 30
0.0
 10
94.979640
 20
411.125420
 30
0.0
  0
LWPOLYLINE
  5
17a
100
AcDbEntity
  8
Layer_1
 62
3
100
AcDbPolyline
 90
2
 70
0
 10
97.453760
 20
417.619980
 30
0.0
 10
99.927880
 20
411.125420
 30
0.0
  0
LWPOLYLINE
  5
17b
100
AcDbEntity
  8
Layer_1
 62
3
100
AcDbPolyline
 90
2
 70
0
 10
95.907440
 20
413.290276
 30
0.0
 10
99.000080
 20
413.290276
 30
0.0
  0
LWPOLYLINE
  5
17c
100
AcDbEntity
  8
Layer_1
 62
3
100
AcDbPolyline
 90
2
 70
0
 10
101.474200
 20
415.455124
 30
0.0
 10
101.474200
 20
411.125420
 30
0.0
  0
LWPOLYLINE
  5
17d
100
AcDbEntity
  8
Layer_1
 62
3
100
AcDbPolyline
 90
5
 70
0
 10
101.474200
 20
413.599540
 30
0.0
 10
101.783464
 20
414.527332
 30
0.0
 10
102.401992
 20
415.145860
 30
0.0
 10
103.020520
 20
415.455124
 30
0.0
 10
103.948312
 20
415.455124
 30
0.0
  0
LWPOLYLINE
  5
17e
100
AcDbEntity
  8
Layer_1
 62
3
100
AcDbPolyline
 90
2
 70
0
 10
105.494640
 20
415.455124
 30
0.0
 10
105.494640
 20
411.125420
 30
0.0
  0
LWPOLYLINE
  5
17f
100
AcDbEntity
  8
Layer_1
 62
3
100
AcDbPolyline
 90
7
 70
0
 10
105.494640
 20
414.218068
 30
0.0
 10
106.422432
 20
415.145860
 30
0.0
 10
107.040968
 20
415.455124
 30
0.0
 10
107.968760
 20
415.455124
 30
0.0
 10
108.587288
 20
415.145860
 30
0.0
 10
108.896552
 20
414.218068
 30
0.0
 10
108.896552
 20
411.125420
 30
0.0
  0
LWPOLYLINE
  5
180
100
AcDbEntity
  8
Layer_1
 62
3
100
AcDbPolyline
 90
7
 70
0
 10
108.896552
 20
414.218068
 30
0.0
 10
109.824344
 20
415.145860
 30
0.0
 10
110.442872
 20
415.455124
 30
0.0
 10
111.370672
 20
415.455124
 30
0.0
 10
111.989200
 20
415.145860
 30
0.0
 10
112.298464
 20
414.218068
 30
0.0
 10
112.298464
 20
411.125420
 30
0.0
  0
LWPOLYLINE
  5
181
100
AcDbEntity
  8
Layer_1
 62
3
100
AcDbPolyline
 90
2
 70
0
 10
46.171920
 20
346.770060
 30
0.0
 10
43.697800
 20
340.275500
 30
0.0
  0
LWPOLYLINE
  5
182
100
AcDbEntity
  8
Layer_1
 62
3
100
AcDbPolyline
 90
2
 70
0
 10
46.171920
 20
346.770060
 30
0.0
 10
48.646040
 20
340.275500
 30
0.0
  0
LWPOLYLINE
  5
183
100
AcDbEntity
  8
Layer_1
 62
3
100
AcDbPolyline
 90
2
 70
0
 10
44.625600
 20
342.440356
 30
0.0
 10
47.718240
 20
342.440356
 30
0.0
  0
LWPOLYLINE
  5
184
100
AcDbEntity
  8
Layer_1
 62
3
100
AcDbPolyline
 90
2
 70
0
 10
50.192360
 20
344.605204
 30
0.0
 10
50.192360
 20
340.275500
 30
0.0
  0
LWPOLYLINE
  5
185
100
AcDbEntity
  8
Layer_1
 62
3
100
AcDbPolyline
 90
5
 70
0
 10
50.192360
 20
342.749620
 30
0.0
 10
50.501624
 20
343.677412
 30
0.0
 10
51.120152
 20
344.295940
 30
0.0
 10
51.738680
 20
344.605204
 30
0.0
 10
52.666472
 20
344.605204
 30
0.0
  0
LWPOLYLINE
  5
186
100
AcDbEntity
  8
Layer_1
 62
3
100
AcDbPolyline
 90
2
 70
0
 10
54.212800
 20
344.605204
 30
0.0
 10
54.212800
 20
340.275500
 30
0.0
  0
LWPOLYLINE
  5
187
100
AcDbEntity
  8
Layer_1
 62
3
100
AcDbPolyline
 90
7
 70
0
 10
54.212800
 20
343.368148
 30
0.0
 10
55.140592
 20
344.295940
 30
0.0
 10
55.759128
 20
344.605204
 30
0.0
 10
56.686920
 20
344.605204
 30
0.0
 10
57.305448
 20
344.295940
 30
0.0
 10
57.614712
 20
343.368148
 30
0.0
 10
57.614712
 20
340.275500
 30
0.0
  0
LWPOLYLINE
  5
188
100
AcDbEntity
  8
Layer_1
 62
3
100
AcDbPolyline
 90
7
 70
0
 10
57.614712
 20
343.368148
 30
0.0
 10
58.542504
 20
344.295940
 30
0.0
 10
59.161032
 20
344.605204
 30
0.0
 10
60.088832
 20
344.605204
 30
0.0
 10
60.707360
 20
344.295940
 30
0.0
 10
61.016624
 20
343.368148
 30
0.0
 10
61.016624
 20
340.275500
 30
0.0
  0
LWPOLYLINE
  5
189
100
AcDbEntity
  8
Layer_1
 62
3
100
AcDbPolyline
 90
2
 70
0
 10
97.453760
 20
347.782204
 30
0.0
 10
94.979640
 20
341.287644
 30
0.0
  0
LWPOLYLINE
  5
18a
100
AcDbEntity
  8
Layer_1
 62
3
100
AcDbPolyline
 90
2
 70
0
 10
97.453760
 20
347.782204
 30
0.0
 10
99.927880
 20
341.287644
 30
0.0
  0
LWPOLYLINE
  5
18b
100
AcDbEntity
  8
Layer_1
 62
3
100
AcDbPolyline
 90
2
 70
0
 10
95.907440
 20
343.452500
 30
0.0
 10
99.000080
 20
343.452500
 30
0.0
  0
LWPOLYLINE
  5
18c
100
AcDbEntity
  8
Layer_1
 62
3
100
AcDbPolyline
 90
2
 70
0
 10
101.474200
 20
345.617348
 30
0.0
 10
101.474200
 20
341.287644
 30
0.0
  0
LWPOLYLINE
  5
18d
100
AcDbEntity
  8
Layer_1
 62
3
100
AcDbPolyline
 90
5
 70
0
 10
101.474200
 20
343.761764
 30
0.0
 10
101.783464
 20
344.689556
 30
0.0
 10
102.401992
 20
345.308084
 30
0.0
 10
103.020520
 20
345.617348
 30
0.0
 10
103.948312
 20
345.617348
 30
0.0
  0
LWPOLYLINE
  5
18e
100
AcDbEntity
  8
Layer_1
 62
3
100
AcDbPolyline
 90
2
 70
0
 10
105.494640
 20
345.617348
 30
0.0
 10
105.494640
 20
341.287644
 30
0.0
  0
LWPOLYLINE
  5
18f
100
AcDbEntity
  8
Layer_1
 62
3
100
AcDbPolyline
 90
7
 70
0
 10
105.494640
 20
344.380292
 30
0.0
 10
106.422432
 20
345.308084
 30
0.0
 10
107.040968
 20
345.617348
 30
0.0
 10
107.968760
 20
345.617348
 30
0.0
 10
108.587288
 20
345.308084
 30
0.0
 10
108.896552
 20
344.380292
 30
0.0
 10
108.896552
 20
341.287644
 30
0.0
  0
LWPOLYLINE
  5
190
100
AcDbEntity
  8
Layer_1
 62
3
100
AcDbPolyline
 90
7
 70
0
 10
108.896552
 20
344.380292
 30
0.0
 10
109.824344
 20
345.308084
 30
0.0
 10
110.442872
 20
345.617348
 30
0.0
 10
111.370672
 20
345.617348
 30
0.0
 10
111.989200
 20
345.308084
 30
0.0
 10
112.298464
 20
344.380292
 30
0.0
 10
112.298464
 20
341.287644
 30
0.0
  0
LWPOLYLINE
  5
191
100
AcDbEntity
  8
Layer_1
 62
3
100
AcDbPolyline
 90
2
 70
0
 10
166.954152
 20
366.338132
 30
0.0
 10
164.480032
 20
359.843572
 30
0.0
  0
LWPOLYLINE
  5
192
100
AcDbEntity
  8
Layer_1
 62
3
100
AcDbPolyline
 90
2
 70
0
 10
166.954152
 20
366.338132
 30
0.0
 10
169.428272
 20
359.843572
 30
0.0
  0
LWPOLYLINE
  5
193
100
AcDbEntity
  8
Layer_1
 62
3
100
AcDbPolyline
 90
2
 70
0
 10
165.407832
 20
362.008428
 30
0.0
 10
168.500472
 20
362.008428
 30
0.0
  0
LWPOLYLINE
  5
194
100
AcDbEntity
  8
Layer_1
 62
3
100
AcDbPolyline
 90
2
 70
0
 10
170.974592
 20
364.173276
 30
0.0
 10
170.974592
 20
359.843572
 30
0.0
  0
LWPOLYLINE
  5
195
100
AcDbEntity
  8
Layer_1
 62
3
100
AcDbPolyline
 90
5
 70
0
 10
170.974592
 20
362.317692
 30
0.0
 10
171.283856
 20
363.245484
 30
0.0
 10
171.902384
 20
363.864012
 30
0.0
 10
172.520912
 20
364.173276
 30
0.0
 10
173.448704
 20
364.173276
 30
0.0
  0
LWPOLYLINE
  5
196
100
AcDbEntity
  8
Layer_1
 62
3
100
AcDbPolyline
 90
2
 70
0
 10
174.995032
 20
364.173276
 30
0.0
 10
174.995032
 20
359.843572
 30
0.0
  0
LWPOLYLINE
  5
197
100
AcDbEntity
  8
Layer_1
 62
3
100
AcDbPolyline
 90
7
 70
0
 10
174.995032
 20
362.936220
 30
0.0
 10
175.922824
 20
363.864012
 30
0.0
 10
176.541360
 20
364.173276
 30
0.0
 10
177.469152
 20
364.173276
 30
0.0
 10
178.087680
 20
363.864012
 30
0.0
 10
178.396944
 20
362.936220
 30
0.0
 10
178.396944
 20
359.843572
 30
0.0
  0
LWPOLYLINE
  5
198
100
AcDbEntity
  8
Layer_1
 62
3
100
AcDbPolyline
 90
7
 70
0
 10
178.396944
 20
362.936220
 30
0.0
 10
179.324736
 20
363.864012
 30
0.0
 10
179.943264
 20
364.173276
 30
0.0
 10
180.871064
 20
364.173276
 30
0.0
 10
181.489592
 20
363.864012
 30
0.0
 10
181.798856
 20
362.936220
 30
0.0
 10
181.798856
 20
359.843572
 30
0.0
  0
LWPOLYLINE
  5
199
100
AcDbEntity
  8
Layer_1
 62
3
100
AcDbPolyline
 90
2
 70
0
 10
166.279392
 20
416.607836
 30
0.0
 10
163.805272
 20
410.113276
 30
0.0
  0
LWPOLYLINE
  5
19a
100
AcDbEntity
  8
Layer_1
 62
3
100
AcDbPolyline
 90
2
 70
0
 10
166.279392
 20
416.607836
 30
0.0
 10
168.753512
 20
410.113276
 30
0.0
  0
LWPOLYLINE
  5
19b
100
AcDbEntity
  8
Layer_1
 62
3
100
AcDbPolyline
 90
2
 70
0
 10
164.733072
 20
412.278132
 30
0.0
 10
167.825712
 20
412.278132
 30
0.0
  0
LWPOLYLINE
  5
19c
100
AcDbEntity
  8
Layer_1
 62
3
100
AcDbPolyline
 90
2
 70
0
 10
170.299832
 20
414.442980
 30
0.0
 10
170.299832
 20
410.113276
 30
0.0
  0
LWPOLYLINE
  5
19d
100
AcDbEntity
  8
Layer_1
 62
3
100
AcDbPolyline
 90
5
 70
0
 10
170.299832
 20
412.587396
 30
0.0
 10
170.609096
 20
413.515188
 30
0.0
 10
171.227624
 20
414.133716
 30
0.0
 10
171.846152
 20
414.442980
 30
0.0
 10
172.773944
 20
414.442980
 30
0.0
  0
LWPOLYLINE
  5
19e
100
AcDbEntity
  8
Layer_1
 62
3
100
AcDbPolyline
 90
2
 70
0
 10
174.320272
 20
414.442980
 30
0.0
 10
174.320272
 20
410.113276
 30
0.0
  0
LWPOLYLINE
  5
19f
100
AcDbEntity
  8
Layer_1
 62
3
100
AcDbPolyline
 90
7
 70
0
 10
174.320272
 20
413.205924
 30
0.0
 10
175.248064
 20
414.133716
 30
0.0
 10
175.866600
 20
414.442980
 30
0.0
 10
176.794392
 20
414.442980
 30
0.0
 10
177.412920
 20
414.133716
 30
0.0
 10
177.722184
 20
413.205924
 30
0.0
 10
177.722184
 20
410.113276
 30
0.0
  0
LWPOLYLINE
  5
1a0
100
AcDbEntity
  8
Layer_1
 62
3
100
AcDbPolyline
 90
7
 70
0
 10
177.722184
 20
413.205924
 30
0.0
 10
178.649976
 20
414.133716
 30
0.0
 10
179.268504
 20
414.442980
 30
0.0
 10
180.196304
 20
414.442980
 30
0.0
 10
180.814832
 20
414.133716
 30
0.0
 10
181.124096
 20
413.205924
 30
0.0
 10
181.124096
 20
410.113276
 30
0.0
  0
LWPOLYLINE
  5
1a1
100
AcDbEntity
  8
Layer_1
 62
7
100
AcDbPolyline
 90
37
 70
1
 10
189.590736
 20
212.934252
 30
0.0
 10
181.086792
 20
212.934252
 30
0.0
 10
181.086792
 20
221.438196
 30
0.0
 10
189.590736
 20
221.438196
 30
0.0
 10
189.590736
 20
232.068124
 30
0.0
 10
181.086792
 20
232.068124
 30
0.0
 10
181.086792
 20
242.698052
 30
0.0
 10
191.716720
 20
242.698052
 30
0.0
 10
191.716720
 20
234.194108
 30
0.0
 10
202.346656
 20
234.194108
 30
0.0
 10
202.346656
 20
242.698052
 30
0.0
 10
210.850592
 20
242.698052
 30
0.0
 10
210.850592
 20
234.194108
 30
0.0
 10
221.480528
 20
234.194108
 30
0.0
 10
221.480528
 20
242.698052
 30
0.0
 10
232.110456
 20
242.698052
 30
0.0
 10
232.110456
 20
232.068124
 30
0.0
 10
223.606512
 20
232.068124
 30
0.0
 10
223.606512
 20
221.438188
 30
0.0
 10
232.110456
 20
221.438188
 30
0.0
 10
232.110456
 20
212.934244
 30
0.0
 10
223.606512
 20
212.934244
 30
0.0
 10
223.606512
 20
202.304316
 30
0.0
 10
232.110456
 20
202.304316
 30
0.0
 10
232.110456
 20
191.674388
 30
0.0
 10
221.480528
 20
191.674388
 30
0.0
 10
221.480528
 20
200.178332
 30
0.0
 10
210.850600
 20
200.178332
 30
0.0
 10
210.850600
 20
191.674388
 30
0.0
 10
202.346656
 20
191.674388
 30
0.0
 10
202.346656
 20
200.178332
 30
0.0
 10
191.716720
 20
200.178332
 30
0.0
 10
191.716720
 20
191.674388
 30
0.0
 10
181.086792
 20
191.674388
 30
0.0
 10
181.086792
 20
202.304316
 30
0.0
 10
189.590736
 20
202.304316
 30
0.0
 10
189.590736
 20
212.934252
 30
0.0
  0
LWPOLYLINE
  5
1a2
100
AcDbEntity
  8
Layer_1
 62
7
100
AcDbPolyline
 90
37
 70
1
 10
138.567136
 20
212.934252
 30
0.0
 10
130.063192
 20
212.934252
 30
0.0
 10
130.063192
 20
221.438196
 30
0.0
 10
138.567136
 20
221.438196
 30
0.0
 10
138.567136
 20
232.068124
 30
0.0
 10
130.063192
 20
232.068124
 30
0.0
 10
130.063192
 20
242.698052
 30
0.0
 10
140.693120
 20
242.698052
 30
0.0
 10
140.693120
 20
234.194108
 30
0.0
 10
151.323056
 20
234.194108
 30
0.0
 10
151.323056
 20
242.698052
 30
0.0
 10
159.826992
 20
242.698052
 30
0.0
 10
159.826992
 20
234.194108
 30
0.0
 10
170.456928
 20
234.194108
 30
0.0
 10
170.456928
 20
242.698052
 30
0.0
 10
181.086856
 20
242.698052
 30
0.0
 10
181.086856
 20
232.068124
 30
0.0
 10
172.582912
 20
232.068124
 30
0.0
 10
172.582912
 20
221.438188
 30
0.0
 10
181.086856
 20
221.438188
 30
0.0
 10
181.086856
 20
212.934244
 30
0.0
 10
172.582912
 20
212.934244
 30
0.0
 10
172.582912
 20
202.304316
 30
0.0
 10
181.086856
 20
202.304316
 30
0.0
 10
181.086856
 20
191.674388
 30
0.0
 10
170.456928
 20
191.674388
 30
0.0
 10
170.456928
 20
200.178332
 30
0.0
 10
159.827000
 20
200.178332
 30
0.0
 10
159.827000
 20
191.674388
 30
0.0
 10
151.323056
 20
191.674388
 30
0.0
 10
151.323056
 20
200.178332
 30
0.0
 10
140.693120
 20
200.178332
 30
0.0
 10
140.693120
 20
191.674388
 30
0.0
 10
130.063192
 20
191.674388
 30
0.0
 10
130.063192
 20
202.304316
 30
0.0
 10
138.567136
 20
202.304316
 30
0.0
 10
138.567136
 20
212.934252
 30
0.0
  0
LWPOLYLINE
  5
1a3
100
AcDbEntity
  8
Layer_1
 62
7
100
AcDbPolyline
 90
53
 70
1
 10
70.535648
 20
191.674388
 30
0.0
 10
62.031704
 20
191.674388
 30
0.0
 10
62.031704
 20
200.178332
 30
0.0
 10
49.275792
 20
200.178332
 30
0.0
 10
49.275792
 20
191.674388
 30
0.0
 10
45.023816
 20
191.674388
 30
0.0
 10
45.023816
 20
202.304316
 30
0.0
 10
36.519872
 20
202.304316
 30
0.0
 10
36.519872
 20
212.934252
 30
0.0
 10
45.023816
 20
212.934252
 30
0.0
 10
45.023816
 20
221.438196
 30
0.0
 10
36.519872
 20
221.438196
 30
0.0
 10
36.519872
 20
232.068124
 30
0.0
 10
45.023816
 20
232.068124
 30
0.0
 10
45.023816
 20
242.698052
 30
0.0
 10
49.275792
 20
242.698052
 30
0.0
 10
49.275792
 20
234.194108
 30
0.0
 10
62.031704
 20
234.194108
 30
0.0
 10
62.031704
 20
242.698052
 30
0.0
 10
70.535648
 20
242.698052
 30
0.0
 10
70.535648
 20
234.194108
 30
0.0
 10
79.039592
 20
234.194108
 30
0.0
 10
79.039592
 20
242.698052
 30
0.0
 10
87.543536
 20
242.698052
 30
0.0
 10
87.543536
 20
234.194108
 30
0.0
 10
96.047480
 20
234.194108
 30
0.0
 10
96.047480
 20
242.698052
 30
0.0
 10
104.551424
 20
242.698052
 30
0.0
 10
104.551424
 20
234.194108
 30
0.0
 10
117.307344
 20
234.194108
 30
0.0
 10
117.307344
 20
242.698052
 30
0.0
 10
121.559312
 20
242.698052
 30
0.0
 10
121.559312
 20
232.068124
 30
0.0
 10
130.063256
 20
232.068124
 30
0.0
 10
130.063256
 20
221.438188
 30
0.0
 10
121.559312
 20
221.438188
 30
0.0
 10
121.559312
 20
212.934244
 30
0.0
 10
130.063256
 20
212.934244
 30
0.0
 10
130.063256
 20
202.304316
 30
0.0
 10
121.559312
 20
202.304316
 30
0.0
 10
121.559312
 20
191.674388
 30
0.0
 10
117.307344
 20
191.674388
 30
0.0
 10
117.307344
 20
200.178332
 30
0.0
 10
104.551424
 20
200.178332
 30
0.0
 10
104.551424
 20
191.674388
 30
0.0
 10
96.047480
 20
191.674388
 30
0.0
 10
96.047480
 20
200.178332
 30
0.0
 10
87.543536
 20
200.178332
 30
0.0
 10
87.543536
 20
191.674388
 30
0.0
 10
79.039592
 20
191.674388
 30
0.0
 10
79.039592
 20
200.178332
 30
0.0
 10
70.535648
 20
200.178332
 30
0.0
 10
70.535648
 20
191.674388
 30
0.0
  0
LWPOLYLINE
  5
1a4
100
AcDbEntity
  8
Layer_1
 62
7
100
AcDbPolyline
 90
53
 70
1
 10
70.535648
 20
242.698012
 30
0.0
 10
62.031704
 20
242.698012
 30
0.0
 10
62.031704
 20
251.201956
 30
0.0
 10
49.275792
 20
251.201956
 30
0.0
 10
49.275792
 20
242.698012
 30
0.0
 10
45.023816
 20
242.698012
 30
0.0
 10
45.023816
 20
253.327940
 30
0.0
 10
36.519872
 20
253.327940
 30
0.0
 10
36.519872
 20
263.957868
 30
0.0
 10
45.023816
 20
263.957868
 30
0.0
 10
45.023816
 20
272.461812
 30
0.0
 10
36.519872
 20
272.461812
 30
0.0
 10
36.519872
 20
283.091748
 30
0.0
 10
45.023816
 20
283.091748
 30
0.0
 10
45.023816
 20
293.721676
 30
0.0
 10
49.275792
 20
293.721676
 30
0.0
 10
49.275792
 20
285.217732
 30
0.0
 10
62.031704
 20
285.217732
 30
0.0
 10
62.031704
 20
293.721676
 30
0.0
 10
70.535648
 20
293.721676
 30
0.0
 10
70.535648
 20
285.217732
 30
0.0
 10
79.039592
 20
285.217732
 30
0.0
 10
79.039592
 20
293.721676
 30
0.0
 10
87.543536
 20
293.721676
 30
0.0
 10
87.543536
 20
285.217732
 30
0.0
 10
96.047480
 20
285.217732
 30
0.0
 10
96.047480
 20
293.721676
 30
0.0
 10
104.551424
 20
293.721676
 30
0.0
 10
104.551424
 20
285.217732
 30
0.0
 10
117.307344
 20
285.217732
 30
0.0
 10
117.307344
 20
293.721676
 30
0.0
 10
121.559312
 20
293.721676
 30
0.0
 10
121.559312
 20
283.091748
 30
0.0
 10
130.063256
 20
283.091748
 30
0.0
 10
130.063256
 20
272.461812
 30
0.0
 10
121.559312
 20
272.461812
 30
0.0
 10
121.559312
 20
263.957868
 30
0.0
 10
130.063256
 20
263.957868
 30
0.0
 10
130.063256
 20
253.327940
 30
0.0
 10
121.559312
 20
253.327940
 30
0.0
 10
121.559312
 20
242.698012
 30
0.0
 10
117.307344
 20
242.698012
 30
0.0
 10
117.307344
 20
251.201956
 30
0.0
 10
104.551424
 20
251.201956
 30
0.0
 10
104.551424
 20
242.698012
 30
0.0
 10
96.047480
 20
242.698012
 30
0.0
 10
96.047480
 20
251.201956
 30
0.0
 10
87.543536
 20
251.201956
 30
0.0
 10
87.543536
 20
242.698012
 30
0.0
 10
79.039592
 20
242.698012
 30
0.0
 10
79.039592
 20
251.201956
 30
0.0
 10
70.535648
 20
251.201956
 30
0.0
 10
70.535648
 20
242.698012
 30
0.0
  0
LWPOLYLINE
  5
1a5
100
AcDbEntity
  8
Layer_1
 62
7
100
AcDbPolyline
 90
53
 70
1
 10
181.086792
 20
268.209844
 30
0.0
 10
189.590736
 20
268.209844
 30
0.0
 10
189.590736
 20
276.713788
 30
0.0
 10
181.086792
 20
276.713788
 30
0.0
 10
181.086792
 20
285.217732
 30
0.0
 10
189.590736
 20
285.217732
 30
0.0
 10
189.590736
 20
293.721676
 30
0.0
 10
181.086792
 20
293.721676
 30
0.0
 10
181.086792
 20
302.225620
 30
0.0
 10
189.590736
 20
302.225620
 30
0.0
 10
189.590736
 20
310.729564
 30
0.0
 10
181.086792
 20
310.729564
 30
0.0
 10
181.086792
 20
323.485476
 30
0.0
 10
189.590736
 20
323.485476
 30
0.0
 10
189.590736
 20
327.737452
 30
0.0
 10
191.716720
 20
327.737452
 30
0.0
 10
191.716720
 20
336.241396
 30
0.0
 10
202.346656
 20
336.241396
 30
0.0
 10
202.346656
 20
327.737452
 30
0.0
 10
210.850600
 20
327.737452
 30
0.0
 10
210.850600
 20
336.241396
 30
0.0
 10
221.480528
 20
336.241396
 30
0.0
 10
221.480528
 20
327.737452
 30
0.0
 10
223.606512
 20
327.737452
 30
0.0
 10
223.606512
 20
323.485476
 30
0.0
 10
232.110456
 20
323.485476
 30
0.0
 10
232.110456
 20
310.729564
 30
0.0
 10
223.606512
 20
310.729564
 30
0.0
 10
223.606512
 20
302.225620
 30
0.0
 10
232.110456
 20
302.225620
 30
0.0
 10
232.110456
 20
293.721676
 30
0.0
 10
223.606512
 20
293.721676
 30
0.0
 10
223.606512
 20
285.217732
 30
0.0
 10
232.110456
 20
285.217732
 30
0.0
 10
232.110456
 20
276.713788
 30
0.0
 10
223.606512
 20
276.713788
 30
0.0
 10
223.606512
 20
268.209844
 30
0.0
 10
232.110456
 20
268.209844
 30
0.0
 10
232.110456
 20
255.453924
 30
0.0
 10
223.606512
 20
255.453924
 30
0.0
 10
223.606512
 20
251.201956
 30
0.0
 10
221.480528
 20
251.201956
 30
0.0
 10
221.480528
 20
242.698012
 30
0.0
 10
210.850600
 20
242.698012
 30
0.0
 10
210.850600
 20
251.201956
 30
0.0
 10
202.346656
 20
251.201956
 30
0.0
 10
202.346656
 20
242.698012
 30
0.0
 10
191.716720
 20
242.698012
 30
0.0
 10
191.716720
 20
251.201956
 30
0.0
 10
189.590736
 20
251.201956
 30
0.0
 10
189.590736
 20
255.453924
 30
0.0
 10
181.086792
 20
255.453924
 30
0.0
 10
181.086792
 20
268.209844
 30
0.0
  0
LWPOLYLINE
  5
1a6
100
AcDbEntity
  8
Layer_1
 62
7
100
AcDbPolyline
 90
53
 70
1
 10
130.063192
 20
268.209844
 30
0.0
 10
138.567136
 20
268.209844
 30
0.0
 10
138.567136
 20
276.713788
 30
0.0
 10
130.063192
 20
276.713788
 30
0.0
 10
130.063192
 20
285.217732
 30
0.0
 10
138.567136
 20
285.217732
 30
0.0
 10
138.567136
 20
293.721676
 30
0.0
 10
130.063192
 20
293.721676
 30
0.0
 10
130.063192
 20
302.225620
 30
0.0
 10
138.567136
 20
302.225620
 30
0.0
 10
138.567136
 20
310.729564
 30
0.0
 10
130.063192
 20
310.729564
 30
0.0
 10
130.063192
 20
323.485476
 30
0.0
 10
138.567136
 20
323.485476
 30
0.0
 10
138.567136
 20
327.737452
 30
0.0
 10
140.693120
 20
327.737452
 30
0.0
 10
140.693120
 20
336.241396
 30
0.0
 10
151.323056
 20
336.241396
 30
0.0
 10
151.323056
 20
327.737452
 30
0.0
 10
159.827000
 20
327.737452
 30
0.0
 10
159.827000
 20
336.241396
 30
0.0
 10
170.456928
 20
336.241396
 30
0.0
 10
170.456928
 20
327.737452
 30
0.0
 10
172.582912
 20
327.737452
 30
0.0
 10
172.582912
 20
323.485476
 30
0.0
 10
181.086856
 20
323.485476
 30
0.0
 10
181.086856
 20
310.729564
 30
0.0
 10
172.582912
 20
310.729564
 30
0.0
 10
172.582912
 20
302.225620
 30
0.0
 10
181.086856
 20
302.225620
 30
0.0
 10
181.086856
 20
293.721676
 30
0.0
 10
172.582912
 20
293.721676
 30
0.0
 10
172.582912
 20
285.217732
 30
0.0
 10
181.086856
 20
285.217732
 30
0.0
 10
181.086856
 20
276.713788
 30
0.0
 10
172.582912
 20
276.713788
 30
0.0
 10
172.582912
 20
268.209844
 30
0.0
 10
181.086856
 20
268.209844
 30
0.0
 10
181.086856
 20
255.453924
 30
0.0
 10
172.582912
 20
255.453924
 30
0.0
 10
172.582912
 20
251.201956
 30
0.0
 10
170.456928
 20
251.201956
 30
0.0
 10
170.456928
 20
242.698012
 30
0.0
 10
159.827000
 20
242.698012
 30
0.0
 10
159.827000
 20
251.201956
 30
0.0
 10
151.323056
 20
251.201956
 30
0.0
 10
151.323056
 20
242.698012
 30
0.0
 10
140.693120
 20
242.698012
 30
0.0
 10
140.693120
 20
251.201956
 30
0.0
 10
138.567136
 20
251.201956
 30
0.0
 10
138.567136
 20
255.453924
 30
0.0
 10
130.063192
 20
255.453924
 30
0.0
 10
130.063192
 20
268.209844
 30
0.0
  0
LWPOLYLINE
  5
1a7
100
AcDbEntity
  8
Layer_1
 62
3
100
AcDbPolyline
 90
2
 70
0
 10
212.882880
 20
214.053076
 30
0.0
 10
215.357000
 20
220.547636
 30
0.0
  0
LWPOLYLINE
  5
1a8
100
AcDbEntity
  8
Layer_1
 62
3
100
AcDbPolyline
 90
2
 70
0
 10
212.882880
 20
214.053076
 30
0.0
 10
210.408760
 20
220.547636
 30
0.0
  0
LWPOLYLINE
  5
1a9
100
AcDbEntity
  8
Layer_1
 62
3
100
AcDbPolyline
 90
2
 70
0
 10
214.429200
 20
218.382780
 30
0.0
 10
211.336560
 20
218.382780
 30
0.0
  0
LWPOLYLINE
  5
1aa
100
AcDbEntity
  8
Layer_1
 62
3
100
AcDbPolyline
 90
2
 70
0
 10
208.862440
 20
216.217932
 30
0.0
 10
208.862440
 20
220.547636
 30
0.0
  0
LWPOLYLINE
  5
1ab
100
AcDbEntity
  8
Layer_1
 62
3
100
AcDbPolyline
 90
5
 70
0
 10
208.862440
 20
218.073516
 30
0.0
 10
208.553176
 20
217.145724
 30
0.0
 10
207.934648
 20
216.527196
 30
0.0
 10
207.316120
 20
216.217932
 30
0.0
 10
206.388328
 20
216.217932
 30
0.0
  0
LWPOLYLINE
  5
1ac
100
AcDbEntity
  8
Layer_1
 62
3
100
AcDbPolyline
 90
2
 70
0
 10
204.842000
 20
216.217932
 30
0.0
 10
204.842000
 20
220.547636
 30
0.0
  0
LWPOLYLINE
  5
1ad
100
AcDbEntity
  8
Layer_1
 62
3
100
AcDbPolyline
 90
7
 70
0
 10
204.842000
 20
217.454988
 30
0.0
 10
203.914208
 20
216.527196
 30
0.0
 10
203.295672
 20
216.217932
 30
0.0
 10
202.367880
 20
216.217932
 30
0.0
 10
201.749352
 20
216.527196
 30
0.0
 10
201.440088
 20
217.454988
 30
0.0
 10
201.440088
 20
220.547636
 30
0.0
  0
LWPOLYLINE
  5
1ae
100
AcDbEntity
  8
Layer_1
 62
3
100
AcDbPolyline
 90
7
 70
0
 10
201.440088
 20
217.454988
 30
0.0
 10
200.512296
 20
216.527196
 30
0.0
 10
199.893768
 20
216.217932
 30
0.0
 10
198.965968
 20
216.217932
 30
0.0
 10
198.347440
 20
216.527196
 30
0.0
 10
198.038176
 20
217.454988
 30
0.0
 10
198.038176
 20
220.547636
 30
0.0
  0
LWPOLYLINE
  5
1af
100
AcDbEntity
  8
Layer_1
 62
3
100
AcDbPolyline
 90
2
 70
0
 10
160.251512
 20
214.727836
 30
0.0
 10
162.725632
 20
221.222396
 30
0.0
  0
LWPOLYLINE
  5
1b0
100
AcDbEntity
  8
Layer_1
 62
3
100
AcDbPolyline
 90
2
 70
0
 10
160.251512
 20
214.727836
 30
0.0
 10
157.777392
 20
221.222396
 30
0.0
  0
LWPOLYLINE
  5
1b1
100
AcDbEntity
  8
Layer_1
 62
3
100
AcDbPolyline
 90
2
 70
0
 10
161.797832
 20
219.057540
 30
0.0
 10
158.705192
 20
219.057540
 30
0.0
  0
LWPOLYLINE
  5
1b2
100
AcDbEntity
  8
Layer_1
 62
3
100
AcDbPolyline
 90
2
 70
0
 10
156.231072
 20
216.892692
 30
0.0
 10
156.231072
 20
221.222396
 30
0.0
  0
LWPOLYLINE
  5
1b3
100
AcDbEntity
  8
Layer_1
 62
3
100
AcDbPolyline
 90
5
 70
0
 10
156.231072
 20
218.748276
 30
0.0
 10
155.921808
 20
217.820484
 30
0.0
 10
155.303280
 20
217.201956
 30
0.0
 10
154.684752
 20
216.892692
 30
0.0
 10
153.756960
 20
216.892692
 30
0.0
  0
LWPOLYLINE
  5
1b4
100
AcDbEntity
  8
Layer_1
 62
3
100
AcDbPolyline
 90
2
 70
0
 10
152.210632
 20
216.892692
 30
0.0
 10
152.210632
 20
221.222396
 30
0.0
  0
LWPOLYLINE
  5
1b5
100
AcDbEntity
  8
Layer_1
 62
3
100
AcDbPolyline
 90
7
 70
0
 10
152.210632
 20
218.129748
 30
0.0
 10
151.282840
 20
217.201956
 30
0.0
 10
150.664304
 20
216.892692
 30
0.0
 10
149.736512
 20
216.892692
 30
0.0
 10
149.117984
 20
217.201956
 30
0.0
 10
148.808720
 20
218.129748
 30
0.0
 10
148.808720
 20
221.222396
 30
0.0
  0
LWPOLYLINE
  5
1b6
100
AcDbEntity
  8
Layer_1
 62
3
100
AcDbPolyline
 90
7
 70
0
 10
148.808720
 20
218.129748
 30
0.0
 10
147.880928
 20
217.201956
 30
0.0
 10
147.262400
 20
216.892692
 30
0.0
 10
146.334600
 20
216.892692
 30
0.0
 10
145.716072
 20
217.201956
 30
0.0
 10
145.406808
 20
218.129748
 30
0.0
 10
145.406808
 20
221.222396
 30
0.0
  0
LWPOLYLINE
  5
1b7
100
AcDbEntity
  8
Layer_1
 62
3
100
AcDbPolyline
 90
2
 70
0
 10
87.714696
 20
214.053076
 30
0.0
 10
90.188816
 20
220.547636
 30
0.0
  0
LWPOLYLINE
  5
1b8
100
AcDbEntity
  8
Layer_1
 62
3
100
AcDbPolyline
 90
2
 70
0
 10
87.714696
 20
214.053076
 30
0.0
 10
85.240576
 20
220.547636
 30
0.0
  0
LWPOLYLINE
  5
1b9
100
AcDbEntity
  8
Layer_1
 62
3
100
AcDbPolyline
 90
2
 70
0
 10
89.261016
 20
218.382780
 30
0.0
 10
86.168376
 20
218.382780
 30
0.0
  0
LWPOLYLINE
  5
1ba
100
AcDbEntity
  8
Layer_1
 62
3
100
AcDbPolyline
 90
2
 70
0
 10
83.694256
 20
216.217932
 30
0.0
 10
83.694256
 20
220.547636
 30
0.0
  0
LWPOLYLINE
  5
1bb
100
AcDbEntity
  8
Layer_1
 62
3
100
AcDbPolyline
 90
5
 70
0
 10
83.694256
 20
218.073516
 30
0.0
 10
83.384992
 20
217.145724
 30
0.0
 10
82.766464
 20
216.527196
 30
0.0
 10
82.147936
 20
216.217932
 30
0.0
 10
81.220144
 20
216.217932
 30
0.0
  0
LWPOLYLINE
  5
1bc
100
AcDbEntity
  8
Layer_1
 62
3
100
AcDbPolyline
 90
2
 70
0
 10
79.673816
 20
216.217932
 30
0.0
 10
79.673816
 20
220.547636
 30
0.0
  0
LWPOLYLINE
  5
1bd
100
AcDbEntity
  8
Layer_1
 62
3
100
AcDbPolyline
 90
7
 70
0
 10
79.673816
 20
217.454988
 30
0.0
 10
78.746024
 20
216.527196
 30
0.0
 10
78.127488
 20
216.217932
 30
0.0
 10
77.199696
 20
216.217932
 30
0.0
 10
76.581168
 20
216.527196
 30
0.0
 10
76.271904
 20
217.454988
 30
0.0
 10
76.271904
 20
220.547636
 30
0.0
  0
LWPOLYLINE
  5
1be
100
AcDbEntity
  8
Layer_1
 62
3
100
AcDbPolyline
 90
7
 70
0
 10
76.271904
 20
217.454988
 30
0.0
 10
75.344112
 20
216.527196
 30
0.0
 10
74.725584
 20
216.217932
 30
0.0
 10
73.797784
 20
216.217932
 30
0.0
 10
73.179256
 20
216.527196
 30
0.0
 10
72.869992
 20
217.454988
 30
0.0
 10
72.869992
 20
220.547636
 30
0.0
  0
LWPOLYLINE
  5
1bf
100
AcDbEntity
  8
Layer_1
 62
3
100
AcDbPolyline
 90
2
 70
0
 10
89.064216
 20
264.322780
 30
0.0
 10
91.538336
 20
270.817332
 30
0.0
  0
LWPOLYLINE
  5
1c0
100
AcDbEntity
  8
Layer_1
 62
3
100
AcDbPolyline
 90
2
 70
0
 10
89.064216
 20
264.322780
 30
0.0
 10
86.590096
 20
270.817332
 30
0.0
  0
LWPOLYLINE
  5
1c1
100
AcDbEntity
  8
Layer_1
 62
3
100
AcDbPolyline
 90
2
 70
0
 10
90.610536
 20
268.652484
 30
0.0
 10
87.517896
 20
268.652484
 30
0.0
  0
LWPOLYLINE
  5
1c2
100
AcDbEntity
  8
Layer_1
 62
3
100
AcDbPolyline
 90
2
 70
0
 10
85.043776
 20
266.487628
 30
0.0
 10
85.043776
 20
270.817332
 30
0.0
  0
LWPOLYLINE
  5
1c3
100
AcDbEntity
  8
Layer_1
 62
3
100
AcDbPolyline
 90
5
 70
0
 10
85.043776
 20
268.343220
 30
0.0
 10
84.734512
 20
267.415428
 30
0.0
 10
84.115984
 20
266.796892
 30
0.0
 10
83.497456
 20
266.487628
 30
0.0
 10
82.569664
 20
266.487628
 30
0.0
  0
LWPOLYLINE
  5
1c4
100
AcDbEntity
  8
Layer_1
 62
3
100
AcDbPolyline
 90
2
 70
0
 10
81.023336
 20
266.487628
 30
0.0
 10
81.023336
 20
270.817332
 30
0.0
  0
LWPOLYLINE
  5
1c5
100
AcDbEntity
  8
Layer_1
 62
3
100
AcDbPolyline
 90
7
 70
0
 10
81.023336
 20
267.724692
 30
0.0
 10
80.095544
 20
266.796892
 30
0.0
 10
79.477008
 20
266.487628
 30
0.0
 10
78.549216
 20
266.487628
 30
0.0
 10
77.930688
 20
266.796892
 30
0.0
 10
77.621424
 20
267.724692
 30
0.0
 10
77.621424
 20
270.817332
 30
0.0
  0
LWPOLYLINE
  5
1c6
100
AcDbEntity
  8
Layer_1
 62
3
100
AcDbPolyline
 90
7
 70
0
 10
77.621424
 20
267.724692
 30
0.0
 10
76.693632
 20
266.796892
 30
0.0
 10
76.075104
 20
266.487628
 30
0.0
 10
75.147304
 20
266.487628
 30
0.0
 10
74.528776
 20
266.796892
 30
0.0
 10
74.219512
 20
267.724692
 30
0.0
 10
74.219512
 20
270.817332
 30
0.0
  0
LWPOLYLINE
  5
1c7
100
AcDbEntity
  8
Layer_1
 62
3
100
AcDbPolyline
 90
2
 70
0
 10
161.601040
 20
286.252516
 30
0.0
 10
164.075160
 20
292.747068
 30
0.0
  0
LWPOLYLINE
  5
1c8
100
AcDbEntity
  8
Layer_1
 62
3
100
AcDbPolyline
 90
2
 70
0
 10
161.601040
 20
286.252516
 30
0.0
 10
159.126920
 20
292.747068
 30
0.0
  0
LWPOLYLINE
  5
1c9
100
AcDbEntity
  8
Layer_1
 62
3
100
AcDbPolyline
 90
2
 70
0
 10
163.147360
 20
290.582220
 30
0.0
 10
160.054720
 20
290.582220
 30
0.0
  0
LWPOLYLINE
  5
1ca
100
AcDbEntity
  8
Layer_1
 62
3
100
AcDbPolyline
 90
2
 70
0
 10
157.580600
 20
288.417364
 30
0.0
 10
157.580600
 20
292.747068
 30
0.0
  0
LWPOLYLINE
  5
1cb
100
AcDbEntity
  8
Layer_1
 62
3
100
AcDbPolyline
 90
5
 70
0
 10
157.580600
 20
290.272956
 30
0.0
 10
157.271336
 20
289.345164
 30
0.0
 10
156.652808
 20
288.726628
 30
0.0
 10
156.034280
 20
288.417364
 30
0.0
 10
155.106488
 20
288.417364
 30
0.0
  0
LWPOLYLINE
  5
1cc
100
AcDbEntity
  8
Layer_1
 62
3
100
AcDbPolyline
 90
2
 70
0
 10
153.560160
 20
288.417364
 30
0.0
 10
153.560160
 20
292.747068
 30
0.0
  0
LWPOLYLINE
  5
1cd
100
AcDbEntity
  8
Layer_1
 62
3
100
AcDbPolyline
 90
7
 70
0
 10
153.560160
 20
289.654428
 30
0.0
 10
152.632368
 20
288.726628
 30
0.0
 10
152.013832
 20
288.417364
 30
0.0
 10
151.086040
 20
288.417364
 30
0.0
 10
150.467512
 20
288.726628
 30
0.0
 10
150.158248
 20
289.654428
 30
0.0
 10
150.158248
 20
292.747068
 30
0.0
  0
LWPOLYLINE
  5
1ce
100
AcDbEntity
  8
Layer_1
 62
3
100
AcDbPolyline
 90
7
 70
0
 10
150.158248
 20
289.654428
 30
0.0
 10
149.230456
 20
288.726628
 30
0.0
 10
148.611928
 20
288.417364
 30
0.0
 10
147.684128
 20
288.417364
 30
0.0
 10
147.065600
 20
288.726628
 30
0.0
 10
146.756336
 20
289.654428
 30
0.0
 10
146.756336
 20
292.747068
 30
0.0
  0
LWPOLYLINE
  5
1cf
100
AcDbEntity
  8
Layer_1
 62
3
100
AcDbPolyline
 90
2
 70
0
 10
214.907168
 20
285.240372
 30
0.0
 10
217.381288
 20
291.734924
 30
0.0
  0
LWPOLYLINE
  5
1d0
100
AcDbEntity
  8
Layer_1
 62
3
100
AcDbPolyline
 90
2
 70
0
 10
214.907168
 20
285.240372
 30
0.0
 10
212.433048
 20
291.734924
 30
0.0
  0
LWPOLYLINE
  5
1d1
100
AcDbEntity
  8
Layer_1
 62
3
100
AcDbPolyline
 90
2
 70
0
 10
216.453488
 20
289.570076
 30
0.0
 10
213.360848
 20
289.570076
 30
0.0
  0
LWPOLYLINE
  5
1d2
100
AcDbEntity
  8
Layer_1
 62
3
100
AcDbPolyline
 90
2
 70
0
 10
210.886728
 20
287.405220
 30
0.0
 10
210.886728
 20
291.734924
 30
0.0
  0
LWPOLYLINE
  5
1d3
100
AcDbEntity
  8
Layer_1
 62
3
100
AcDbPolyline
 90
5
 70
0
 10
210.886728
 20
289.260812
 30
0.0
 10
210.577464
 20
288.333020
 30
0.0
 10
209.958936
 20
287.714484
 30
0.0
 10
209.340408
 20
287.405220
 30
0.0
 10
208.412616
 20
287.405220
 30
0.0
  0
LWPOLYLINE
  5
1d4
100
AcDbEntity
  8
Layer_1
 62
3
100
AcDbPolyline
 90
2
 70
0
 10
206.866288
 20
287.405220
 30
0.0
 10
206.866288
 20
291.734924
 30
0.0
  0
LWPOLYLINE
  5
1d5
100
AcDbEntity
  8
Layer_1
 62
3
100
AcDbPolyline
 90
7
 70
0
 10
206.866288
 20
288.642284
 30
0.0
 10
205.938496
 20
287.714484
 30
0.0
 10
205.319960
 20
287.405220
 30
0.0
 10
204.392168
 20
287.405220
 30
0.0
 10
203.773640
 20
287.714484
 30
0.0
 10
203.464376
 20
288.642284
 30
0.0
 10
203.464376
 20
291.734924
 30
0.0
  0
SPLINE
  5
1d6
100
AcDbEntity
  8
Layer_1
 62
3
100
AcDbSpline
 70
0
 71
3
 72
10
 73
6
 74
4
 40
0.000000
 40
0.000000
 40
0.000000
 40
0.000000
 40
33.619351
 40
68.312503
 40
104.385000
 40
104.385000
 40
104.385000
 40
104.385000
 10
467.496224
 20
569.079948
 30
0.0
 10
458.536842
 20
576.247312
 30
0.0
 10
440.331915
 20
590.810967
 30
0.0
 10
438.109228
 20
633.159365
 30
0.0
 10
460.935303
 20
644.617176
 30
0.0
 10
472.570800
 20
650.457748
 30
0.0
 11
467.496224
 21
569.079948
 31
0.0
 11
444.675048
 21
593.767083
 31
0.0
 11
443.986990
 21
628.453412
 31
0.0
 11
472.570800
 21
650.457748
 31
0.0
  0
LWPOLYLINE
  5
1d7
100
AcDbEntity
  8
Layer_1
 62
3
100
AcDbPolyline
 90
7
 70
0
 10
203.464376
 20
288.642284
 30
0.0
 10
202.536584
 20
287.714484
 30
0.0
 10
201.918056
 20
287.405220
 30
0.0
 10
200.990256
 20
287.405220
 30
0.0
 10
200.371728
 20
287.714484
 30
0.0
 10
200.062464
 20
288.642284
 30
0.0
 10
200.062464
 20
291.734924
 30
0.0
  0
LWPOLYLINE
  5
1d8
100
AcDbEntity
  8
Layer_1
 62
5
100
AcDbPolyline
 90
2
 70
1
 10
218.658352
 20
479.459228
 30
0.0
 10
218.658352
 20
479.459228
 30
0.0
  0
SPLINE
  5
1d9
100
AcDbEntity
  8
Layer_1
 62
5
100
AcDbSpline
 70
0
 71
3
 72
19
 73
15
 74
13
 40
0.000000
 40
0.000000
 40
0.000000
 40
0.000000
 40
14.700122
 40
28.964247
 40
43.664368
 40
58.364494
 40
72.628620
 40
87.328743
 40
102.028865
 40
116.292991
 40
130.993118
 40
145.693239
 40
159.957363
 40
174.657486
 40
174.657486
 40
174.657486
 40
174.657486
 10
218.658352
 20
479.459228
 30
0.0
 10
213.702163
 20
480.231961
 30
0.0
 10
203.936782
 20
481.754507
 30
0.0
 10
193.185893
 20
492.947512
 30
0.0
 10
189.202361
 20
507.548305
 30
0.0
 10
193.185892
 20
522.302394
 30
0.0
 10
203.936781
 20
533.044613
 30
0.0
 10
218.658352
 20
537.031090
 30
0.0
 10
233.379923
 20
533.044613
 30
0.0
 10
244.130812
 20
522.302394
 30
0.0
 10
248.114343
 20
507.548305
 30
0.0
 10
244.130811
 20
492.947512
 30
0.0
 10
233.379922
 20
481.754507
 30
0.0
 10
223.614541
 20
480.231961
 30
0.0
 10
218.658352
 20
479.459228
 30
0.0
 11
218.658352
 21
479.459228
 31
0.0
 11
204.468233
 21
483.297734
 31
0.0
 11
194.381972
 21
493.383991
 31
0.0
 11
190.543464
 21
507.574108
 31
0.0
 11
194.381972
 21
521.764230
 31
0.0
 11
204.468233
 21
531.850489
 31
0.0
 11
218.658352
 21
535.688996
 31
0.0
 11
232.848471
 21
531.850489
 31
0.0
 11
242.934732
 21
521.764230
 31
0.0
 11
246.773240
 21
507.574108
 31
0.0
 11
242.934732
 21
493.383991
 31
0.0
 11
232.848471
 21
483.297734
 31
0.0
 11
218.658352
 21
479.459228
 31
0.0
  0
LWPOLYLINE
  5
1da
100
AcDbEntity
  8
Layer_1
 62
7
100
AcDbPolyline
 90
5
 70
1
 10
164.577560
 20
318.948996
 30
0.0
 10
164.577560
 20
302.217140
 30
0.0
 10
147.845696
 20
302.217140
 30
0.0
 10
147.845696
 20
318.948996
 30
0.0
 10
164.577560
 20
318.948996
 30
0.0
  0
LWPOLYLINE
  5
1db
100
AcDbEntity
  8
Layer_1
 62
5
100
AcDbPolyline
 90
2
 70
1
 10
95.461152
 20
479.377188
 30
0.0
 10
95.461152
 20
479.377188
 30
0.0
  0
LWPOLYLINE
  5
1dc
100
AcDbEntity
  8
Layer_1
 62
7
100
AcDbPolyline
 90
53
 70
1
 10
107.366868
 20
388.081508
 30
0.0
 10
117.996798
 20
388.081508
 30
0.0
 10
117.996798
 20
379.577564
 30
0.0
 10
120.122784
 20
379.577564
 30
0.0
 10
120.122784
 20
375.325592
 30
0.0
 10
128.626728
 20
375.325592
 30
0.0
 10
128.626728
 20
362.569676
 30
0.0
 10
120.122784
 20
362.569676
 30
0.0
 10
120.122784
 20
354.065732
 30
0.0
 10
128.626728
 20
354.065732
 30
0.0
 10
128.626728
 20
345.561788
 30
0.0
 10
120.122784
 20
345.561788
 30
0.0
 10
120.122784
 20
337.057844
 30
0.0
 10
128.626728
 20
337.057844
 30
0.0
 10
128.626728
 20
328.553900
 30
0.0
 10
120.122784
 20
328.553900
 30
0.0
 10
120.122784
 20
320.049956
 30
0.0
 10
128.626728
 20
320.049956
 30
0.0
 10
128.626728
 20
307.294044
 30
0.0
 10
120.122784
 20
307.294044
 30
0.0
 10
120.122784
 20
303.042068
 30
0.0
 10
117.996798
 20
303.042068
 30
0.0
 10
117.996798
 20
294.538124
 30
0.0
 10
107.366868
 20
294.538124
 30
0.0
 10
107.366868
 20
303.042068
 30
0.0
 10
98.862924
 20
303.042068
 30
0.0
 10
98.862924
 20
294.538124
 30
0.0
 10
88.232994
 20
294.538124
 30
0.0
 10
88.232994
 20
303.042068
 30
0.0
 10
86.107008
 20
303.042068
 30
0.0
 10
86.107008
 20
307.294044
 30
0.0
 10
77.603064
 20
307.294044
 30
0.0
 10
77.603064
 20
320.049956
 30
0.0
 10
86.107008
 20
320.049956
 30
0.0
 10
86.107008
 20
328.553900
 30
0.0
 10
77.603064
 20
328.553900
 30
0.0
 10
77.603064
 20
337.057844
 30
0.0
 10
86.107008
 20
337.057844
 30
0.0
 10
86.107008
 20
345.561788
 30
0.0
 10
77.603064
 20
345.561788
 30
0.0
 10
77.603064
 20
354.065732
 30
0.0
 10
86.107008
 20
354.065732
 30
0.0
 10
86.107008
 20
362.569676
 30
0.0
 10
77.603064
 20
362.569676
 30
0.0
 10
77.603064
 20
375.325592
 30
0.0
 10
86.107008
 20
375.325592
 30
0.0
 10
86.107008
 20
379.577564
 30
0.0
 10
88.232994
 20
379.577564
 30
0.0
 10
88.232994
 20
388.081508
 30
0.0
 10
98.862924
 20
388.081508
 30
0.0
 10
98.862924
 20
379.577564
 30
0.0
 10
107.366868
 20
379.577564
 30
0.0
 10
107.366868
 20
388.081508
 30
0.0
  0
LWPOLYLINE
  5
1dd
100
AcDbEntity
  8
Layer_1
 62
7
100
AcDbPolyline
 90
5
 70
1
 10
112.044528
 20
370.395556
 30
0.0
 10
112.044528
 20
353.663700
 30
0.0
 10
95.312664
 20
353.663700
 30
0.0
 10
95.312664
 20
370.395556
 30
0.0
 10
112.044528
 20
370.395556
 30
0.0
  0
SPLINE
  5
1de
100
AcDbEntity
  8
Layer_1
 62
5
100
AcDbSpline
 70
0
 71
3
 72
19
 73
15
 74
13
 40
0.000000
 40
0.000000
 40
0.000000
 40
0.000000
 40
14.700122
 40
28.964247
 40
43.664368
 40
58.364494
 40
72.628620
 40
87.328743
 40
102.028865
 40
116.292991
 40
130.993118
 40
145.693239
 40
159.957363
 40
174.657486
 40
174.657486
 40
174.657486
 40
174.657486
 10
95.461152
 20
479.377188
 30
0.0
 10
90.504963
 20
480.149921
 30
0.0
 10
80.739582
 20
481.672467
 30
0.0
 10
69.988693
 20
492.865472
 30
0.0
 10
66.005161
 20
507.466265
 30
0.0
 10
69.988692
 20
522.220354
 30
0.0
 10
80.739581
 20
532.962573
 30
0.0
 10
95.461152
 20
536.949050
 30
0.0
 10
110.182723
 20
532.962573
 30
0.0
 10
120.933612
 20
522.220354
 30
0.0
 10
124.917143
 20
507.466265
 30
0.0
 10
120.933611
 20
492.865472
 30
0.0
 10
110.182722
 20
481.672467
 30
0.0
 10
100.417341
 20
480.149921
 30
0.0
 10
95.461152
 20
479.377188
 30
0.0
 11
95.461152
 21
479.377188
 31
0.0
 11
81.271033
 21
483.215694
 31
0.0
 11
71.184772
 21
493.301951
 31
0.0
 11
67.346264
 21
507.492068
 31
0.0
 11
71.184772
 21
521.682190
 31
0.0
 11
81.271033
 21
531.768449
 31
0.0
 11
95.461152
 21
535.606956
 31
0.0
 11
109.651271
 21
531.768449
 31
0.0
 11
119.737532
 21
521.682190
 31
0.0
 11
123.576040
 21
507.492068
 31
0.0
 11
119.737532
 21
493.301951
 31
0.0
 11
109.651271
 21
483.215694
 31
0.0
 11
95.461152
 21
479.377188
 31
0.0
  0
LWPOLYLINE
  5
1df
100
AcDbEntity
  8
Layer_1
 62
3
100
AcDbPolyline
 90
3
 70
1
 10
384.845184
 20
749.911948
 30
0.0
 10
384.823344
 20
752.402540
 30
0.0
 10
365.536216
 20
751.873908
 30
0.0
  0
SPLINE
  5
1e0
100
AcDbEntity
  8
Layer_1
 62
3
100
AcDbSpline
 70
0
 71
3
 72
10
 73
6
 74
4
 40
0.000000
 40
0.000000
 40
0.000000
 40
0.000000
 40
0.509135
 40
1.012459
 40
1.512183
 40
1.512183
 40
1.512183
 40
1.512183
 10
365.536216
 20
751.873908
 30
0.0
 10
365.525358
 20
752.043297
 30
0.0
 10
365.503766
 20
752.380142
 30
0.0
 10
365.439953
 20
752.880611
 30
0.0
 10
365.376896
 20
753.209010
 30
0.0
 10
365.345480
 20
753.372620
 30
0.0
 11
365.536216
 21
751.873908
 31
0.0
 11
365.498298
 21
752.381629
 31
0.0
 11
365.434582
 21
752.880904
 31
0.0
 11
365.345480
 21
753.372620
 31
0.0
  0
LWPOLYLINE
  5
1e1
100
AcDbEntity
  8
Layer_1
 62
3
100
AcDbPolyline
 90
4
 70
1
 10
365.345480
 20
753.372620
 30
0.0
 10
374.550320
 20
755.438132
 30
0.0
 10
374.201536
 20
757.034948
 30
0.0
 10
365.083880
 20
754.348148
 30
0.0
  0
SPLINE
  5
1e2
100
AcDbEntity
  8
Layer_1
 62
3
100
AcDbSpline
 70
0
 71
3
 72
10
 73
6
 74
4
 40
0.000000
 40
0.000000
 40
0.000000
 40
0.000000
 40
0.517749
 40
1.032991
 40
1.545914
 40
1.545914
 40
1.545914
 40
1.545914
 10
365.083880
 20
754.348148
 30
0.0
 10
365.028488
 20
754.511628
 30
0.0
 10
364.917973
 20
754.837797
 30
0.0
 10
364.721341
 20
755.314647
 30
0.0
 10
364.570526
 20
755.622460
 30
0.0
 10
364.495288
 20
755.776020
 30
0.0
 11
365.083880
 21
754.348148
 31
0.0
 11
364.912461
 21
754.836696
 31
0.0
 11
364.716014
 21
755.313018
 31
0.0
 11
364.495288
 21
755.776020
 31
0.0
  0
LWPOLYLINE
  5
1e3
100
AcDbEntity
  8
Layer_1
 62
3
100
AcDbPolyline
 90
4
 70
1
 10
364.495288
 20
755.776020
 30
0.0
 10
381.362672
 20
764.664777
 30
0.0
 10
380.223648
 20
766.583129
 30
0.0
 10
364.037504
 20
756.577156
 30
0.0
  0
SPLINE
  5
1e4
100
AcDbEntity
  8
Layer_1
 62
3
100
AcDbSpline
 70
0
 71
3
 72
10
 73
6
 74
4
 40
0.000000
 40
0.000000
 40
0.000000
 40
0.000000
 40
0.578167
 40
1.154409
 40
1.730943
 40
1.730943
 40
1.730943
 40
1.730943
 10
364.037504
 20
756.577156
 30
0.0
 10
363.930943
 20
756.737787
 30
0.0
 10
363.718175
 20
757.058514
 30
0.0
 10
363.364389
 20
757.515171
 30
0.0
 10
363.108301
 20
757.801745
 30
0.0
 10
362.980224
 20
757.945068
 30
0.0
 11
364.037504
 21
756.577156
 31
0.0
 11
363.712006
 21
757.054993
 31
0.0
 11
363.359333
 21
757.510708
 31
0.0
 11
362.980224
 21
757.945068
 31
0.0
  0
LWPOLYLINE
  5
1e5
100
AcDbEntity
  8
Layer_1
 62
3
100
AcDbPolyline
 90
4
 70
1
 10
362.980224
 20
757.945068
 30
0.0
 10
369.934272
 20
764.299625
 30
0.0
 10
368.936944
 20
765.193409
 30
0.0
 10
362.413440
 20
758.517308
 30
0.0
  0
SPLINE
  5
1e6
100
AcDbEntity
  8
Layer_1
 62
3
100
AcDbSpline
 70
0
 71
3
 72
10
 73
6
 74
4
 40
0.000000
 40
0.000000
 40
0.000000
 40
0.000000
 40
0.526813
 40
1.054882
 40
1.583227
 40
1.583227
 40
1.583227
 40
1.583227
 10
362.413440
 20
758.517308
 30
0.0
 10
362.281713
 20
758.633489
 30
0.0
 10
362.017945
 20
758.866128
 30
0.0
 10
361.598224
 20
759.186902
 30
0.0
 10
361.306084
 20
759.383577
 30
0.0
 10
361.159976
 20
759.481940
 30
0.0
 11
362.413440
 21
758.517308
 31
0.0
 11
362.014297
 21
758.861134
 31
0.0
 11
361.595279
 21
759.182508
 31
0.0
 11
361.159976
 21
759.481940
 31
0.0
  0
LWPOLYLINE
  5
1e7
100
AcDbEntity
  8
Layer_1
 62
3
100
AcDbPolyline
 90
4
 70
1
 10
361.159976
 20
759.481940
 30
0.0
 10
371.313088
 20
775.624481
 30
0.0
 10
369.323888
 20
776.910649
 30
0.0
 10
360.309776
 20
759.983324
 30
0.0
  0
SPLINE
  5
1e8
100
AcDbEntity
  8
Layer_1
 62
3
100
AcDbSpline
 70
0
 71
3
 72
10
 73
6
 74
4
 40
0.000000
 40
0.000000
 40
0.000000
 40
0.000000
 40
0.464206
 40
0.929885
 40
1.397965
 40
1.397965
 40
1.397965
 40
1.397965
 10
360.309776
 20
759.983324
 30
0.0
 10
360.171115
 20
760.052051
 30
0.0
 10
359.893353
 20
760.189723
 30
0.0
 10
359.463662
 20
760.370979
 30
0.0
 10
359.170549
 20
760.475780
 30
0.0
 10
359.023616
 20
760.528316
 30
0.0
 11
360.309776
 21
759.983324
 31
0.0
 11
359.891785
 21
760.185242
 31
0.0
 11
359.462882
 21
760.366622
 31
0.0
 11
359.023616
 21
760.528316
 31
0.0
  0
LWPOLYLINE
  5
1e9
100
AcDbEntity
  8
Layer_1
 62
3
100
AcDbPolyline
 90
4
 70
1
 10
359.023616
 20
760.528316
 30
0.0
 10
361.672256
 20
769.586009
 30
0.0
 10
360.064544
 20
770.049249
 30
0.0
 10
357.971784
 20
760.822612
 30
0.0
  0
SPLINE
  5
1ea
100
AcDbEntity
  8
Layer_1
 62
3
100
AcDbSpline
 70
0
 71
3
 72
10
 73
6
 74
4
 40
0.000000
 40
0.000000
 40
0.000000
 40
0.000000
 40
0.441051
 40
0.885418
 40
1.333530
 40
1.333530
 40
1.333530
 40
1.333530
 10
357.971784
 20
760.822612
 30
0.0
 10
357.827689
 20
760.851887
 30
0.0
 10
357.538415
 20
760.910657
 30
0.0
 10
357.098017
 20
760.973266
 30
0.0
 10
356.801700
 20
760.999955
 30
0.0
 10
356.652920
 20
761.013356
 30
0.0
 11
357.971784
 21
760.822612
 31
0.0
 11
357.538720
 21
760.906169
 31
0.0
 11
357.098864
 21
760.969319
 31
0.0
 11
356.652920
 21
761.013356
 31
0.0
  0
LWPOLYLINE
  5
1eb
100
AcDbEntity
  8
Layer_1
 62
3
100
AcDbPolyline
 90
4
 70
1
 10
356.652920
 20
761.013356
 30
0.0
 10
356.930856
 20
780.191489
 30
0.0
 10
354.652808
 20
780.338625
 30
0.0
 10
355.219600
 20
761.018804
 30
0.0
  0
SPLINE
  5
1ec
100
AcDbEntity
  8
Layer_1
 62
3
100
AcDbSpline
 70
0
 71
3
 72
10
 73
6
 74
4
 40
0.000000
 40
0.000000
 40
0.000000
 40
0.000000
 40
0.473952
 40
0.943994
 40
1.410007
 40
1.410007
 40
1.410007
 40
1.410007
 10
355.219600
 20
761.018804
 30
0.0
 10
355.062138
 20
761.005777
 30
0.0
 10
354.748514
 20
760.979832
 30
0.0
 10
354.282609
 20
760.915152
 30
0.0
 10
353.976719
 20
760.853370
 30
0.0
 10
353.824432
 20
760.822612
 30
0.0
 11
355.219600
 21
761.018804
 31
0.0
 11
354.747644
 21
760.975349
 31
0.0
 11
354.282137
 21
760.910216
 31
0.0
 11
353.824432
 21
760.822612
 31
0.0
  0
LWPOLYLINE
  5
1ed
100
AcDbEntity
  8
Layer_1
 62
3
100
AcDbPolyline
 90
4
 70
1
 10
353.824432
 20
760.822612
 30
0.0
 10
351.949672
 20
770.071049
 30
0.0
 10
350.156664
 20
769.667761
 30
0.0
 10
352.925200
 20
760.582820
 30
0.0
  0
SPLINE
  5
1ee
100
AcDbEntity
  8
Layer_1
 62
3
100
AcDbSpline
 70
0
 71
3
 72
10
 73
6
 74
4
 40
0.000000
 40
0.000000
 40
0.000000
 40
0.000000
 40
0.571998
 40
1.140333
 40
1.706597
 40
1.706597
 40
1.706597
 40
1.706597
 10
352.925200
 20
760.582820
 30
0.0
 10
352.744776
 20
760.521063
 30
0.0
 10
352.385084
 20
760.397944
 30
0.0
 10
351.860582
 20
760.175982
 30
0.0
 10
351.523744
 20
760.003844
 30
0.0
 10
351.355632
 20
759.917932
 30
0.0
 11
352.925200
 21
760.582820
 31
0.0
 11
352.386250
 21
760.391209
 31
0.0
 11
351.862923
 21
760.169547
 31
0.0
 11
351.355632
 21
759.917932
 31
0.0
  0
LWPOLYLINE
  5
1ef
100
AcDbEntity
  8
Layer_1
 62
3
100
AcDbPolyline
 90
4
 70
1
 10
351.355632
 20
759.917932
 30
0.0
 10
342.695776
 20
777.052345
 30
0.0
 10
340.575768
 20
775.580881
 30
0.0
 10
350.570848
 20
759.443788
 30
0.0
  0
SPLINE
  5
1f0
100
AcDbEntity
  8
Layer_1
 62
3
100
AcDbSpline
 70
0
 71
3
 72
10
 73
6
 74
4
 40
0.000000
 40
0.000000
 40
0.000000
 40
0.000000
 40
0.470949
 40
0.941856
 40
1.411650
 40
1.411650
 40
1.411650
 40
1.411650
 10
350.570848
 20
759.443788
 30
0.0
 10
350.441211
 20
759.355227
 30
0.0
 10
350.181948
 20
759.178114
 30
0.0
 10
349.808565
 20
758.891150
 30
0.0
 10
349.571844
 20
758.685441
 30
0.0
 10
349.453624
 20
758.582708
 30
0.0
 11
350.570848
 21
759.443788
 31
0.0
 11
350.184472
 21
759.174518
 31
0.0
 11
349.811301
 21
758.887295
 31
0.0
 11
349.453624
 21
758.582708
 31
0.0
  0
LWPOLYLINE
  5
1f1
100
AcDbEntity
  8
Layer_1
 62
3
100
AcDbPolyline
 90
4
 70
1
 10
349.453624
 20
758.582708
 30
0.0
 10
343.142664
 20
765.444097
 30
0.0
 10
342.003640
 20
764.256033
 30
0.0
 10
348.848688
 20
757.988668
 30
0.0
  0
SPLINE
  5
1f2
100
AcDbEntity
  8
Layer_1
 62
3
100
AcDbSpline
 70
0
 71
3
 72
10
 73
6
 74
4
 40
0.000000
 40
0.000000
 40
0.000000
 40
0.000000
 40
0.557517
 40
1.115457
 40
1.674355
 40
1.674355
 40
1.674355
 40
1.674355
 10
348.848688
 20
757.988668
 30
0.0
 10
348.723910
 20
757.850911
 30
0.0
 10
348.474259
 20
757.575293
 30
0.0
 10
348.127625
 20
757.137080
 30
0.0
 10
347.918079
 20
756.829283
 30
0.0
 10
347.813216
 20
756.675252
 30
0.0
 11
348.848688
 21
757.988668
 31
0.0
 11
348.479031
 21
757.571321
 31
0.0
 11
348.133231
 21
757.133463
 31
0.0
 11
347.813216
 21
756.675252
 31
0.0
  0
LWPOLYLINE
  5
1f3
100
AcDbEntity
  8
Layer_1
 62
3
100
AcDbPolyline
 90
4
 70
1
 10
347.813216
 20
756.675252
 30
0.0
 10
331.725168
 20
766.768425
 30
0.0
 10
330.444448
 20
764.768321
 30
0.0
 10
347.388120
 20
755.955868
 30
0.0
  0
SPLINE
  5
1f4
100
AcDbEntity
  8
Layer_1
 62
3
100
AcDbSpline
 70
0
 71
3
 72
10
 73
6
 74
4
 40
0.000000
 40
0.000000
 40
0.000000
 40
0.000000
 40
0.591072
 40
1.185399
 40
1.782721
 40
1.782721
 40
1.782721
 40
1.782721
 10
347.388120
 20
755.955868
 30
0.0
 10
347.298211
 20
755.780508
 30
0.0
 10
347.117897
 20
755.428823
 30
0.0
 10
346.886669
 20
754.880594
 30
0.0
 10
346.759657
 20
754.504148
 30
0.0
 10
346.695992
 20
754.315452
 30
0.0
 11
347.388120
 21
755.955868
 31
0.0
 11
347.124996
 21
755.426593
 31
0.0
 11
346.893911
 21
754.879031
 31
0.0
 11
346.695992
 21
754.315452
 31
0.0
  0
LWPOLYLINE
  5
1f5
100
AcDbEntity
  8
Layer_1
 62
3
100
AcDbPolyline
 90
4
 70
1
 10
346.695992
 20
754.315452
 30
0.0
 10
337.829024
 20
757.051292
 30
0.0
 10
337.545632
 20
755.421780
 30
0.0
 10
346.494336
 20
753.579716
 30
0.0
  0
SPLINE
  5
1f6
100
AcDbEntity
  8
Layer_1
 62
3
100
AcDbSpline
 70
0
 71
3
 72
10
 73
6
 74
4
 40
0.000000
 40
0.000000
 40
0.000000
 40
0.000000
 40
0.551741
 40
1.107819
 40
1.670503
 40
1.670503
 40
1.670503
 40
1.670503
 10
346.494336
 20
753.579716
 30
0.0
 10
346.455572
 20
753.399911
 30
0.0
 10
346.377739
 20
753.038888
 30
0.0
 10
346.295572
 20
752.487518
 30
0.0
 10
346.268274
 20
752.115508
 30
0.0
 10
346.254544
 20
751.928404
 30
0.0
 11
346.494336
 21
753.579716
 31
0.0
 11
346.383833
 21
753.039153
 31
0.0
 11
346.302748
 21
752.489019
 31
0.0
 11
346.254544
 21
751.928404
 31
0.0
  0
LWPOLYLINE
  5
1f7
100
AcDbEntity
  8
Layer_1
 62
3
100
AcDbPolyline
 90
4
 70
1
 10
346.254544
 20
751.928404
 30
0.0
 10
327.130912
 20
752.462492
 30
0.0
 10
327.190912
 20
749.890156
 30
0.0
 10
346.270944
 20
750.691276
 30
0.0
  0
SPLINE
  5
1f8
100
AcDbEntity
  8
Layer_1
 62
3
100
AcDbSpline
 70
0
 71
3
 72
10
 73
6
 74
4
 40
0.000000
 40
0.000000
 40
0.000000
 40
0.000000
 40
0.478460
 40
0.951890
 40
1.422380
 40
1.422380
 40
1.422380
 40
1.422380
 10
346.270944
 20
750.691276
 30
0.0
 10
346.284804
 20
750.532370
 30
0.0
 10
346.312377
 20
750.216230
 30
0.0
 10
346.381824
 20
749.746829
 30
0.0
 10
346.446029
 20
749.438770
 30
0.0
 10
346.478032
 20
749.285220
 30
0.0
 11
346.270944
 21
750.691276
 31
0.0
 11
346.317298
 21
750.215066
 31
0.0
 11
346.386526
 21
749.746725
 31
0.0
 11
346.478032
 21
749.285220
 31
0.0
  0
LWPOLYLINE
  5
1f9
100
AcDbEntity
  8
Layer_1
 62
3
100
AcDbPolyline
 90
4
 70
1
 10
346.478032
 20
749.285220
 30
0.0
 10
337.463936
 20
747.770148
 30
0.0
 10
337.518416
 20
745.524796
 30
0.0
 10
346.723264
 20
748.396876
 30
0.0
  0
SPLINE
  5
1fa
100
AcDbEntity
  8
Layer_1
 62
3
100
AcDbSpline
 70
0
 71
3
 72
10
 73
6
 74
4
 40
0.000000
 40
0.000000
 40
0.000000
 40
0.000000
 40
0.384167
 40
0.766908
 40
1.148251
 40
1.148251
 40
1.148251
 40
1.148251
 10
346.723264
 20
748.396876
 30
0.0
 10
346.764425
 20
748.275606
 30
0.0
 10
346.846593
 20
748.033517
 30
0.0
 10
346.986168
 20
747.676905
 30
0.0
 10
347.090722
 20
747.444632
 30
0.0
 10
347.142904
 20
747.328708
 30
0.0
 11
346.723264
 21
748.396876
 31
0.0
 11
346.849519
 21
748.034048
 31
0.0
 11
346.989268
 21
747.677733
 31
0.0
 11
347.142904
 21
747.328708
 31
0.0
  0
SPLINE
  5
1fb
100
AcDbEntity
  8
Layer_1
 62
3
100
AcDbSpline
 70
0
 71
3
 72
10
 73
6
 74
4
 40
0.000000
 40
0.000000
 40
0.000000
 40
0.000000
 40
0.496069
 40
0.991065
 40
1.485945
 40
1.485945
 40
1.485945
 40
1.485945
 10
347.796840
 20
746.146076
 30
0.0
 10
347.889235
 20
746.008907
 30
0.0
 10
348.073824
 20
745.734865
 30
0.0
 10
348.376742
 20
745.342428
 30
0.0
 10
348.593269
 20
745.093405
 30
0.0
 10
348.701520
 20
744.968908
 30
0.0
 11
347.796840
 21
746.146076
 31
0.0
 11
348.078395
 21
745.737650
 31
0.0
 11
348.380451
 21
745.345499
 31
0.0
 11
348.701520
 21
744.968908
 31
0.0
  0
LWPOLYLINE
  5
1fc
100
AcDbEntity
  8
Layer_1
 62
3
100
AcDbPolyline
 90
5
 70
1
 10
347.142904
 20
747.328708
 30
0.0
 10
347.170104
 20
747.197908
 30
0.0
 10
330.242768
 20
738.178356
 30
0.0
 10
331.605240
 20
735.911204
 30
0.0
 10
347.796840
 20
746.146076
 30
0.0
  0
SPLINE
  5
1fd
100
AcDbEntity
  8
Layer_1
 62
3
100
AcDbSpline
 70
0
 71
3
 72
13
 73
9
 74
7
 40
0.000000
 40
0.000000
 40
0.000000
 40
0.000000
 40
0.050097
 40
0.104235
 40
0.163185
 40
2.953914
 40
7.392289
 40
9.709352
 40
9.709352
 40
9.709352
 40
9.709352
 10
348.701520
 20
744.968908
 30
0.0
 10
348.692826
 20
744.954611
 30
0.0
 10
348.674735
 20
744.924863
 30
0.0
 10
348.637268
 20
744.884888
 30
0.0
 10
347.881669
 20
744.279544
 30
0.0
 10
346.090123
 20
742.636077
 30
0.0
 10
343.708883
 20
740.526488
 30
0.0
 10
342.037383
 20
739.017478
 30
0.0
 10
341.464072
 20
738.499900
 30
0.0
 11
348.701520
 21
744.968908
 31
0.0
 11
348.674087
 21
744.926990
 31
0.0
 11
348.637579
 21
744.887013
 31
0.0
 11
348.592520
 21
744.849004
 31
0.0
 11
346.491241
 21
743.012486
 31
0.0
 11
343.185607
 21
740.050737
 31
0.0
 11
341.464072
 21
738.499900
 31
0.0
  0
LWPOLYLINE
  5
1fe
100
AcDbEntity
  8
Layer_1
 62
3
100
AcDbPolyline
 90
3
 70
1
 10
341.464072
 20
738.499900
 30
0.0
 10
343.055448
 20
737.197372
 30
0.0
 10
349.502648
 20
744.167780
 30
0.0
  0
SPLINE
  5
1ff
100
AcDbEntity
  8
Layer_1
 62
3
100
AcDbSpline
 70
0
 71
3
 72
10
 73
6
 74
4
 40
0.000000
 40
0.000000
 40
0.000000
 40
0.000000
 40
0.491132
 40
0.983502
 40
1.476007
 40
1.476007
 40
1.476007
 40
1.476007
 10
349.502648
 20
744.167780
 30
0.0
 10
349.627039
 20
744.061307
 30
0.0
 10
349.876136
 20
743.848093
 30
0.0
 10
350.269625
 20
743.552041
 30
0.0
 10
350.543078
 20
743.370318
 30
0.0
 10
350.679824
 20
743.279444
 30
0.0
 11
349.502648
 21
744.167780
 31
0.0
 11
349.879088
 21
743.852338
 31
0.0
 11
350.272312
 21
743.556022
 31
0.0
 11
350.679824
 21
743.279444
 31
0.0
  0
LWPOLYLINE
  5
200
100
AcDbEntity
  8
Layer_1
 62
3
100
AcDbPolyline
 90
4
 70
1
 10
350.679824
 20
743.279444
 30
0.0
 10
340.450400
 20
727.447540
 30
0.0
 10
342.630352
 20
725.997876
 30
0.0
 10
351.677152
 20
742.712660
 30
0.0
  0
SPLINE
  5
201
100
AcDbEntity
  8
Layer_1
 62
3
100
AcDbSpline
 70
0
 71
3
 72
10
 73
6
 74
4
 40
0.000000
 40
0.000000
 40
0.000000
 40
0.000000
 40
0.431422
 40
0.864348
 40
1.299318
 40
1.299318
 40
1.299318
 40
1.299318
 10
351.677152
 20
742.712660
 30
0.0
 10
351.807394
 20
742.651642
 30
0.0
 10
352.068332
 20
742.529394
 30
0.0
 10
352.470644
 20
742.368207
 30
0.0
 10
352.744389
 20
742.274550
 30
0.0
 10
352.881584
 20
742.227612
 30
0.0
 11
351.677152
 21
742.712660
 31
0.0
 11
352.069545
 21
742.533349
 31
0.0
 11
352.471260
 21
742.371946
 31
0.0
 11
352.881584
 21
742.227612
 31
0.0
  0
LWPOLYLINE
  5
202
100
AcDbEntity
  8
Layer_1
 62
3
100
AcDbPolyline
 90
4
 70
1
 10
352.881584
 20
742.227612
 30
0.0
 10
350.096688
 20
733.344316
 30
0.0
 10
351.906048
 20
732.853828
 30
0.0
 10
354.036952
 20
741.927876
 30
0.0
  0
SPLINE
  5
203
100
AcDbEntity
  8
Layer_1
 62
3
100
AcDbSpline
 70
0
 71
3
 72
10
 73
6
 74
4
 40
0.000000
 40
0.000000
 40
0.000000
 40
0.000000
 40
0.412750
 40
0.828824
 40
1.247944
 40
1.247944
 40
1.247944
 40
1.247944
 10
354.036952
 20
741.927876
 30
0.0
 10
354.172346
 20
741.903345
 30
0.0
 10
354.444224
 20
741.854086
 30
0.0
 10
354.857138
 20
741.801590
 30
0.0
 10
355.134757
 20
741.780441
 30
0.0
 10
355.274072
 20
741.769828
 30
0.0
 11
354.036952
 21
741.927876
 31
0.0
 11
354.443719
 21
741.857853
 31
0.0
 11
354.856447
 21
741.805189
 31
0.0
 11
355.274072
 21
741.769828
 31
0.0
  0
LWPOLYLINE
  5
204
100
AcDbEntity
  8
Layer_1
 62
3
100
AcDbPolyline
 90
4
 70
1
 10
355.274072
 20
741.769828
 30
0.0
 10
354.592840
 20
722.956836
 30
0.0
 10
357.312328
 20
722.913236
 30
0.0
 10
356.734640
 20
741.786172
 30
0.0
  0
SPLINE
  5
205
100
AcDbEntity
  8
Layer_1
 62
3
100
AcDbSpline
 70
0
 71
3
 72
10
 73
6
 74
4
 40
0.000000
 40
0.000000
 40
0.000000
 40
0.000000
 40
0.422449
 40
0.841571
 40
1.257921
 40
1.257921
 40
1.257921
 40
1.257921
 10
356.734640
 20
741.786172
 30
0.0
 10
356.874775
 20
741.800175
 30
0.0
 10
357.153941
 20
741.828070
 30
0.0
 10
357.568573
 20
741.892269
 30
0.0
 10
357.841298
 20
741.948763
 30
0.0
 10
357.977208
 20
741.976916
 30
0.0
 11
356.734640
 21
741.786172
 31
0.0
 11
357.154599
 21
741.831974
 31
0.0
 11
357.568817
 21
741.895897
 31
0.0
 11
357.977208
 21
741.976916
 31
0.0
  0
LWPOLYLINE
  5
206
100
AcDbEntity
  8
Layer_1
 62
3
100
AcDbPolyline
 90
4
 70
1
 10
357.977208
 20
741.976916
 30
0.0
 10
360.042720
 20
732.913772
 30
0.0
 10
361.688584
 20
733.426060
 30
0.0
 10
358.996336
 20
742.254860
 30
0.0
  0
SPLINE
  5
207
100
AcDbEntity
  8
Layer_1
 62
3
100
AcDbSpline
 70
0
 71
3
 72
10
 73
6
 74
4
 40
0.000000
 40
0.000000
 40
0.000000
 40
0.000000
 40
0.504969
 40
1.007161
 40
1.507735
 40
1.507735
 40
1.507735
 40
1.507735
 10
358.996336
 20
742.254860
 30
0.0
 10
359.154906
 20
742.311399
 30
0.0
 10
359.471173
 20
742.424165
 30
0.0
 10
359.933422
 20
742.622596
 30
0.0
 10
360.231706
 20
742.773546
 30
0.0
 10
360.380608
 20
742.848900
 30
0.0
 11
358.996336
 21
742.254860
 31
0.0
 11
359.470164
 21
742.429450
 31
0.0
 11
359.931623
 21
742.627569
 31
0.0
 11
360.380608
 21
742.848900
 31
0.0
  0
LWPOLYLINE
  5
208
100
AcDbEntity
  8
Layer_1
 62
3
100
AcDbPolyline
 90
4
 70
1
 10
360.380608
 20
742.848900
 30
0.0
 10
369.280264
 20
726.199516
 30
0.0
 10
371.601912
 20
727.343996
 30
0.0
 10
361.236240
 20
743.361188
 30
0.0
  0
SPLINE
  5
209
100
AcDbEntity
  8
Layer_1
 62
3
100
AcDbSpline
 70
0
 71
3
 72
10
 73
6
 74
4
 40
0.000000
 40
0.000000
 40
0.000000
 40
0.000000
 40
0.466978
 40
0.933808
 40
1.399670
 40
1.399670
 40
1.399670
 40
1.399670
 10
361.236240
 20
743.361188
 30
0.0
 10
361.364607
 20
743.449261
 30
0.0
 10
361.621300
 20
743.625379
 30
0.0
 10
361.990976
 20
743.910598
 30
0.0
 10
362.225452
 20
744.114816
 30
0.0
 10
362.342568
 20
744.216820
 30
0.0
 11
361.236240
 21
743.361188
 31
0.0
 11
361.618826
 21
743.628951
 31
0.0
 11
361.988260
 21
743.914342
 31
0.0
 11
362.342568
 21
744.216820
 31
0.0
  0
LWPOLYLINE
  5
20a
100
AcDbEntity
  8
Layer_1
 62
3
100
AcDbPolyline
 90
4
 70
1
 10
362.342568
 20
744.216820
 30
0.0
 10
368.849720
 20
737.360868
 30
0.0
 10
370.315744
 20
738.630692
 30
0.0
 10
363.203648
 20
745.099692
 30
0.0
  0
SPLINE
  5
20b
100
AcDbEntity
  8
Layer_1
 62
3
100
AcDbSpline
 70
0
 71
3
 72
10
 73
6
 74
4
 40
0.000000
 40
0.000000
 40
0.000000
 40
0.000000
 40
0.264964
 40
0.529915
 40
0.795159
 40
0.795159
 40
0.795159
 40
0.795159
 10
363.203648
 20
745.099692
 30
0.0
 10
363.260894
 20
745.166951
 30
0.0
 10
363.375383
 20
745.301467
 30
0.0
 10
363.541348
 20
745.508213
 30
0.0
 10
363.646819
 20
745.650037
 30
0.0
 10
363.699584
 20
745.720988
 30
0.0
 11
363.203648
 21
745.099692
 31
0.0
 11
363.374414
 21
745.302287
 31
0.0
 11
363.539991
 21
745.509129
 31
0.0
 11
363.699584
 21
745.720988
 31
0.0
  0
LWPOLYLINE
  5
20c
100
AcDbEntity
  8
Layer_1
 62
3
100
AcDbPolyline
 90
10
 70
1
 10
363.699584
 20
745.720988
 30
0.0
 10
363.928480
 20
745.933524
 30
0.0
 10
380.267224
 20
735.992948
 30
0.0
 10
381.607896
 20
738.325500
 30
0.0
 10
364.724168
 20
746.996260
 30
0.0
 10
365.051160
 20
748.342380
 30
0.0
 10
374.365000
 20
745.546596
 30
0.0
 10
374.833688
 20
747.219700
 30
0.0
 10
365.334552
 20
749.339700
 30
0.0
 10
365.334552
 20
749.383300
 30
0.0
  0
LWPOLYLINE
  5
20d
100
AcDbEntity
  8
Layer_1
 62
3
100
AcDbPolyline
 90
3
 70
1
 10
365.525296
 20
750.756668
 30
0.0
 10
384.845120
 20
749.911940
 30
0.0
 10
384.845184
 20
749.911948
 30
0.0
  0
LWPOLYLINE
  5
20e
100
AcDbEntity
  8
Layer_1
 62
3
100
AcDbPolyline
 90
3
 70
0
 10
319.371694
 20
787.404150
 30
0.0
 10
312.186082
 20
787.404150
 30
0.0
 10
312.186082
 20
783.298085
 30
0.0
  0
LWPOLYLINE
  5
20f
100
AcDbEntity
  8
Layer_1
 62
3
100
AcDbPolyline
 90
5
 70
0
 10
319.371694
 20
781.929397
 30
0.0
 10
319.029522
 20
781.587225
 30
0.0
 10
319.371694
 20
781.245053
 30
0.0
 10
319.713866
 20
781.587225
 30
0.0
 10
319.371694
 20
781.929397
 30
0.0
  0
LWPOLYLINE
  5
210
100
AcDbEntity
  8
Layer_1
 62
3
100
AcDbPolyline
 90
2
 70
0
 10
316.976490
 20
781.587225
 30
0.0
 10
312.186082
 20
781.587225
 30
0.0
  0
LWPOLYLINE
  5
211
100
AcDbEntity
  8
Layer_1
 62
3
100
AcDbPolyline
 90
7
 70
0
 10
316.976490
 20
775.085957
 30
0.0
 10
311.501737
 20
775.085957
 30
0.0
 10
310.475221
 20
775.428129
 30
0.0
 10
310.133049
 20
775.770301
 30
0.0
 10
309.790877
 20
776.454645
 30
0.0
 10
309.790877
 20
777.481161
 30
0.0
 10
310.133049
 20
778.165505
 30
0.0
  0
LWPOLYLINE
  5
212
100
AcDbEntity
  8
Layer_1
 62
3
100
AcDbPolyline
 90
14
 70
0
 10
315.949974
 20
775.085957
 30
0.0
 10
316.634318
 20
775.770301
 30
0.0
 10
316.976490
 20
776.454645
 30
0.0
 10
316.976490
 20
777.481161
 30
0.0
 10
316.634318
 20
778.165505
 30
0.0
 10
315.949974
 20
778.849849
 30
0.0
 10
314.923458
 20
779.192021
 30
0.0
 10
314.239114
 20
779.192021
 30
0.0
 10
313.212598
 20
778.849849
 30
0.0
 10
312.528254
 20
778.165505
 30
0.0
 10
312.186082
 20
777.481161
 30
0.0
 10
312.186082
 20
776.454645
 30
0.0
 10
312.528254
 20
775.770301
 30
0.0
 10
313.212598
 20
775.085957
 30
0.0
  0
LWPOLYLINE
  5
213
100
AcDbEntity
  8
Layer_1
 62
3
100
AcDbPolyline
 90
2
 70
0
 10
319.371694
 20
772.348580
 30
0.0
 10
312.186082
 20
772.348580
 30
0.0
  0
LWPOLYLINE
  5
214
100
AcDbEntity
  8
Layer_1
 62
3
100
AcDbPolyline
 90
7
 70
0
 10
315.607802
 20
772.348580
 30
0.0
 10
316.634318
 20
771.322064
 30
0.0
 10
316.976490
 20
770.637720
 30
0.0
 10
316.976490
 20
769.611204
 30
0.0
 10
316.634318
 20
768.926860
 30
0.0
 10
315.607802
 20
768.584688
 30
0.0
 10
312.186082
 20
768.584688
 30
0.0
  0
LWPOLYLINE
  5
215
100
AcDbEntity
  8
Layer_1
 62
3
100
AcDbPolyline
 90
5
 70
0
 10
319.371694
 20
765.505140
 30
0.0
 10
313.554770
 20
765.505140
 30
0.0
 10
312.528254
 20
765.162968
 30
0.0
 10
312.186082
 20
764.478624
 30
0.0
 10
312.186082
 20
763.794280
 30
0.0
  0
LWPOLYLINE
  5
216
100
AcDbEntity
  8
Layer_1
 62
3
100
AcDbPolyline
 90
2
 70
0
 10
316.976490
 20
766.531656
 30
0.0
 10
316.976490
 20
764.136452
 30
0.0
  0
LWPOLYLINE
  5
217
100
AcDbEntity
  8
Layer_1
 62
3
100
AcDbPolyline
 90
2
 70
0
 10
319.371694
 20
762.425592
 30
0.0
 10
312.186082
 20
760.714731
 30
0.0
  0
LWPOLYLINE
  5
218
100
AcDbEntity
  8
Layer_1
 62
3
100
AcDbPolyline
 90
2
 70
0
 10
319.371694
 20
759.003871
 30
0.0
 10
312.186082
 20
760.714731
 30
0.0
  0
LWPOLYLINE
  5
219
100
AcDbEntity
  8
Layer_1
 62
3
100
AcDbPolyline
 90
2
 70
0
 10
319.371694
 20
759.003871
 30
0.0
 10
312.186082
 20
757.293011
 30
0.0
  0
LWPOLYLINE
  5
21a
100
AcDbEntity
  8
Layer_1
 62
3
100
AcDbPolyline
 90
2
 70
0
 10
319.371694
 20
755.582151
 30
0.0
 10
312.186082
 20
757.293011
 30
0.0
  0
LWPOLYLINE
  5
21b
100
AcDbEntity
  8
Layer_1
 62
3
100
AcDbPolyline
 90
17
 70
0
 10
316.976490
 20
752.160431
 30
0.0
 10
316.634318
 20
752.844775
 30
0.0
 10
315.949974
 20
753.529119
 30
0.0
 10
314.923458
 20
753.871291
 30
0.0
 10
314.239114
 20
753.871291
 30
0.0
 10
313.212598
 20
753.529119
 30
0.0
 10
312.528254
 20
752.844775
 30
0.0
 10
312.186082
 20
752.160431
 30
0.0
 10
312.186082
 20
751.133914
 30
0.0
 10
312.528254
 20
750.449570
 30
0.0
 10
313.212598
 20
749.765226
 30
0.0
 10
314.239114
 20
749.423054
 30
0.0
 10
314.923458
 20
749.423054
 30
0.0
 10
315.949974
 20
749.765226
 30
0.0
 10
316.634318
 20
750.449570
 30
0.0
 10
316.976490
 20
751.133914
 30
0.0
 10
316.976490
 20
752.160431
 30
0.0
  0
LWPOLYLINE
  5
21c
100
AcDbEntity
  8
Layer_1
 62
3
100
AcDbPolyline
 90
2
 70
0
 10
316.976490
 20
747.027850
 30
0.0
 10
312.186082
 20
747.027850
 30
0.0
  0
LWPOLYLINE
  5
21d
100
AcDbEntity
  8
Layer_1
 62
3
100
AcDbPolyline
 90
5
 70
0
 10
314.923458
 20
747.027850
 30
0.0
 10
315.949974
 20
746.685678
 30
0.0
 10
316.634318
 20
746.001334
 30
0.0
 10
316.976490
 20
745.316990
 30
0.0
 10
316.976490
 20
744.290474
 30
0.0
  0
LWPOLYLINE
  5
21e
100
AcDbEntity
  8
Layer_1
 62
3
100
AcDbPolyline
 90
2
 70
0
 10
319.371694
 20
742.579614
 30
0.0
 10
312.186082
 20
742.579614
 30
0.0
  0
LWPOLYLINE
  5
21f
100
AcDbEntity
  8
Layer_1
 62
3
100
AcDbPolyline
 90
2
 70
0
 10
316.976490
 20
739.157893
 30
0.0
 10
313.554770
 20
742.579614
 30
0.0
  0
LWPOLYLINE
  5
220
100
AcDbEntity
  8
Layer_1
 62
3
100
AcDbPolyline
 90
2
 70
0
 10
314.923458
 20
741.210926
 30
0.0
 10
312.186082
 20
738.815721
 30
0.0
  0
LWPOLYLINE
  5
221
100
AcDbEntity
  8
Layer_1
 62
3
100
AcDbPolyline
 90
17
 70
0
 10
315.949974
 20
733.340969
 30
0.0
 10
316.634318
 20
733.683141
 30
0.0
 10
316.976490
 20
734.709657
 30
0.0
 10
316.976490
 20
735.736173
 30
0.0
 10
316.634318
 20
736.762689
 30
0.0
 10
315.949974
 20
737.104861
 30
0.0
 10
315.265630
 20
736.762689
 30
0.0
 10
314.923458
 20
736.078345
 30
0.0
 10
314.581286
 20
734.367485
 30
0.0
 10
314.239114
 20
733.683141
 30
0.0
 10
313.554770
 20
733.340969
 30
0.0
 10
313.212598
 20
733.340969
 30
0.0
 10
312.528254
 20
733.683141
 30
0.0
 10
312.186082
 20
734.709657
 30
0.0
 10
312.186082
 20
735.736173
 30
0.0
 10
312.528254
 20
736.762689
 30
0.0
 10
313.212598
 20
737.104861
 30
0.0
  0
LWPOLYLINE
  5
222
100
AcDbEntity
  8
Layer_1
 62
3
100
AcDbPolyline
 90
3
 70
0
 10
309.324271
 20
787.765039
 30
0.0
 10
302.138658
 20
787.765039
 30
0.0
 10
302.138658
 20
783.658974
 30
0.0
  0
LWPOLYLINE
  5
223
100
AcDbEntity
  8
Layer_1
 62
3
100
AcDbPolyline
 90
2
 70
0
 10
306.929067
 20
778.184222
 30
0.0
 10
302.138658
 20
778.184222
 30
0.0
  0
LWPOLYLINE
  5
224
100
AcDbEntity
  8
Layer_1
 62
3
100
AcDbPolyline
 90
14
 70
0
 10
305.902551
 20
778.184222
 30
0.0
 10
306.586895
 20
778.868566
 30
0.0
 10
306.929067
 20
779.552910
 30
0.0
 10
306.929067
 20
780.579426
 30
0.0
 10
306.586895
 20
781.263770
 30
0.0
 10
305.902551
 20
781.948114
 30
0.0
 10
304.876035
 20
782.290286
 30
0.0
 10
304.191691
 20
782.290286
 30
0.0
 10
303.165174
 20
781.948114
 30
0.0
 10
302.480830
 20
781.263770
 30
0.0
 10
302.138658
 20
780.579426
 30
0.0
 10
302.138658
 20
779.552910
 30
0.0
 10
302.480830
 20
778.868566
 30
0.0
 10
303.165174
 20
778.184222
 30
0.0
  0
LWPOLYLINE
  5
225
100
AcDbEntity
  8
Layer_1
 62
3
100
AcDbPolyline
 90
17
 70
0
 10
305.902551
 20
772.025125
 30
0.0
 10
306.586895
 20
772.367297
 30
0.0
 10
306.929067
 20
773.393813
 30
0.0
 10
306.929067
 20
774.420329
 30
0.0
 10
306.586895
 20
775.446846
 30
0.0
 10
305.902551
 20
775.789018
 30
0.0
 10
305.218207
 20
775.446846
 30
0.0
 10
304.876035
 20
774.762501
 30
0.0
 10
304.533863
 20
773.051641
 30
0.0
 10
304.191691
 20
772.367297
 30
0.0
 10
303.507346
 20
772.025125
 30
0.0
 10
303.165174
 20
772.025125
 30
0.0
 10
302.480830
 20
772.367297
 30
0.0
 10
302.138658
 20
773.393813
 30
0.0
 10
302.138658
 20
774.420329
 30
0.0
 10
302.480830
 20
775.446846
 30
0.0
 10
303.165174
 20
775.789018
 30
0.0
  0
LWPOLYLINE
  5
226
100
AcDbEntity
  8
Layer_1
 62
3
100
AcDbPolyline
 90
17
 70
0
 10
304.876035
 20
769.972093
 30
0.0
 10
304.876035
 20
765.866018
 30
0.0
 10
305.560379
 20
765.866018
 30
0.0
 10
306.244723
 20
766.208190
 30
0.0
 10
306.586895
 20
766.550362
 30
0.0
 10
306.929067
 20
767.234707
 30
0.0
 10
306.929067
 20
768.261223
 30
0.0
 10
306.586895
 20
768.945567
 30
0.0
 10
305.902551
 20
769.629911
 30
0.0
 10
304.876035
 20
769.972093
 30
0.0
 10
304.191691
 20
769.972093
 30
0.0
 10
303.165174
 20
769.629911
 30
0.0
 10
302.480830
 20
768.945567
 30
0.0
 10
302.138658
 20
768.261223
 30
0.0
 10
302.138658
 20
767.234707
 30
0.0
 10
302.480830
 20
766.550362
 30
0.0
 10
303.165174
 20
765.866018
 30
0.0
  0
LWPOLYLINE
  5
227
100
AcDbEntity
  8
Layer_1
 62
3
100
AcDbPolyline
 90
2
 70
0
 10
306.929067
 20
763.470814
 30
0.0
 10
302.138658
 20
763.470814
 30
0.0
  0
LWPOLYLINE
  5
228
100
AcDbEntity
  8
Layer_1
 62
3
100
AcDbPolyline
 90
5
 70
0
 10
304.876035
 20
763.470814
 30
0.0
 10
305.902551
 20
763.128642
 30
0.0
 10
306.586895
 20
762.444298
 30
0.0
 10
306.929067
 20
761.759954
 30
0.0
 10
306.929067
 20
760.733438
 30
0.0
  0
LWPOLYLINE
  5
229
100
AcDbEntity
  8
Layer_1
 62
3
100
AcDbPolyline
 90
2
 70
0
 10
309.324271
 20
753.547825
 30
0.0
 10
302.138658
 20
753.547825
 30
0.0
  0
LWPOLYLINE
  5
22a
100
AcDbEntity
  8
Layer_1
 62
3
100
AcDbPolyline
 90
10
 70
0
 10
309.324271
 20
753.547825
 30
0.0
 10
309.324271
 20
750.468277
 30
0.0
 10
308.982099
 20
749.441761
 30
0.0
 10
308.639927
 20
749.099589
 30
0.0
 10
307.955583
 20
748.757417
 30
0.0
 10
306.929067
 20
748.757417
 30
0.0
 10
306.244723
 20
749.099589
 30
0.0
 10
305.902551
 20
749.441761
 30
0.0
 10
305.560379
 20
750.468277
 30
0.0
 10
305.560379
 20
753.547825
 30
0.0
  0
LWPOLYLINE
  5
22b
100
AcDbEntity
  8
Layer_1
 62
3
100
AcDbPolyline
 90
2
 70
0
 10
306.929067
 20
746.362213
 30
0.0
 10
302.138658
 20
746.362213
 30
0.0
  0
LWPOLYLINE
  5
22c
100
AcDbEntity
  8
Layer_1
 62
3
100
AcDbPolyline
 90
5
 70
0
 10
304.876035
 20
746.362213
 30
0.0
 10
305.902551
 20
746.020041
 30
0.0
 10
306.586895
 20
745.335696
 30
0.0
 10
306.929067
 20
744.651352
 30
0.0
 10
306.929067
 20
743.624836
 30
0.0
  0
LWPOLYLINE
  5
22d
100
AcDbEntity
  8
Layer_1
 62
3
100
AcDbPolyline
 90
17
 70
0
 10
306.929067
 20
740.545288
 30
0.0
 10
306.586895
 20
741.229632
 30
0.0
 10
305.902551
 20
741.913976
 30
0.0
 10
304.876035
 20
742.256148
 30
0.0
 10
304.191691
 20
742.256148
 30
0.0
 10
303.165174
 20
741.913976
 30
0.0
 10
302.480830
 20
741.229632
 30
0.0
 10
302.138658
 20
740.545288
 30
0.0
 10
302.138658
 20
739.518772
 30
0.0
 10
302.480830
 20
738.834428
 30
0.0
 10
303.165174
 20
738.150084
 30
0.0
 10
304.191691
 20
737.807912
 30
0.0
 10
304.876035
 20
737.807912
 30
0.0
 10
305.902551
 20
738.150084
 30
0.0
 10
306.586895
 20
738.834428
 30
0.0
 10
306.929067
 20
739.518772
 30
0.0
 10
306.929067
 20
740.545288
 30
0.0
  0
LWPOLYLINE
  5
22e
100
AcDbEntity
  8
Layer_1
 62
3
100
AcDbPolyline
 90
5
 70
0
 10
309.324271
 20
735.070536
 30
0.0
 10
308.982099
 20
734.728363
 30
0.0
 10
309.324271
 20
734.386191
 30
0.0
 10
309.666443
 20
734.728363
 30
0.0
 10
309.324271
 20
735.070536
 30
0.0
  0
LWPOLYLINE
  5
22f
100
AcDbEntity
  8
Layer_1
 62
3
100
AcDbPolyline
 90
5
 70
0
 10
306.929067
 20
734.728363
 30
0.0
 10
301.112142
 20
734.728363
 30
0.0
 10
300.085626
 20
735.070536
 30
0.0
 10
299.743454
 20
735.754880
 30
0.0
 10
299.743454
 20
736.439224
 30
0.0
  0
LWPOLYLINE
  5
230
100
AcDbEntity
  8
Layer_1
 62
3
100
AcDbPolyline
 90
17
 70
0
 10
304.876035
 20
732.333159
 30
0.0
 10
304.876035
 20
728.227095
 30
0.0
 10
305.560379
 20
728.227095
 30
0.0
 10
306.244723
 20
728.569267
 30
0.0
 10
306.586895
 20
728.911439
 30
0.0
 10
306.929067
 20
729.595783
 30
0.0
 10
306.929067
 20
730.622299
 30
0.0
 10
306.586895
 20
731.306643
 30
0.0
 10
305.902551
 20
731.990987
 30
0.0
 10
304.876035
 20
732.333159
 30
0.0
 10
304.191691
 20
732.333159
 30
0.0
 10
303.165174
 20
731.990987
 30
0.0
 10
302.480830
 20
731.306643
 30
0.0
 10
302.138658
 20
730.622299
 30
0.0
 10
302.138658
 20
729.595783
 30
0.0
 10
302.480830
 20
728.911439
 30
0.0
 10
303.165174
 20
728.227095
 30
0.0
  0
LWPOLYLINE
  5
231
100
AcDbEntity
  8
Layer_1
 62
3
100
AcDbPolyline
 90
14
 70
0
 10
305.902551
 20
722.067998
 30
0.0
 10
306.586895
 20
722.752342
 30
0.0
 10
306.929067
 20
723.436686
 30
0.0
 10
306.929067
 20
724.463203
 30
0.0
 10
306.586895
 20
725.147547
 30
0.0
 10
305.902551
 20
725.831891
 30
0.0
 10
304.876035
 20
726.174063
 30
0.0
 10
304.191691
 20
726.174063
 30
0.0
 10
303.165174
 20
725.831891
 30
0.0
 10
302.480830
 20
725.147547
 30
0.0
 10
302.138658
 20
724.463203
 30
0.0
 10
302.138658
 20
723.436686
 30
0.0
 10
302.480830
 20
722.752342
 30
0.0
 10
303.165174
 20
722.067998
 30
0.0
  0
LWPOLYLINE
  5
232
100
AcDbEntity
  8
Layer_1
 62
3
100
AcDbPolyline
 90
5
 70
0
 10
309.324271
 20
719.330622
 30
0.0
 10
303.507346
 20
719.330622
 30
0.0
 10
302.480830
 20
718.988450
 30
0.0
 10
302.138658
 20
718.304106
 30
0.0
 10
302.138658
 20
717.619762
 30
0.0
  0
LWPOLYLINE
  5
233
100
AcDbEntity
  8
Layer_1
 62
3
100
AcDbPolyline
 90
2
 70
0
 10
306.929067
 20
720.357138
 30
0.0
 10
306.929067
 20
717.961934
 30
0.0
  0
LWPOLYLINE
  5
234
100
AcDbEntity
  8
Layer_1
 62
3
100
AcDbPolyline
 90
17
 70
0
 10
305.902551
 20
712.145009
 30
0.0
 10
306.586895
 20
712.487181
 30
0.0
 10
306.929067
 20
713.513697
 30
0.0
 10
306.929067
 20
714.540214
 30
0.0
 10
306.586895
 20
715.566730
 30
0.0
 10
305.902551
 20
715.908902
 30
0.0
 10
305.218207
 20
715.566730
 30
0.0
 10
304.876035
 20
714.882386
 30
0.0
 10
304.533863
 20
713.171525
 30
0.0
 10
304.191691
 20
712.487181
 30
0.0
 10
303.507346
 20
712.145009
 30
0.0
 10
303.165174
 20
712.145009
 30
0.0
 10
302.480830
 20
712.487181
 30
0.0
 10
302.138658
 20
713.513697
 30
0.0
 10
302.138658
 20
714.540214
 30
0.0
 10
302.480830
 20
715.566730
 30
0.0
 10
303.165174
 20
715.908902
 30
0.0
  0
LWPOLYLINE
  5
235
100
AcDbEntity
  8
Layer_1
 62
3
100
AcDbPolyline
 90
5
 70
1
 10
389.452640
 20
793.253463
 30
0.0
 10
389.452640
 20
708.103972
 30
0.0
 10
289.579032
 20
708.103972
 30
0.0
 10
289.579032
 20
793.253463
 30
0.0
 10
389.452640
 20
793.253463
 30
0.0
  0
LWPOLYLINE
  5
236
100
AcDbEntity
  8
Layer_1
 62
7
100
AcDbPolyline
 90
41
 70
1
 10
140.849520
 20
454.873972
 30
0.0
 10
121.006984
 20
454.873972
 30
0.0
 10
121.006984
 20
446.370028
 30
0.0
 10
101.164448
 20
446.370028
 30
0.0
 10
101.164448
 20
454.873972
 30
0.0
 10
86.991208
 20
454.873972
 30
0.0
 10
86.991208
 20
446.370028
 30
0.0
 10
72.817968
 20
446.370028
 30
0.0
 10
72.817968
 20
454.873972
 30
0.0
 10
58.644728
 20
454.873972
 30
0.0
 10
58.644728
 20
446.370028
 30
0.0
 10
38.802192
 20
446.370028
 30
0.0
 10
38.802192
 20
454.873972
 30
0.0
 10
18.959656
 20
454.873972
 30
0.0
 10
18.959656
 20
466.212564
 30
0.0
 10
27.463600
 20
466.212564
 30
0.0
 10
27.463600
 20
486.055100
 30
0.0
 10
18.959656
 20
486.055100
 30
0.0
 10
18.959656
 20
500.228340
 30
0.0
 10
27.463600
 20
500.228340
 30
0.0
 10
27.463600
 20
514.401580
 30
0.0
 10
18.959656
 20
514.401580
 30
0.0
 10
18.959656
 20
528.574820
 30
0.0
 10
27.463600
 20
528.574820
 30
0.0
 10
27.463600
 20
548.417356
 30
0.0
 10
18.959656
 20
548.417356
 30
0.0
 10
18.959656
 20
559.755948
 30
0.0
 10
38.802192
 20
559.755948
 30
0.0
 10
38.802192
 20
568.259892
 30
0.0
 10
58.644728
 20
568.259892
 30
0.0
 10
58.644728
 20
559.755948
 30
0.0
 10
72.817968
 20
559.755948
 30
0.0
 10
72.817968
 20
568.259892
 30
0.0
 10
86.991208
 20
568.259892
 30
0.0
 10
86.991208
 20
559.755948
 30
0.0
 10
101.164448
 20
559.755948
 30
0.0
 10
101.164448
 20
568.259892
 30
0.0
 10
121.006984
 20
568.259892
 30
0.0
 10
121.006984
 20
559.755948
 30
0.0
 10
140.849520
 20
559.755948
 30
0.0
 10
140.849520
 20
454.873972
 30
0.0
  0
SPLINE
  5
237
100
AcDbEntity
  8
Layer_1
 62
3
100
AcDbSpline
 70
0
 71
3
 72
10
 73
6
 74
4
 40
0.000000
 40
0.000000
 40
0.000000
 40
0.000000
 40
0.459042
 40
0.920869
 40
1.387624
 40
1.387624
 40
1.387624
 40
1.387624
 10
365.334552
 20
749.383300
 30
0.0
 10
365.364299
 20
749.533412
 30
0.0
 10
365.423972
 20
749.834547
 30
0.0
 10
365.488121
 20
750.292979
 30
0.0
 10
365.512860
 20
750.601559
 30
0.0
 10
365.525296
 20
750.756668
 30
0.0
 11
365.334552
 21
749.383300
 31
0.0
 11
365.419542
 21
749.834405
 31
0.0
 11
365.483394
 21
750.291797
 31
0.0
 11
365.525296
 21
750.756668
 31
0.0
  0
LWPOLYLINE
  5
238
100
AcDbEntity
  8
Layer_1
 62
7
100
AcDbPolyline
 90
41
 70
1
 10
264.046720
 20
454.956012
 30
0.0
 10
244.204184
 20
454.956012
 30
0.0
 10
244.204184
 20
446.452068
 30
0.0
 10
224.361648
 20
446.452068
 30
0.0
 10
224.361648
 20
454.956012
 30
0.0
 10
210.188408
 20
454.956012
 30
0.0
 10
210.188408
 20
446.452068
 30
0.0
 10
196.015168
 20
446.452068
 30
0.0
 10
196.015168
 20
454.956012
 30
0.0
 10
181.841928
 20
454.956012
 30
0.0
 10
181.841928
 20
446.452068
 30
0.0
 10
161.999392
 20
446.452068
 30
0.0
 10
161.999392
 20
454.956012
 30
0.0
 10
142.156856
 20
454.956012
 30
0.0
 10
142.156856
 20
466.294604
 30
0.0
 10
150.660800
 20
466.294604
 30
0.0
 10
150.660800
 20
486.137140
 30
0.0
 10
142.156856
 20
486.137140
 30
0.0
 10
142.156856
 20
500.310380
 30
0.0
 10
150.660800
 20
500.310380
 30
0.0
 10
150.660800
 20
514.483620
 30
0.0
 10
142.156856
 20
514.483620
 30
0.0
 10
142.156856
 20
528.656860
 30
0.0
 10
150.660800
 20
528.656860
 30
0.0
 10
150.660800
 20
548.499396
 30
0.0
 10
142.156856
 20
548.499396
 30
0.0
 10
142.156856
 20
559.837988
 30
0.0
 10
161.999392
 20
559.837988
 30
0.0
 10
161.999392
 20
568.341932
 30
0.0
 10
181.841928
 20
568.341932
 30
0.0
 10
181.841928
 20
559.837988
 30
0.0
 10
196.015168
 20
559.837988
 30
0.0
 10
196.015168
 20
568.341932
 30
0.0
 10
210.188408
 20
568.341932
 30
0.0
 10
210.188408
 20
559.837988
 30
0.0
 10
224.361648
 20
559.837988
 30
0.0
 10
224.361648
 20
568.341932
 30
0.0
 10
244.204184
 20
568.341932
 30
0.0
 10
244.204184
 20
559.837988
 30
0.0
 10
264.046720
 20
559.837988
 30
0.0
 10
264.046720
 20
454.956012
 30
0.0
  0
ENDSEC
  0
SECTION
  2
OBJECTS
  0
DICTIONARY
  5
C
330
0
100
AcDbDictionary
  3
ACAD_GROUP
350
D
  3
ACAD_MLINESTYLE
350
17
  0
DICTIONARY
  5
D
330
C
100
AcDbDictionary
  0
DICTIONARY
  5
1A
330
C
100
AcDbDictionary
  0
DICTIONARY
  5
17
330
C
100
AcDbDictionary
  3
STANDARD
350
18
  0
DICTIONARY
  5
19
330
C
100
AcDbDictionary
  0
ENDSEC
  0
EOF
