  0
SECTION
  2
HEADER
  9
$ACADVER
  1
AC1015
  9
$ACADMAINTVER
 70
     6
  9
$DWGCODEPAGE
  3
ANSI_932
  9
$INSBASE
 10
0.0
 20
0.0
 30
0.0
  9
$EXTMIN
 10
1.000000000000000E+20
 20
1.000000000000000E+20
 30
1.000000000000000E+20
  9
$EXTMAX
 10
-1.000000000000000E+20
 20
-1.000000000000000E+20
 30
-1.000000000000000E+20
  9
$LIMMIN
 10
0.0
 20
0.0
  9
$LIMMAX
 10
12.0
 20
9.0
  9
$ORTHOMODE
 70
     0
  9
$REGENMODE
 70
     1
  9
$FILLMODE
 70
     1
  9
$QTEXTMODE
 70
     0
  9
$MIRRTEXT
 70
     1
  9
$LTSCALE
 40
1.0
  9
$ATTMODE
 70
     1
  9
$TEXTSIZE
 40
0.2
  9
$TRACEWID
 40
0.05
  9
$TEXTSTYLE
  7
Standard
  9
$CLAYER
  8
0
  9
$CELTYPE
  6
ByLayer
  9
$CECOLOR
 62
   256
  9
$CELTSCALE
 40
1.0
  9
$DISPSILH
 70
     0
  9
$DIMSCALE
 40
1.0
  9
$DIMASZ
 40
0.18
  9
$DIMEXO
 40
0.0625
  9
$DIMDLI
 40
0.38
  9
$DIMRND
 40
0.0
  9
$DIMDLE
 40
0.0
  9
$DIMEXE
 40
0.18
  9
$DIMTP
 40
0.0
  9
$DIMTM
 40
0.0
  9
$DIMTXT
 40
0.18
  9
$DIMCEN
 40
0.09
  9
$DIMTSZ
 40
0.0
  9
$DIMTOL
 70
     0
  9
$DIMLIM
 70
     0
  9
$DIMTIH
 70
     1
  9
$DIMTOH
 70
     1
  9
$DIMSE1
 70
     0
  9
$DIMSE2
 70
     0
  9
$DIMTAD
 70
     0
  9
$DIMZIN
 70
     0
  9
$DIMBLK
  1

  9
$DIMASO
 70
     1
  9
$DIMSHO
 70
     1
  9
$DIMPOST
  1

  9
$DIMAPOST
  1

  9
$DIMALT
 70
     0
  9
$DIMALTD
 70
     2
  9
$DIMALTF
 40
25.4
  9
$DIMLFAC
 40
1.0
  9
$DIMTOFL
 70
     0
  9
$DIMTVP
 40
0.0
  9
$DIMTIX
 70
     0
  9
$DIMSOXD
 70
     0
  9
$DIMSAH
 70
     0
  9
$DIMBLK1
  1

  9
$DIMBLK2
  1

  9
$DIMSTYLE
  2
Standard
  9
$DIMCLRD
 70
     0
  9
$DIMCLRE
 70
     0
  9
$DIMCLRT
 70
     0
  9
$DIMTFAC
 40
1.0
  9
$DIMGAP
 40
0.09
  9
$DIMJUST
 70
     0
  9
$DIMSD1
 70
     0
  9
$DIMSD2
 70
     0
  9
$DIMTOLJ
 70
     1
  9
$DIMTZIN
 70
     0
  9
$DIMALTZ
 70
     0
  9
$DIMALTTZ
 70
     0
  9
$DIMUPT
 70
     0
  9
$DIMDEC
 70
     4
  9
$DIMTDEC
 70
     4
  9
$DIMALTU
 70
     2
  9
$DIMALTTD
 70
     2
  9
$DIMTXSTY
  7
Standard
  9
$DIMAUNIT
 70
     0
  9
$DIMADEC
 70
     0
  9
$DIMALTRND
 40
0.0
  9
$DIMAZIN
 70
     0
  9
$DIMDSEP
 70
    46
  9
$DIMATFIT
 70
     3
  9
$DIMFRAC
 70
     0
  9
$DIMLDRBLK
  1

  9
$DIMLUNIT
 70
     2
  9
$DIMLWD
 70
    -2
  9
$DIMLWE
 70
    -2
  9
$DIMTMOVE
 70
     0
  9
$LUNITS
 70
     2
  9
$LUPREC
 70
     4
  9
$SKETCHINC
 40
0.1
  9
$FILLETRAD
 40
0.5
  9
$AUNITS
 70
     0
  9
$AUPREC
 70
     0
  9
$MENU
  1
.
  9
$ELEVATION
 40
0.0
  9
$PELEVATION
 40
0.0
  9
$THICKNESS
 40
0.0
  9
$LIMCHECK
 70
     0
  9
$CHAMFERA
 40
0.5
  9
$CHAMFERB
 40
0.5
  9
$CHAMFERC
 40
1.0
  9
$CHAMFERD
 40
0.0
  9
$SKPOLY
 70
     0
  9
$TDCREATE
 40
2458862.87662037
  9
$TDUCREATE
 40
2458862.834953704
  9
$TDUPDATE
 40
2458862.876620382
  9
$TDUUPDATE
 40
2458862.834953715
  9
$TDINDWG
 40
0.0000000116
  9
$TDUSRTIMER
 40
0.0000000116
  9
$USRTIMER
 70
     1
  9
$ANGBASE
 50
0.0
  9
$ANGDIR
 70
     0
  9
$PDMODE
 70
     0
  9
$PDSIZE
 40
0.0
  9
$PLINEWID
 40
0.0
  9
$SPLFRAME
 70
     0
  9
$SPLINETYPE
 70
     6
  9
$SPLINESEGS
 70
     8
  9
$HANDSEED
  5
202
  9
$SURFTAB1
 70
     6
  9
$SURFTAB2
 70
     6
  9
$SURFTYPE
 70
     6
  9
$SURFU
 70
     6
  9
$SURFV
 70
     6
  9
$UCSBASE
  2

  9
$UCSNAME
  2

  9
$UCSORG
 10
0.0
 20
0.0
 30
0.0
  9
$UCSXDIR
 10
1.0
 20
0.0
 30
0.0
  9
$UCSYDIR
 10
0.0
 20
1.0
 30
0.0
  9
$UCSORTHOREF
  2

  9
$UCSORTHOVIEW
 70
     0
  9
$UCSORGTOP
 10
0.0
 20
0.0
 30
0.0
  9
$UCSORGBOTTOM
 10
0.0
 20
0.0
 30
0.0
  9
$UCSORGLEFT
 10
0.0
 20
0.0
 30
0.0
  9
$UCSORGRIGHT
 10
0.0
 20
0.0
 30
0.0
  9
$UCSORGFRONT
 10
0.0
 20
0.0
 30
0.0
  9
$UCSORGBACK
 10
0.0
 20
0.0
 30
0.0
  9
$PUCSBASE
  2

  9
$PUCSNAME
  2

  9
$PUCSORG
 10
0.0
 20
0.0
 30
0.0
  9
$PUCSXDIR
 10
1.0
 20
0.0
 30
0.0
  9
$PUCSYDIR
 10
0.0
 20
1.0
 30
0.0
  9
$PUCSORTHOREF
  2

  9
$PUCSORTHOVIEW
 70
     0
  9
$PUCSORGTOP
 10
0.0
 20
0.0
 30
0.0
  9
$PUCSORGBOTTOM
 10
0.0
 20
0.0
 30
0.0
  9
$PUCSORGLEFT
 10
0.0
 20
0.0
 30
0.0
  9
$PUCSORGRIGHT
 10
0.0
 20
0.0
 30
0.0
  9
$PUCSORGFRONT
 10
0.0
 20
0.0
 30
0.0
  9
$PUCSORGBACK
 10
0.0
 20
0.0
 30
0.0
  9
$USERI1
 70
     0
  9
$USERI2
 70
     0
  9
$USERI3
 70
     0
  9
$USERI4
 70
     0
  9
$USERI5
 70
     0
  9
$USERR1
 40
0.0
  9
$USERR2
 40
0.0
  9
$USERR3
 40
0.0
  9
$USERR4
 40
0.0
  9
$USERR5
 40
0.0
  9
$WORLDVIEW
 70
     1
  9
$SHADEDGE
 70
     3
  9
$SHADEDIF
 70
    70
  9
$TILEMODE
 70
     1
  9
$MAXACTVP
 70
    64
  9
$PINSBASE
 10
0.0
 20
0.0
 30
0.0
  9
$PLIMCHECK
 70
     0
  9
$PEXTMIN
 10
1.000000000000000E+20
 20
1.000000000000000E+20
 30
1.000000000000000E+20
  9
$PEXTMAX
 10
-1.000000000000000E+20
 20
-1.000000000000000E+20
 30
-1.000000000000000E+20
  9
$PLIMMIN
 10
0.0
 20
0.0
  9
$PLIMMAX
 10
12.0
 20
9.0
  9
$UNITMODE
 70
     0
  9
$VISRETAIN
 70
     1
  9
$PLINEGEN
 70
     0
  9
$PSLTSCALE
 70
     1
  9
$TREEDEPTH
 70
  3020
  9
$CMLSTYLE
  2
Standard
  9
$CMLJUST
 70
     0
  9
$CMLSCALE
 40
1.0
  9
$PROXYGRAPHICS
 70
     1
  9
$MEASUREMENT
 70
     0
  9
$CELWEIGHT
370
    -1
  9
$ENDCAPS
280
     0
  9
$JOINSTYLE
280
     0
  9
$LWDISPLAY
290
     1
  9
$INSUNITS
 70
     1
  9
$HYPERLINKBASE
  1

  9
$STYLESHEET
  1

  9
$XEDIT
290
     1
  9
$CEPSNTYPE
380
     0
  9
$PSTYLEMODE
290
     1
  9
$FINGERPRINTGUID
  2
{0A45EF3D-0248-6E0C-D34C-3638510CD621}
  9
$VERSIONGUID
  2
{FAEB1C32-E019-11D5-929B-00C0DF256EC4}
  9
$EXTNAMES
290
     1
  9
$PSVPSCALE
 40
0.0
  9
$OLESTARTUP
290
     0
  0
ENDSEC
  0
SECTION
  2
CLASSES
  0
CLASS
  1
ACDBDICTIONARYWDFLT
  2
AcDbDictionaryWithDefault
  3
ObjectDBX Classes
 90
        0
280
     0
281
     0
  0
CLASS
  1
VISUALSTYLE
  2
AcDbVisualStyle
  3
ObjectDBX Classes
 90
     4095
280
     0
281
     0
  0
CLASS
  1
ACDBPLACEHOLDER
  2
AcDbPlaceHolder
  3
ObjectDBX Classes
 90
        0
280
     0
281
     0
  0
CLASS
  1
LAYOUT
  2
AcDbLayout
  3
ObjectDBX Classes
 90
        0
280
     0
281
     0
  0
ENDSEC
  0
SECTION
  2
TABLES
  0
TABLE
  2
VPORT
  5
8
330
0
100
AcDbSymbolTable
 70
     1
  0
VPORT
  5
29
330
8
100
AcDbSymbolTableRecord
100
AcDbViewportTableRecord
  2
*Active
 70
     0
 10
0.0
 20
0.0
 11
1.0
 21
1.0
 12
0.0
 22
0.0
 13
0.0
 23
0.0
 14
0.5
 24
0.5
 15
0.5
 25
0.5
 16
0.0
 26
0.0
 36
1.0
 17
148.6843783536709
 27
105.1276916241087
 37
0.0
 40
297.0001314904201
 41
0.7070707363627348
 42
50.0
 43
0.0
 44
0.0
 50
0.0
 51
0.0
 71
     0
 72
   100
 73
     1
 74
     3
 75
     0
 76
     0
 77
     0
 78
     0
281
     0
 65
     1
110
0.0
120
0.0
130
0.0
111
1.0
121
0.0
131
0.0
112
0.0
122
1.0
132
0.0
 79
     0
146
0.0
  0
ENDTAB
  0
TABLE
  2
LTYPE
  5
5
330
0
100
AcDbSymbolTable
 70
     1
  0
LTYPE
  5
14
330
5
100
AcDbSymbolTableRecord
100
AcDbLinetypeTableRecord
  2
ByBlock
 70
     0
  3

 72
    65
 73
     0
 40
0.0
  0
LTYPE
  5
15
330
5
100
AcDbSymbolTableRecord
100
AcDbLinetypeTableRecord
  2
ByLayer
 70
     0
  3

 72
    65
 73
     0
 40
0.0
  0
LTYPE
  5
16
330
5
100
AcDbSymbolTableRecord
100
AcDbLinetypeTableRecord
  2
Continuous
 70
     0
  3
Solid line
 72
    65
 73
     0
 40
0.0
  0
ENDTAB
  0
TABLE
  2
LAYER
  5
2
330
0
100
AcDbSymbolTable
 70
     3
  0
LAYER
  5
10
330
2
100
AcDbSymbolTableRecord
100
AcDbLayerTableRecord
  2
0
 70
     0
 62
     7
  6
Continuous
370
    -3
390
F
  0
LAYER
  5
3B
330
2
100
AcDbSymbolTableRecord
100
AcDbLayerTableRecord
  2
Schneiden
 70
     0
 62
     7
  6
Continuous
370
    -3
390
F
  0
LAYER
  5
157
330
2
100
AcDbSymbolTableRecord
100
AcDbLayerTableRecord
  2
Gravieren
 70
     0
 62
     7
  6
Continuous
370
    -3
390
F
  0
ENDTAB
  0
TABLE
  2
STYLE
  5
3
330
0
100
AcDbSymbolTable
 70
     1
  0
STYLE
  5
11
330
3
100
AcDbSymbolTableRecord
100
AcDbTextStyleTableRecord
  2
Standard
 70
     0
 40
0.0
 41
1.0
 50
0.0
 71
     0
 42
0.2
  3
txt
  4

  0
ENDTAB
  0
TABLE
  2
VIEW
  5
6
330
0
100
AcDbSymbolTable
 70
     0
  0
ENDTAB
  0
TABLE
  2
UCS
  5
7
330
0
100
AcDbSymbolTable
 70
     0
  0
ENDTAB
  0
TABLE
  2
APPID
  5
9
330
0
100
AcDbSymbolTable
 70
     1
  0
APPID
  5
12
330
9
100
AcDbSymbolTableRecord
100
AcDbRegAppTableRecord
  2
ACAD
 70
     0
  0
ENDTAB
  0
TABLE
  2
DIMSTYLE
  5
A
330
0
100
AcDbSymbolTable
 70
     1
100
AcDbDimStyleTable
  0
DIMSTYLE
105
27
330
A
100
AcDbSymbolTableRecord
100
AcDbDimStyleTableRecord
  2
Standard
 70
     0
340
11
  0
ENDTAB
  0
TABLE
  2
BLOCK_RECORD
  5
1
330
0
100
AcDbSymbolTable
 70
    51
  0
BLOCK_RECORD
  5
1F
330
1
100
AcDbSymbolTableRecord
100
AcDbBlockTableRecord
  2
*Model_Space
340
22
  0
BLOCK_RECORD
  5
1B
330
1
100
AcDbSymbolTableRecord
100
AcDbBlockTableRecord
  2
*Paper_Space
340
1E
  0
BLOCK_RECORD
  5
23
330
1
100
AcDbSymbolTableRecord
100
AcDbBlockTableRecord
  2
*Paper_Space0
340
26
  0
BLOCK_RECORD
  5
3C
330
1
100
AcDbSymbolTableRecord
100
AcDbBlockTableRecord
  2
block 2
340
0
102
{BLKREFS
331
3D
102
}
  0
BLOCK_RECORD
  5
41
330
1
100
AcDbSymbolTableRecord
100
AcDbBlockTableRecord
  2
block 3
340
0
102
{BLKREFS
331
42
102
}
  0
BLOCK_RECORD
  5
46
330
1
100
AcDbSymbolTableRecord
100
AcDbBlockTableRecord
  2
block 4
340
0
102
{BLKREFS
331
47
102
}
  0
BLOCK_RECORD
  5
4B
330
1
100
AcDbSymbolTableRecord
100
AcDbBlockTableRecord
  2
block 5
340
0
102
{BLKREFS
331
4C
102
}
  0
BLOCK_RECORD
  5
56
330
1
100
AcDbSymbolTableRecord
100
AcDbBlockTableRecord
  2
block 6
340
0
102
{BLKREFS
331
57
102
}
  0
BLOCK_RECORD
  5
61
330
1
100
AcDbSymbolTableRecord
100
AcDbBlockTableRecord
  2
block 7
340
0
102
{BLKREFS
331
62
102
}
  0
BLOCK_RECORD
  5
6C
330
1
100
AcDbSymbolTableRecord
100
AcDbBlockTableRecord
  2
block 8
340
0
102
{BLKREFS
331
6D
102
}
  0
BLOCK_RECORD
  5
77
330
1
100
AcDbSymbolTableRecord
100
AcDbBlockTableRecord
  2
block 9
340
0
102
{BLKREFS
331
78
102
}
  0
BLOCK_RECORD
  5
82
330
1
100
AcDbSymbolTableRecord
100
AcDbBlockTableRecord
  2
block 10
340
0
102
{BLKREFS
331
83
102
}
  0
BLOCK_RECORD
  5
8D
330
1
100
AcDbSymbolTableRecord
100
AcDbBlockTableRecord
  2
block 11
340
0
102
{BLKREFS
331
8E
102
}
  0
BLOCK_RECORD
  5
98
330
1
100
AcDbSymbolTableRecord
100
AcDbBlockTableRecord
  2
block 12
340
0
102
{BLKREFS
331
99
102
}
  0
BLOCK_RECORD
  5
A3
330
1
100
AcDbSymbolTableRecord
100
AcDbBlockTableRecord
  2
block 13
340
0
102
{BLKREFS
331
A4
102
}
  0
BLOCK_RECORD
  5
AE
330
1
100
AcDbSymbolTableRecord
100
AcDbBlockTableRecord
  2
block 14
340
0
102
{BLKREFS
331
AF
102
}
  0
BLOCK_RECORD
  5
B9
330
1
100
AcDbSymbolTableRecord
100
AcDbBlockTableRecord
  2
block 15
340
0
102
{BLKREFS
331
BA
102
}
  0
BLOCK_RECORD
  5
C4
330
1
100
AcDbSymbolTableRecord
100
AcDbBlockTableRecord
  2
block 16
340
0
102
{BLKREFS
331
C5
102
}
  0
BLOCK_RECORD
  5
CF
330
1
100
AcDbSymbolTableRecord
100
AcDbBlockTableRecord
  2
block 17
340
0
102
{BLKREFS
331
D0
102
}
  0
BLOCK_RECORD
  5
DA
330
1
100
AcDbSymbolTableRecord
100
AcDbBlockTableRecord
  2
block 18
340
0
102
{BLKREFS
331
DB
102
}
  0
BLOCK_RECORD
  5
E5
330
1
100
AcDbSymbolTableRecord
100
AcDbBlockTableRecord
  2
block 19
340
0
102
{BLKREFS
331
E6
102
}
  0
BLOCK_RECORD
  5
F0
330
1
100
AcDbSymbolTableRecord
100
AcDbBlockTableRecord
  2
block 20
340
0
102
{BLKREFS
331
F1
102
}
  0
BLOCK_RECORD
  5
FB
330
1
100
AcDbSymbolTableRecord
100
AcDbBlockTableRecord
  2
block 21
340
0
102
{BLKREFS
331
FC
102
}
  0
BLOCK_RECORD
  5
106
330
1
100
AcDbSymbolTableRecord
100
AcDbBlockTableRecord
  2
block 22
340
0
102
{BLKREFS
331
107
102
}
  0
BLOCK_RECORD
  5
111
330
1
100
AcDbSymbolTableRecord
100
AcDbBlockTableRecord
  2
block 23
340
0
102
{BLKREFS
331
112
102
}
  0
BLOCK_RECORD
  5
11C
330
1
100
AcDbSymbolTableRecord
100
AcDbBlockTableRecord
  2
block 24
340
0
102
{BLKREFS
331
11D
102
}
  0
BLOCK_RECORD
  5
121
330
1
100
AcDbSymbolTableRecord
100
AcDbBlockTableRecord
  2
block 25
340
0
102
{BLKREFS
331
122
102
}
  0
BLOCK_RECORD
  5
126
330
1
100
AcDbSymbolTableRecord
100
AcDbBlockTableRecord
  2
block 26
340
0
102
{BLKREFS
331
127
102
}
  0
BLOCK_RECORD
  5
12B
330
1
100
AcDbSymbolTableRecord
100
AcDbBlockTableRecord
  2
block 27
340
0
102
{BLKREFS
331
12C
102
}
  0
BLOCK_RECORD
  5
136
330
1
100
AcDbSymbolTableRecord
100
AcDbBlockTableRecord
  2
block 28
340
0
102
{BLKREFS
331
137
102
}
  0
BLOCK_RECORD
  5
141
330
1
100
AcDbSymbolTableRecord
100
AcDbBlockTableRecord
  2
block 29
340
0
102
{BLKREFS
331
142
102
}
  0
BLOCK_RECORD
  5
14C
330
1
100
AcDbSymbolTableRecord
100
AcDbBlockTableRecord
  2
block 30
340
0
102
{BLKREFS
331
14D
102
}
  0
BLOCK_RECORD
  5
158
330
1
100
AcDbSymbolTableRecord
100
AcDbBlockTableRecord
  2
block 31
340
0
102
{BLKREFS
331
159
102
}
  0
BLOCK_RECORD
  5
160
330
1
100
AcDbSymbolTableRecord
100
AcDbBlockTableRecord
  2
block 32
340
0
102
{BLKREFS
331
161
102
}
  0
BLOCK_RECORD
  5
168
330
1
100
AcDbSymbolTableRecord
100
AcDbBlockTableRecord
  2
block 33
340
0
102
{BLKREFS
331
169
102
}
  0
BLOCK_RECORD
  5
170
330
1
100
AcDbSymbolTableRecord
100
AcDbBlockTableRecord
  2
block 34
340
0
102
{BLKREFS
331
171
102
}
  0
BLOCK_RECORD
  5
178
330
1
100
AcDbSymbolTableRecord
100
AcDbBlockTableRecord
  2
block 35
340
0
102
{BLKREFS
331
179
102
}
  0
BLOCK_RECORD
  5
180
330
1
100
AcDbSymbolTableRecord
100
AcDbBlockTableRecord
  2
block 36
340
0
102
{BLKREFS
331
181
102
}
  0
BLOCK_RECORD
  5
188
330
1
100
AcDbSymbolTableRecord
100
AcDbBlockTableRecord
  2
block 37
340
0
102
{BLKREFS
331
189
102
}
  0
BLOCK_RECORD
  5
190
330
1
100
AcDbSymbolTableRecord
100
AcDbBlockTableRecord
  2
block 38
340
0
102
{BLKREFS
331
191
102
}
  0
BLOCK_RECORD
  5
198
330
1
100
AcDbSymbolTableRecord
100
AcDbBlockTableRecord
  2
block 39
340
0
102
{BLKREFS
331
199
102
}
  0
BLOCK_RECORD
  5
1A0
330
1
100
AcDbSymbolTableRecord
100
AcDbBlockTableRecord
  2
block 40
340
0
102
{BLKREFS
331
1A1
102
}
  0
BLOCK_RECORD
  5
1A8
330
1
100
AcDbSymbolTableRecord
100
AcDbBlockTableRecord
  2
block 41
340
0
102
{BLKREFS
331
1A9
102
}
  0
BLOCK_RECORD
  5
1B0
330
1
100
AcDbSymbolTableRecord
100
AcDbBlockTableRecord
  2
block 42
340
0
102
{BLKREFS
331
1B1
102
}
  0
BLOCK_RECORD
  5
1B8
330
1
100
AcDbSymbolTableRecord
100
AcDbBlockTableRecord
  2
block 43
340
0
102
{BLKREFS
331
1B9
102
}
  0
BLOCK_RECORD
  5
1C0
330
1
100
AcDbSymbolTableRecord
100
AcDbBlockTableRecord
  2
block 44
340
0
102
{BLKREFS
331
1C1
102
}
  0
BLOCK_RECORD
  5
1C8
330
1
100
AcDbSymbolTableRecord
100
AcDbBlockTableRecord
  2
block 45
340
0
102
{BLKREFS
331
1C9
102
}
  0
BLOCK_RECORD
  5
1D0
330
1
100
AcDbSymbolTableRecord
100
AcDbBlockTableRecord
  2
block 46
340
0
102
{BLKREFS
331
1D1
102
}
  0
BLOCK_RECORD
  5
1D8
330
1
100
AcDbSymbolTableRecord
100
AcDbBlockTableRecord
  2
block 47
340
0
102
{BLKREFS
331
1D9
102
}
  0
BLOCK_RECORD
  5
1E0
330
1
100
AcDbSymbolTableRecord
100
AcDbBlockTableRecord
  2
block 48
340
0
102
{BLKREFS
331
1E1
102
}
  0
BLOCK_RECORD
  5
1E8
330
1
100
AcDbSymbolTableRecord
100
AcDbBlockTableRecord
  2
block 49
340
0
102
{BLKREFS
331
1E9
102
}
  0
BLOCK_RECORD
  5
1F0
330
1
100
AcDbSymbolTableRecord
100
AcDbBlockTableRecord
  2
block 50
340
0
102
{BLKREFS
331
1F1
102
}
  0
BLOCK_RECORD
  5
1F8
330
1
100
AcDbSymbolTableRecord
100
AcDbBlockTableRecord
  2
block 51
340
0
102
{BLKREFS
331
1F9
102
}
  0
ENDTAB
  0
ENDSEC
  0
SECTION
  2
BLOCKS
  0
BLOCK
  5
20
330
1F
100
AcDbEntity
  8
0
100
AcDbBlockBegin
  2
*Model_Space
 70
     0
 71
     0
 10
0.0
 20
0.0
 30
0.0
  3
*Model_Space
  1

  0
ENDBLK
  5
21
330
1F
100
AcDbEntity
  8
0
100
AcDbBlockEnd
  0
BLOCK
  5
1C
330
1B
100
AcDbEntity
 67
     1
  8
0
100
AcDbBlockBegin
  2
*Paper_Space
 70
     0
 71
     0
 10
0.0
 20
0.0
 30
0.0
  3
*Paper_Space
  1

  0
ENDBLK
  5
1D
330
1B
100
AcDbEntity
 67
     1
  8
0
100
AcDbBlockEnd
  0
BLOCK
  5
24
330
23
100
AcDbEntity
  8
0
100
AcDbBlockBegin
  2
*Paper_Space0
 70
     0
 71
     0
 10
0.0
 20
0.0
 30
0.0
  3
*Paper_Space0
  1

  0
ENDBLK
  5
25
330
23
100
AcDbEntity
  8
0
100
AcDbBlockEnd
  0
BLOCK
  5
3E
330
3C
100
AcDbEntity
  8
0
100
AcDbBlockBegin
  2
block 2
 70
     0
 71
     0
 10
0.0
 20
0.0
 30
0.0
  3
block 2
  1

  0
SPLINE
  5
40
330
3C
100
AcDbEntity
  8
Schneiden
370
     0
100
AcDbSpline
210
0.0
220
0.0
230
1.0
 70
    11
 71
     3
 72
    20
 73
    16
 74
     0
 42
0.0000000001
 43
0.0000000001
 40
0.0
 40
0.0
 40
0.0
 40
0.0
 40
1.0
 40
1.0
 40
1.0
 40
2.0
 40
2.0
 40
2.0
 40
3.0
 40
3.0
 40
3.0
 40
4.0
 40
4.0
 40
4.0
 40
5.0
 40
5.0
 40
5.0
 40
5.0
 10
112.9297132421669
 20
237.6278726619472
 30
0.0
 10
112.9297132421669
 20
238.3458305610733
 30
0.0
 10
112.3476643599339
 20
238.927707188532
 30
0.0
 10
111.6297064608079
 20
238.927707188532
 30
0.0
 10
110.9117485616818
 20
238.927707188532
 30
0.0
 10
110.3296996794488
 20
238.3458305610733
 30
0.0
 10
110.3296996794488
 20
237.6278726619472
 30
0.0
 10
110.3296996794488
 20
236.9097425080469
 30
0.0
 10
110.9117485616818
 20
236.3276936258139
 30
0.0
 10
111.6297064608079
 20
236.3276936258139
 30
0.0
 10
112.3476643599339
 20
236.3276936258139
 30
0.0
 10
112.9297132421669
 20
236.9097425080469
 30
0.0
 10
112.9297132421669
 20
237.6278726619472
 30
0.0
 10
112.9297132421669
 20
237.6278726619472
 30
0.0
 10
112.9297132421669
 20
237.6278726619472
 30
0.0
 10
112.9297132421669
 20
237.6278726619472
 30
0.0
  0
ENDBLK
  5
3F
330
3C
100
AcDbEntity
  8
0
100
AcDbBlockEnd
  0
BLOCK
  5
43
330
41
100
AcDbEntity
  8
0
100
AcDbBlockBegin
  2
block 3
 70
     0
 71
     0
 10
0.0
 20
0.0
 30
0.0
  3
block 3
  1

  0
SPLINE
  5
45
330
41
100
AcDbEntity
  8
Schneiden
370
     0
100
AcDbSpline
210
0.0
220
0.0
230
1.0
 70
    11
 71
     3
 72
    20
 73
    16
 74
     0
 42
0.0000000001
 43
0.0000000001
 40
0.0
 40
0.0
 40
0.0
 40
0.0
 40
1.0
 40
1.0
 40
1.0
 40
2.0
 40
2.0
 40
2.0
 40
3.0
 40
3.0
 40
3.0
 40
4.0
 40
4.0
 40
4.0
 40
5.0
 40
5.0
 40
5.0
 40
5.0
 10
111.6297064608079
 20
244.877731601107
 30
0.0
 10
111.6297064608079
 20
244.877731601107
 30
0.0
 10
183.6959363690066
 20
244.877731601107
 30
0.0
 10
183.6959363690066
 20
244.877731601107
 30
0.0
 10
183.6959363690066
 20
244.877731601107
 30
0.0
 10
183.6959363690066
 20
230.3778414680132
 30
0.0
 10
183.6959363690066
 20
230.3778414680132
 30
0.0
 10
183.6959363690066
 20
230.3778414680132
 30
0.0
 10
111.6297064608079
 20
230.3778414680132
 30
0.0
 10
111.6297064608079
 20
230.3778414680132
 30
0.0
 10
107.6256442330762
 20
230.3778414680132
 30
0.0
 10
104.3796752668738
 20
233.6236381794413
 30
0.0
 10
104.3796752668738
 20
237.6278726619472
 30
0.0
 10
104.3796752668738
 20
241.6317626349046
 30
0.0
 10
107.6256442330762
 20
244.877731601107
 30
0.0
 10
111.6297064608079
 20
244.877731601107
 30
0.0
  0
ENDBLK
  5
44
330
41
100
AcDbEntity
  8
0
100
AcDbBlockEnd
  0
BLOCK
  5
48
330
46
100
AcDbEntity
  8
0
100
AcDbBlockBegin
  2
block 4
 70
     0
 71
     0
 10
0.0
 20
0.0
 30
0.0
  3
block 4
  1

  0
SPLINE
  5
4A
330
46
100
AcDbEntity
  8
Schneiden
370
     0
100
AcDbSpline
210
0.0
220
0.0
230
1.0
 70
    11
 71
     3
 72
   128
 73
   124
 74
     0
 42
0.0000000001
 43
0.0000000001
 40
0.0
 40
0.0
 40
0.0
 40
0.0
 40
1.0
 40
1.0
 40
1.0
 40
2.0
 40
2.0
 40
2.0
 40
3.0
 40
3.0
 40
3.0
 40
4.0
 40
4.0
 40
4.0
 40
5.0
 40
5.0
 40
5.0
 40
6.0
 40
6.0
 40
6.0
 40
7.0
 40
7.0
 40
7.0
 40
8.0
 40
8.0
 40
8.0
 40
9.0
 40
9.0
 40
9.0
 40
10.0
 40
10.0
 40
10.0
 40
11.0
 40
11.0
 40
11.0
 40
12.0
 40
12.0
 40
12.0
 40
13.0
 40
13.0
 40
13.0
 40
14.0
 40
14.0
 40
14.0
 40
15.0
 40
15.0
 40
15.0
 40
16.0
 40
16.0
 40
16.0
 40
17.0
 40
17.0
 40
17.0
 40
18.0
 40
18.0
 40
18.0
 40
19.0
 40
19.0
 40
19.0
 40
20.0
 40
20.0
 40
20.0
 40
21.0
 40
21.0
 40
21.0
 40
22.0
 40
22.0
 40
22.0
 40
23.0
 40
23.0
 40
23.0
 40
24.0
 40
24.0
 40
24.0
 40
25.0
 40
25.0
 40
25.0
 40
26.0
 40
26.0
 40
26.0
 40
27.0
 40
27.0
 40
27.0
 40
28.0
 40
28.0
 40
28.0
 40
29.0
 40
29.0
 40
29.0
 40
30.0
 40
30.0
 40
30.0
 40
31.0
 40
31.0
 40
31.0
 40
32.0
 40
32.0
 40
32.0
 40
33.0
 40
33.0
 40
33.0
 40
34.0
 40
34.0
 40
34.0
 40
35.0
 40
35.0
 40
35.0
 40
36.0
 40
36.0
 40
36.0
 40
37.0
 40
37.0
 40
37.0
 40
38.0
 40
38.0
 40
38.0
 40
39.0
 40
39.0
 40
39.0
 40
40.0
 40
40.0
 40
40.0
 40
41.0
 40
41.0
 40
41.0
 40
41.0
 10
61.19592012358991
 20
32.62781032170416
 30
0.0
 10
61.19592012358991
 20
32.62781032170416
 30
0.0
 10
71.19582653385035
 20
32.62781032170416
 30
0.0
 10
71.19582653385035
 20
32.62781032170416
 30
0.0
 10
71.19582653385035
 20
32.62781032170416
 30
0.0
 10
71.19582653385035
 20
245.1278455333361
 30
0.0
 10
71.19582653385035
 20
245.1278455333361
 30
0.0
 10
71.19582653385035
 20
245.1278455333361
 30
0.0
 10
103.6958238130517
 20
245.1278455333361
 30
0.0
 10
103.6958238130517
 20
245.1278455333361
 30
0.0
 10
103.6958238130517
 20
245.1278455333361
 30
0.0
 10
103.6958238130517
 20
230.1277275357841
 30
0.0
 10
103.6958238130517
 20
230.1277275357841
 30
0.0
 10
103.6958238130517
 20
230.1277275357841
 30
0.0
 10
203.6957491895274
 20
230.1277275357841
 30
0.0
 10
203.6957491895274
 20
230.1277275357841
 30
0.0
 10
203.6957491895274
 20
230.1277275357841
 30
0.0
 10
203.6957491895274
 20
245.1278455333361
 30
0.0
 10
203.6957491895274
 20
245.1278455333361
 30
0.0
 10
203.6957491895274
 20
245.1278455333361
 30
0.0
 10
236.1957464687289
 20
245.1278455333361
 30
0.0
 10
236.1957464687289
 20
245.1278455333361
 30
0.0
 10
236.1957464687289
 20
245.1278455333361
 30
0.0
 10
236.1957464687289
 20
-34.87229003034443
 30
0.0
 10
236.1957464687289
 20
-34.87229003034443
 30
0.0
 10
236.1957464687289
 20
-34.87229003034443
 30
0.0
 10
168.6959906262288
 20
-34.87229003034443
 30
0.0
 10
168.6959906262288
 20
-34.87229003034443
 30
0.0
 10
168.6959906262288
 20
-34.87229003034443
 30
0.0
 10
168.6959906262288
 20
-25.87232258467775
 30
0.0
 10
168.6959906262288
 20
-25.87232258467775
 30
0.0
 10
168.6959906262288
 20
-25.87232258467775
 30
0.0
 10
213.6958278545622
 20
-25.87232258467775
 30
0.0
 10
213.6958278545622
 20
-25.87232258467775
 30
0.0
 10
213.6958278545622
 20
-25.87232258467775
 30
0.0
 10
213.6958278545622
 20
-10.87237684189996
 30
0.0
 10
213.6958278545622
 20
-10.87237684189996
 30
0.0
 10
213.6958278545622
 20
-9.21528591349479
 30
0.0
 10
212.3525851248633
 20
-7.872387693344403
 30
0.0
 10
210.6958387060066
 20
-7.872387693344403
 30
0.0
 10
210.6958387060066
 20
-7.872387693344403
 30
0.0
 10
61.19592012358991
 20
-7.872387693344403
 30
0.0
 10
61.19592012358991
 20
-7.872387693344403
 30
0.0
 10
61.19592012358991
 20
-7.872387693344403
 30
0.0
 10
61.19592012358991
 20
8.627897133259692
 30
0.0
 10
61.19592012358991
 20
8.627897133259692
 30
0.0
 10
61.19592012358991
 20
8.627897133259692
 30
0.0
 10
205.1957437638052
 20
8.627897133259692
 30
0.0
 10
205.1957437638052
 20
8.627897133259692
 30
0.0
 10
208.23328445315
 20
8.627897133259692
 30
0.0
 10
210.6958387060066
 20
11.09010687656775
 30
0.0
 10
210.6958387060066
 20
14.12764756591253
 30
0.0
 10
210.6958387060066
 20
14.12764756591253
 30
0.0
 10
210.6958387060066
 20
165.1277329773813
 30
0.0
 10
210.6958387060066
 20
165.1277329773813
 30
0.0
 10
210.6958387060066
 20
170.3744411466425
 30
0.0
 10
206.4425238199172
 20
174.627756032732
 30
0.0
 10
201.1959879054302
 20
174.627756032732
 30
0.0
 10
201.1959879054302
 20
174.627756032732
 30
0.0
 10
154.6958115932705
 20
174.627756032732
 30
0.0
 10
154.6958115932705
 20
174.627756032732
 30
0.0
 10
153.0390651744138
 20
174.627756032732
 30
0.0
 10
151.6958224447149
 20
173.2846855578073
 30
0.0
 10
151.6958224447149
 20
171.6277668841764
 30
0.0
 10
151.6958224447149
 20
171.6277668841764
 30
0.0
 10
151.6958224447149
 20
168.6277777356208
 30
0.0
 10
151.6958224447149
 20
168.6277777356208
 30
0.0
 10
151.6958224447149
 20
166.9708590619899
 30
0.0
 10
153.0390651744138
 20
165.6277885870653
 30
0.0
 10
154.6958115932705
 20
165.6277885870653
 30
0.0
 10
154.6958115932705
 20
165.6277885870653
 30
0.0
 10
201.1959879054302
 20
165.6277885870653
 30
0.0
 10
201.1959879054302
 20
165.6277885870653
 30
0.0
 10
201.4719400537987
 20
165.6277885870653
 30
0.0
 10
201.6958712603399
 20
165.403857380524
 30
0.0
 10
201.6958712603399
 20
165.1277329773813
 30
0.0
 10
201.6958712603399
 20
165.1277329773813
 30
0.0
 10
201.6958712603399
 20
20.62785372748193
 30
0.0
 10
201.6958712603399
 20
20.62785372748193
 30
0.0
 10
201.6958712603399
 20
18.97076279907676
 30
0.0
 10
200.352628530641
 20
17.62786457892637
 30
0.0
 10
198.6958821117844
 20
17.62786457892637
 30
0.0
 10
198.6958821117844
 20
17.62786457892637
 30
0.0
 10
98.69578448053439
 20
17.62786457892637
 30
0.0
 10
98.69578448053439
 20
17.62786457892637
 30
0.0
 10
97.03903806167774
 20
17.62786457892637
 30
0.0
 10
95.69579533197883
 20
18.97076279907676
 30
0.0
 10
95.69579533197883
 20
20.62785372748193
 30
0.0
 10
95.69579533197883
 20
20.62785372748193
 30
0.0
 10
95.69579533197883
 20
46.12776149020417
 30
0.0
 10
95.69579533197883
 20
46.12776149020417
 30
0.0
 10
95.69579533197883
 20
46.40405814812121
 30
0.0
 10
95.91972653852007
 20
46.62764484511393
 30
0.0
 10
96.19585094166284
 20
46.62764484511393
 30
0.0
 10
96.19585094166284
 20
46.62764484511393
 30
0.0
 10
142.6958549990483
 20
46.62764484511393
 30
0.0
 10
142.6958549990483
 20
46.62764484511393
 30
0.0
 10
144.3526014179049
 20
46.62764484511393
 30
0.0
 10
145.6958441476038
 20
47.97088757481283
 30
0.0
 10
145.6958441476038
 20
49.62763399366948
 30
0.0
 10
145.6958441476038
 20
49.62763399366948
 30
0.0
 10
145.6958441476038
 20
52.62762314222504
 30
0.0
 10
145.6958441476038
 20
52.62762314222504
 30
0.0
 10
145.6958441476038
 20
54.28471407063022
 30
0.0
 10
144.3526014179049
 20
55.6276122907806
 30
0.0
 10
142.6958549990483
 20
55.6276122907806
 30
0.0
 10
142.6958549990483
 20
55.6276122907806
 30
0.0
 10
96.19585094166284
 20
55.6276122907806
 30
0.0
 10
96.19585094166284
 20
55.6276122907806
 30
0.0
 10
90.9491427724016
 20
55.6276122907806
 30
0.0
 10
86.69582788631216
 20
51.37464191423967
 30
0.0
 10
86.69582788631216
 20
46.12776149020417
 30
0.0
 10
86.69582788631216
 20
46.12776149020417
 30
0.0
 10
86.69582788631216
 20
20.62785372748193
 30
0.0
 10
86.69582788631216
 20
20.62785372748193
 30
0.0
 10
86.69582788631216
 20
18.97076279907676
 30
0.0
 10
85.35275741138751
 20
17.62786457892637
 30
0.0
 10
83.6958387377566
 20
17.62786457892637
 30
0.0
 10
83.6958387377566
 20
17.62786457892637
 30
0.0
 10
61.19592012358991
 20
17.62786457892637
 30
0.0
 10
61.19592012358991
 20
17.62786457892637
 30
0.0
 10
61.19592012358991
 20
17.62786457892637
 30
0.0
 10
61.19592012358991
 20
32.62781032170416
 30
0.0
 10
61.19592012358991
 20
32.62781032170416
 30
0.0
  0
ENDBLK
  5
49
330
46
100
AcDbEntity
  8
0
100
AcDbBlockEnd
  0
BLOCK
  5
4D
330
4B
100
AcDbEntity
  8
0
100
AcDbBlockBegin
  2
block 5
 70
     0
 71
     0
 10
0.0
 20
0.0
 30
0.0
  3
block 5
  1

  0
POLYLINE
  5
4F
330
4B
100
AcDbEntity
  8
Schneiden
370
     0
100
AcDb2dPolyline
 66
     1
 10
0.0
 20
0.0
 30
0.0
  0
VERTEX
  5
50
330
4F
100
AcDbEntity
  8
Schneiden
370
     0
100
AcDbVertex
100
AcDb2dVertex
 10
221.1958007259511
 20
-29.02217338684168
 30
0.0
  0
VERTEX
  5
51
330
4F
100
AcDbEntity
  8
Schneiden
370
     0
100
AcDbVertex
100
AcDb2dVertex
 10
221.1958007259511
 20
-31.87230088178887
 30
0.0
  0
VERTEX
  5
52
330
4F
100
AcDbEntity
  8
Schneiden
370
     0
100
AcDbVertex
100
AcDb2dVertex
 10
231.1958793909858
 20
-31.87230088178887
 30
0.0
  0
VERTEX
  5
53
330
4F
100
AcDbEntity
  8
Schneiden
370
     0
100
AcDbVertex
100
AcDb2dVertex
 10
231.1958793909858
 20
-29.02217338684168
 30
0.0
  0
VERTEX
  5
54
330
4F
100
AcDbEntity
  8
Schneiden
370
     0
100
AcDbVertex
100
AcDb2dVertex
 10
221.1958007259511
 20
-29.02217338684168
 30
0.0
  0
SEQEND
  5
55
330
4F
100
AcDbEntity
  8
Schneiden
370
     0
  0
ENDBLK
  5
4E
330
4B
100
AcDbEntity
  8
0
100
AcDbBlockEnd
  0
BLOCK
  5
58
330
56
100
AcDbEntity
  8
0
100
AcDbBlockBegin
  2
block 6
 70
     0
 71
     0
 10
0.0
 20
0.0
 30
0.0
  3
block 6
  1

  0
POLYLINE
  5
5A
330
56
100
AcDbEntity
  8
Schneiden
370
     0
100
AcDb2dPolyline
 66
     1
 10
0.0
 20
0.0
 30
0.0
  0
VERTEX
  5
5B
330
5A
100
AcDbEntity
  8
Schneiden
370
     0
100
AcDbVertex
100
AcDb2dVertex
 10
197.4460014697357
 20
-29.02217338684168
 30
0.0
  0
VERTEX
  5
5C
330
5A
100
AcDbEntity
  8
Schneiden
370
     0
100
AcDbVertex
100
AcDb2dVertex
 10
197.4460014697357
 20
-31.87230088178887
 30
0.0
  0
VERTEX
  5
5D
330
5A
100
AcDbEntity
  8
Schneiden
370
     0
100
AcDbVertex
100
AcDb2dVertex
 10
207.4457356252219
 20
-31.87230088178887
 30
0.0
  0
VERTEX
  5
5E
330
5A
100
AcDbEntity
  8
Schneiden
370
     0
100
AcDbVertex
100
AcDb2dVertex
 10
207.4457356252219
 20
-29.02217338684168
 30
0.0
  0
VERTEX
  5
5F
330
5A
100
AcDbEntity
  8
Schneiden
370
     0
100
AcDbVertex
100
AcDb2dVertex
 10
197.4460014697357
 20
-29.02217338684168
 30
0.0
  0
SEQEND
  5
60
330
5A
100
AcDbEntity
  8
Schneiden
370
     0
  0
ENDBLK
  5
59
330
56
100
AcDbEntity
  8
0
100
AcDbBlockEnd
  0
BLOCK
  5
63
330
61
100
AcDbEntity
  8
0
100
AcDbBlockBegin
  2
block 7
 70
     0
 71
     0
 10
0.0
 20
0.0
 30
0.0
  3
block 7
  1

  0
POLYLINE
  5
65
330
61
100
AcDbEntity
  8
Schneiden
370
     0
100
AcDb2dPolyline
 66
     1
 10
0.0
 20
0.0
 30
0.0
  0
VERTEX
  5
66
330
65
100
AcDbEntity
  8
Schneiden
370
     0
100
AcDbVertex
100
AcDb2dVertex
 10
173.6958577039719
 20
-29.02217338684168
 30
0.0
  0
VERTEX
  5
67
330
65
100
AcDbEntity
  8
Schneiden
370
     0
100
AcDbVertex
100
AcDb2dVertex
 10
173.6958577039719
 20
-31.87230088178887
 30
0.0
  0
VERTEX
  5
68
330
65
100
AcDbEntity
  8
Schneiden
370
     0
100
AcDbVertex
100
AcDb2dVertex
 10
183.6959363690066
 20
-31.87230088178887
 30
0.0
  0
VERTEX
  5
69
330
65
100
AcDbEntity
  8
Schneiden
370
     0
100
AcDbVertex
100
AcDb2dVertex
 10
183.6959363690066
 20
-29.02217338684168
 30
0.0
  0
VERTEX
  5
6A
330
65
100
AcDbEntity
  8
Schneiden
370
     0
100
AcDbVertex
100
AcDb2dVertex
 10
173.6958577039719
 20
-29.02217338684168
 30
0.0
  0
SEQEND
  5
6B
330
65
100
AcDbEntity
  8
Schneiden
370
     0
  0
ENDBLK
  5
64
330
61
100
AcDbEntity
  8
0
100
AcDbBlockEnd
  0
BLOCK
  5
6E
330
6C
100
AcDbEntity
  8
0
100
AcDbBlockBegin
  2
block 8
 70
     0
 71
     0
 10
0.0
 20
0.0
 30
0.0
  3
block 8
  1

  0
POLYLINE
  5
70
330
6C
100
AcDbEntity
  8
Schneiden
370
     0
100
AcDb2dPolyline
 66
     1
 10
0.0
 20
0.0
 30
0.0
  0
VERTEX
  5
71
330
70
100
AcDbEntity
  8
Schneiden
370
     0
100
AcDbVertex
100
AcDb2dVertex
 10
221.1958007259511
 20
0.3028238931534607
 30
0.0
  0
VERTEX
  5
72
330
70
100
AcDbEntity
  8
Schneiden
370
     0
100
AcDbVertex
100
AcDb2dVertex
 10
221.1958007259511
 20
-2.54730360179373
 30
0.0
  0
VERTEX
  5
73
330
70
100
AcDbEntity
  8
Schneiden
370
     0
100
AcDbVertex
100
AcDb2dVertex
 10
231.1958793909858
 20
-2.54730360179373
 30
0.0
  0
VERTEX
  5
74
330
70
100
AcDbEntity
  8
Schneiden
370
     0
100
AcDbVertex
100
AcDb2dVertex
 10
231.1958793909858
 20
0.3028238931534607
 30
0.0
  0
VERTEX
  5
75
330
70
100
AcDbEntity
  8
Schneiden
370
     0
100
AcDbVertex
100
AcDb2dVertex
 10
221.1958007259511
 20
0.3028238931534607
 30
0.0
  0
SEQEND
  5
76
330
70
100
AcDbEntity
  8
Schneiden
370
     0
  0
ENDBLK
  5
6F
330
6C
100
AcDbEntity
  8
0
100
AcDbBlockEnd
  0
BLOCK
  5
79
330
77
100
AcDbEntity
  8
0
100
AcDbBlockBegin
  2
block 9
 70
     0
 71
     0
 10
0.0
 20
0.0
 30
0.0
  3
block 9
  1

  0
POLYLINE
  5
7B
330
77
100
AcDbEntity
  8
Schneiden
370
     0
100
AcDb2dPolyline
 66
     1
 10
0.0
 20
0.0
 30
0.0
  0
VERTEX
  5
7C
330
7B
100
AcDbEntity
  8
Schneiden
370
     0
100
AcDbVertex
100
AcDb2dVertex
 10
173.6958577039719
 20
0.3028238931534607
 30
0.0
  0
VERTEX
  5
7D
330
7B
100
AcDbEntity
  8
Schneiden
370
     0
100
AcDbVertex
100
AcDb2dVertex
 10
173.6958577039719
 20
-2.54730360179373
 30
0.0
  0
VERTEX
  5
7E
330
7B
100
AcDbEntity
  8
Schneiden
370
     0
100
AcDbVertex
100
AcDb2dVertex
 10
183.6959363690066
 20
-2.54730360179373
 30
0.0
  0
VERTEX
  5
7F
330
7B
100
AcDbEntity
  8
Schneiden
370
     0
100
AcDbVertex
100
AcDb2dVertex
 10
183.6959363690066
 20
0.3028238931534607
 30
0.0
  0
VERTEX
  5
80
330
7B
100
AcDbEntity
  8
Schneiden
370
     0
100
AcDbVertex
100
AcDb2dVertex
 10
173.6958577039719
 20
0.3028238931534607
 30
0.0
  0
SEQEND
  5
81
330
7B
100
AcDbEntity
  8
Schneiden
370
     0
  0
ENDBLK
  5
7A
330
77
100
AcDbEntity
  8
0
100
AcDbBlockEnd
  0
BLOCK
  5
84
330
82
100
AcDbEntity
  8
0
100
AcDbBlockBegin
  2
block 10
 70
     0
 71
     0
 10
0.0
 20
0.0
 30
0.0
  3
block 10
  1

  0
POLYLINE
  5
86
330
82
100
AcDbEntity
  8
Schneiden
370
     0
100
AcDb2dPolyline
 66
     1
 10
0.0
 20
0.0
 30
0.0
  0
VERTEX
  5
87
330
86
100
AcDbEntity
  8
Schneiden
370
     0
100
AcDbVertex
100
AcDb2dVertex
 10
143.695793963642
 20
0.3028238931534607
 30
0.0
  0
VERTEX
  5
88
330
86
100
AcDbEntity
  8
Schneiden
370
     0
100
AcDbVertex
100
AcDb2dVertex
 10
143.695793963642
 20
-2.54730360179373
 30
0.0
  0
VERTEX
  5
89
330
86
100
AcDbEntity
  8
Schneiden
370
     0
100
AcDbVertex
100
AcDb2dVertex
 10
153.6957003739025
 20
-2.54730360179373
 30
0.0
  0
VERTEX
  5
8A
330
86
100
AcDbEntity
  8
Schneiden
370
     0
100
AcDbVertex
100
AcDb2dVertex
 10
153.6957003739025
 20
0.3028238931534607
 30
0.0
  0
VERTEX
  5
8B
330
86
100
AcDbEntity
  8
Schneiden
370
     0
100
AcDbVertex
100
AcDb2dVertex
 10
143.695793963642
 20
0.3028238931534607
 30
0.0
  0
SEQEND
  5
8C
330
86
100
AcDbEntity
  8
Schneiden
370
     0
  0
ENDBLK
  5
85
330
82
100
AcDbEntity
  8
0
100
AcDbBlockEnd
  0
BLOCK
  5
8F
330
8D
100
AcDbEntity
  8
0
100
AcDbBlockBegin
  2
block 11
 70
     0
 71
     0
 10
0.0
 20
0.0
 30
0.0
  3
block 11
  1

  0
POLYLINE
  5
91
330
8D
100
AcDbEntity
  8
Schneiden
370
     0
100
AcDb2dPolyline
 66
     1
 10
0.0
 20
0.0
 30
0.0
  0
VERTEX
  5
92
330
91
100
AcDbEntity
  8
Schneiden
370
     0
100
AcDbVertex
100
AcDb2dVertex
 10
66.195787201333
 20
0.3028238931534607
 30
0.0
  0
VERTEX
  5
93
330
91
100
AcDbEntity
  8
Schneiden
370
     0
100
AcDbVertex
100
AcDb2dVertex
 10
66.195787201333
 20
-2.54730360179373
 30
0.0
  0
VERTEX
  5
94
330
91
100
AcDbEntity
  8
Schneiden
370
     0
100
AcDbVertex
100
AcDb2dVertex
 10
76.1958658663677
 20
-2.54730360179373
 30
0.0
  0
VERTEX
  5
95
330
91
100
AcDbEntity
  8
Schneiden
370
     0
100
AcDbVertex
100
AcDb2dVertex
 10
76.1958658663677
 20
0.3028238931534607
 30
0.0
  0
VERTEX
  5
96
330
91
100
AcDbEntity
  8
Schneiden
370
     0
100
AcDbVertex
100
AcDb2dVertex
 10
66.195787201333
 20
0.3028238931534607
 30
0.0
  0
SEQEND
  5
97
330
91
100
AcDbEntity
  8
Schneiden
370
     0
  0
ENDBLK
  5
90
330
8D
100
AcDbEntity
  8
0
100
AcDbBlockEnd
  0
BLOCK
  5
9A
330
98
100
AcDbEntity
  8
0
100
AcDbBlockBegin
  2
block 12
 70
     0
 71
     0
 10
0.0
 20
0.0
 30
0.0
  3
block 12
  1

  0
POLYLINE
  5
9C
330
98
100
AcDbEntity
  8
Schneiden
370
     0
100
AcDb2dPolyline
 66
     1
 10
0.0
 20
0.0
 30
0.0
  0
VERTEX
  5
9D
330
9C
100
AcDbEntity
  8
Schneiden
370
     0
100
AcDbVertex
100
AcDb2dVertex
 10
113.6959024780865
 20
0.3028238931534607
 30
0.0
  0
VERTEX
  5
9E
330
9C
100
AcDbEntity
  8
Schneiden
370
     0
100
AcDbVertex
100
AcDb2dVertex
 10
113.6959024780865
 20
-2.54730360179373
 30
0.0
  0
VERTEX
  5
9F
330
9C
100
AcDbEntity
  8
Schneiden
370
     0
100
AcDbVertex
100
AcDb2dVertex
 10
123.6958088883469
 20
-2.54730360179373
 30
0.0
  0
VERTEX
  5
A0
330
9C
100
AcDbEntity
  8
Schneiden
370
     0
100
AcDbVertex
100
AcDb2dVertex
 10
123.6958088883469
 20
0.3028238931534607
 30
0.0
  0
VERTEX
  5
A1
330
9C
100
AcDbEntity
  8
Schneiden
370
     0
100
AcDbVertex
100
AcDb2dVertex
 10
113.6959024780865
 20
0.3028238931534607
 30
0.0
  0
SEQEND
  5
A2
330
9C
100
AcDbEntity
  8
Schneiden
370
     0
  0
ENDBLK
  5
9B
330
98
100
AcDbEntity
  8
0
100
AcDbBlockEnd
  0
BLOCK
  5
A5
330
A3
100
AcDbEntity
  8
0
100
AcDbBlockBegin
  2
block 13
 70
     0
 71
     0
 10
0.0
 20
0.0
 30
0.0
  3
block 13
  1

  0
POLYLINE
  5
A7
330
A3
100
AcDbEntity
  8
Schneiden
370
     0
100
AcDb2dPolyline
 66
     1
 10
0.0
 20
0.0
 30
0.0
  0
VERTEX
  5
A8
330
A7
100
AcDbEntity
  8
Schneiden
370
     0
100
AcDbVertex
100
AcDb2dVertex
 10
193.8458766876496
 20
160.6277492545479
 30
0.0
  0
VERTEX
  5
A9
330
A7
100
AcDbEntity
  8
Schneiden
370
     0
100
AcDbVertex
100
AcDb2dVertex
 10
193.8458766876496
 20
150.6278428442875
 30
0.0
  0
VERTEX
  5
AA
330
A7
100
AcDbEntity
  8
Schneiden
370
     0
100
AcDbVertex
100
AcDb2dVertex
 10
196.6956596730483
 20
150.6278428442875
 30
0.0
  0
VERTEX
  5
AB
330
A7
100
AcDbEntity
  8
Schneiden
370
     0
100
AcDbVertex
100
AcDb2dVertex
 10
196.6956596730483
 20
160.6277492545479
 30
0.0
  0
VERTEX
  5
AC
330
A7
100
AcDbEntity
  8
Schneiden
370
     0
100
AcDbVertex
100
AcDb2dVertex
 10
193.8458766876496
 20
160.6277492545479
 30
0.0
  0
SEQEND
  5
AD
330
A7
100
AcDbEntity
  8
Schneiden
370
     0
  0
ENDBLK
  5
A6
330
A3
100
AcDbEntity
  8
0
100
AcDbBlockEnd
  0
BLOCK
  5
B0
330
AE
100
AcDbEntity
  8
0
100
AcDbBlockBegin
  2
block 14
 70
     0
 71
     0
 10
0.0
 20
0.0
 30
0.0
  3
block 14
  1

  0
POLYLINE
  5
B2
330
AE
100
AcDbEntity
  8
Schneiden
370
     0
100
AcDb2dPolyline
 66
     1
 10
0.0
 20
0.0
 30
0.0
  0
VERTEX
  5
B3
330
B2
100
AcDbEntity
  8
Schneiden
370
     0
100
AcDbVertex
100
AcDb2dVertex
 10
193.8458766876496
 20
32.62781032170416
 30
0.0
  0
VERTEX
  5
B4
330
B2
100
AcDbEntity
  8
Schneiden
370
     0
100
AcDbVertex
100
AcDb2dVertex
 10
193.8458766876496
 20
22.62773165666946
 30
0.0
  0
VERTEX
  5
B5
330
B2
100
AcDbEntity
  8
Schneiden
370
     0
100
AcDbVertex
100
AcDb2dVertex
 10
196.6956596730483
 20
22.62773165666946
 30
0.0
  0
VERTEX
  5
B6
330
B2
100
AcDbEntity
  8
Schneiden
370
     0
100
AcDbVertex
100
AcDb2dVertex
 10
196.6956596730483
 20
32.62781032170416
 30
0.0
  0
VERTEX
  5
B7
330
B2
100
AcDbEntity
  8
Schneiden
370
     0
100
AcDbVertex
100
AcDb2dVertex
 10
193.8458766876496
 20
32.62781032170416
 30
0.0
  0
SEQEND
  5
B8
330
B2
100
AcDbEntity
  8
Schneiden
370
     0
  0
ENDBLK
  5
B1
330
AE
100
AcDbEntity
  8
0
100
AcDbBlockEnd
  0
BLOCK
  5
BB
330
B9
100
AcDbEntity
  8
0
100
AcDbBlockBegin
  2
block 15
 70
     0
 71
     0
 10
0.0
 20
0.0
 30
0.0
  3
block 15
  1

  0
POLYLINE
  5
BD
330
B9
100
AcDbEntity
  8
Schneiden
370
     0
100
AcDb2dPolyline
 66
     1
 10
0.0
 20
0.0
 30
0.0
  0
VERTEX
  5
BE
330
BD
100
AcDbEntity
  8
Schneiden
370
     0
100
AcDbVertex
100
AcDb2dVertex
 10
215.6957057837497
 20
32.62781032170416
 30
0.0
  0
VERTEX
  5
BF
330
BD
100
AcDbEntity
  8
Schneiden
370
     0
100
AcDbVertex
100
AcDb2dVertex
 10
215.6957057837497
 20
22.62773165666946
 30
0.0
  0
VERTEX
  5
C0
330
BD
100
AcDbEntity
  8
Schneiden
370
     0
100
AcDbVertex
100
AcDb2dVertex
 10
218.5458332786969
 20
22.62773165666946
 30
0.0
  0
VERTEX
  5
C1
330
BD
100
AcDbEntity
  8
Schneiden
370
     0
100
AcDbVertex
100
AcDb2dVertex
 10
218.5458332786969
 20
32.62781032170416
 30
0.0
  0
VERTEX
  5
C2
330
BD
100
AcDbEntity
  8
Schneiden
370
     0
100
AcDbVertex
100
AcDb2dVertex
 10
215.6957057837497
 20
32.62781032170416
 30
0.0
  0
SEQEND
  5
C3
330
BD
100
AcDbEntity
  8
Schneiden
370
     0
  0
ENDBLK
  5
BC
330
B9
100
AcDbEntity
  8
0
100
AcDbBlockEnd
  0
BLOCK
  5
C6
330
C4
100
AcDbEntity
  8
0
100
AcDbBlockBegin
  2
block 16
 70
     0
 71
     0
 10
0.0
 20
0.0
 30
0.0
  3
block 16
  1

  0
POLYLINE
  5
C8
330
C4
100
AcDbEntity
  8
Schneiden
370
     0
100
AcDb2dPolyline
 66
     1
 10
0.0
 20
0.0
 30
0.0
  0
VERTEX
  5
C9
330
C8
100
AcDbEntity
  8
Schneiden
370
     0
100
AcDbVertex
100
AcDb2dVertex
 10
215.6957057837497
 20
160.6277492545479
 30
0.0
  0
VERTEX
  5
CA
330
C8
100
AcDbEntity
  8
Schneiden
370
     0
100
AcDbVertex
100
AcDb2dVertex
 10
215.6957057837497
 20
150.6278428442875
 30
0.0
  0
VERTEX
  5
CB
330
C8
100
AcDbEntity
  8
Schneiden
370
     0
100
AcDbVertex
100
AcDb2dVertex
 10
218.5458332786969
 20
150.6278428442875
 30
0.0
  0
VERTEX
  5
CC
330
C8
100
AcDbEntity
  8
Schneiden
370
     0
100
AcDbVertex
100
AcDb2dVertex
 10
218.5458332786969
 20
160.6277492545479
 30
0.0
  0
VERTEX
  5
CD
330
C8
100
AcDbEntity
  8
Schneiden
370
     0
100
AcDbVertex
100
AcDb2dVertex
 10
215.6957057837497
 20
160.6277492545479
 30
0.0
  0
SEQEND
  5
CE
330
C8
100
AcDbEntity
  8
Schneiden
370
     0
  0
ENDBLK
  5
C7
330
C4
100
AcDbEntity
  8
0
100
AcDbBlockEnd
  0
BLOCK
  5
D1
330
CF
100
AcDbEntity
  8
0
100
AcDbBlockBegin
  2
block 17
 70
     0
 71
     0
 10
0.0
 20
0.0
 30
0.0
  3
block 17
  1

  0
POLYLINE
  5
D3
330
CF
100
AcDbEntity
  8
Schneiden
370
     0
100
AcDb2dPolyline
 66
     1
 10
0.0
 20
0.0
 30
0.0
  0
VERTEX
  5
D4
330
D3
100
AcDbEntity
  8
Schneiden
370
     0
100
AcDbVertex
100
AcDb2dVertex
 10
211.1957220609164
 20
237.1278170522632
 30
0.0
  0
VERTEX
  5
D5
330
D3
100
AcDbEntity
  8
Schneiden
370
     0
100
AcDbVertex
100
AcDb2dVertex
 10
211.1957220609164
 20
234.2778618120903
 30
0.0
  0
VERTEX
  5
D6
330
D3
100
AcDbEntity
  8
Schneiden
370
     0
100
AcDbVertex
100
AcDb2dVertex
 10
221.1958007259511
 20
234.2778618120903
 30
0.0
  0
VERTEX
  5
D7
330
D3
100
AcDbEntity
  8
Schneiden
370
     0
100
AcDbVertex
100
AcDb2dVertex
 10
221.1958007259511
 20
237.1278170522632
 30
0.0
  0
VERTEX
  5
D8
330
D3
100
AcDbEntity
  8
Schneiden
370
     0
100
AcDbVertex
100
AcDb2dVertex
 10
211.1957220609164
 20
237.1278170522632
 30
0.0
  0
SEQEND
  5
D9
330
D3
100
AcDbEntity
  8
Schneiden
370
     0
  0
ENDBLK
  5
D2
330
CF
100
AcDbEntity
  8
0
100
AcDbBlockEnd
  0
BLOCK
  5
DC
330
DA
100
AcDbEntity
  8
0
100
AcDbBlockBegin
  2
block 18
 70
     0
 71
     0
 10
0.0
 20
0.0
 30
0.0
  3
block 18
  1

  0
POLYLINE
  5
DE
330
DA
100
AcDbEntity
  8
Schneiden
370
     0
100
AcDb2dPolyline
 66
     1
 10
0.0
 20
0.0
 30
0.0
  0
VERTEX
  5
DF
330
DE
100
AcDbEntity
  8
Schneiden
370
     0
100
AcDbVertex
100
AcDb2dVertex
 10
143.8458278720247
 20
175.6278672521
 30
0.0
  0
VERTEX
  5
E0
330
DE
100
AcDbEntity
  8
Schneiden
370
     0
100
AcDbVertex
100
AcDb2dVertex
 10
143.8458278720247
 20
165.6277885870653
 30
0.0
  0
VERTEX
  5
E1
330
DE
100
AcDbEntity
  8
Schneiden
370
     0
100
AcDbVertex
100
AcDb2dVertex
 10
146.6957831121976
 20
165.6277885870653
 30
0.0
  0
VERTEX
  5
E2
330
DE
100
AcDbEntity
  8
Schneiden
370
     0
100
AcDbVertex
100
AcDb2dVertex
 10
146.6957831121976
 20
175.6278672521
 30
0.0
  0
VERTEX
  5
E3
330
DE
100
AcDbEntity
  8
Schneiden
370
     0
100
AcDbVertex
100
AcDb2dVertex
 10
143.8458278720247
 20
175.6278672521
 30
0.0
  0
SEQEND
  5
E4
330
DE
100
AcDbEntity
  8
Schneiden
370
     0
  0
ENDBLK
  5
DD
330
DA
100
AcDbEntity
  8
0
100
AcDbBlockEnd
  0
BLOCK
  5
E7
330
E5
100
AcDbEntity
  8
0
100
AcDbBlockBegin
  2
block 19
 70
     0
 71
     0
 10
0.0
 20
0.0
 30
0.0
  3
block 19
  1

  0
POLYLINE
  5
E9
330
E5
100
AcDbEntity
  8
Schneiden
370
     0
100
AcDb2dPolyline
 66
     1
 10
0.0
 20
0.0
 30
0.0
  0
VERTEX
  5
EA
330
E9
100
AcDbEntity
  8
Schneiden
370
     0
100
AcDbVertex
100
AcDb2dVertex
 10
76.1958658663677
 20
237.1278170522632
 30
0.0
  0
VERTEX
  5
EB
330
E9
100
AcDbEntity
  8
Schneiden
370
     0
100
AcDbVertex
100
AcDb2dVertex
 10
76.1958658663677
 20
234.2778618120903
 30
0.0
  0
VERTEX
  5
EC
330
E9
100
AcDbEntity
  8
Schneiden
370
     0
100
AcDbVertex
100
AcDb2dVertex
 10
86.19577227662815
 20
234.2778618120903
 30
0.0
  0
VERTEX
  5
ED
330
E9
100
AcDbEntity
  8
Schneiden
370
     0
100
AcDbVertex
100
AcDb2dVertex
 10
86.19577227662815
 20
237.1278170522632
 30
0.0
  0
VERTEX
  5
EE
330
E9
100
AcDbEntity
  8
Schneiden
370
     0
100
AcDbVertex
100
AcDb2dVertex
 10
76.1958658663677
 20
237.1278170522632
 30
0.0
  0
SEQEND
  5
EF
330
E9
100
AcDbEntity
  8
Schneiden
370
     0
  0
ENDBLK
  5
E8
330
E5
100
AcDbEntity
  8
0
100
AcDbBlockEnd
  0
BLOCK
  5
F2
330
F0
100
AcDbEntity
  8
0
100
AcDbBlockBegin
  2
block 20
 70
     0
 71
     0
 10
0.0
 20
0.0
 30
0.0
  3
block 20
  1

  0
POLYLINE
  5
F4
330
F0
100
AcDbEntity
  8
Schneiden
370
     0
100
AcDb2dPolyline
 66
     1
 10
0.0
 20
0.0
 30
0.0
  0
VERTEX
  5
F5
330
F4
100
AcDbEntity
  8
Schneiden
370
     0
100
AcDbVertex
100
AcDb2dVertex
 10
150.6957112253469
 20
56.62772351014863
 30
0.0
  0
VERTEX
  5
F6
330
F4
100
AcDbEntity
  8
Schneiden
370
     0
100
AcDbVertex
100
AcDb2dVertex
 10
150.6957112253469
 20
46.62764484511393
 30
0.0
  0
VERTEX
  5
F7
330
F4
100
AcDbEntity
  8
Schneiden
370
     0
100
AcDbVertex
100
AcDb2dVertex
 10
153.5458387202941
 20
46.62764484511393
 30
0.0
  0
VERTEX
  5
F8
330
F4
100
AcDbEntity
  8
Schneiden
370
     0
100
AcDbVertex
100
AcDb2dVertex
 10
153.5458387202941
 20
56.62772351014863
 30
0.0
  0
VERTEX
  5
F9
330
F4
100
AcDbEntity
  8
Schneiden
370
     0
100
AcDbVertex
100
AcDb2dVertex
 10
150.6957112253469
 20
56.62772351014863
 30
0.0
  0
SEQEND
  5
FA
330
F4
100
AcDbEntity
  8
Schneiden
370
     0
  0
ENDBLK
  5
F3
330
F0
100
AcDbEntity
  8
0
100
AcDbBlockEnd
  0
BLOCK
  5
FD
330
FB
100
AcDbEntity
  8
0
100
AcDbBlockBegin
  2
block 21
 70
     0
 71
     0
 10
0.0
 20
0.0
 30
0.0
  3
block 21
  1

  0
POLYLINE
  5
FF
330
FB
100
AcDbEntity
  8
Schneiden
370
     0
100
AcDb2dPolyline
 66
     1
 10
0.0
 20
0.0
 30
0.0
  0
VERTEX
  5
100
330
FF
100
AcDbEntity
  8
Schneiden
370
     0
100
AcDbVertex
100
AcDb2dVertex
 10
100.6958346644962
 20
32.62781032170416
 30
0.0
  0
VERTEX
  5
101
330
FF
100
AcDbEntity
  8
Schneiden
370
     0
100
AcDbVertex
100
AcDb2dVertex
 10
100.6958346644962
 20
22.62773165666946
 30
0.0
  0
VERTEX
  5
102
330
FF
100
AcDbEntity
  8
Schneiden
370
     0
100
AcDbVertex
100
AcDb2dVertex
 10
103.5457899046691
 20
22.62773165666946
 30
0.0
  0
VERTEX
  5
103
330
FF
100
AcDbEntity
  8
Schneiden
370
     0
100
AcDbVertex
100
AcDb2dVertex
 10
103.5457899046691
 20
32.62781032170416
 30
0.0
  0
VERTEX
  5
104
330
FF
100
AcDbEntity
  8
Schneiden
370
     0
100
AcDbVertex
100
AcDb2dVertex
 10
100.6958346644962
 20
32.62781032170416
 30
0.0
  0
SEQEND
  5
105
330
FF
100
AcDbEntity
  8
Schneiden
370
     0
  0
ENDBLK
  5
FE
330
FB
100
AcDbEntity
  8
0
100
AcDbBlockEnd
  0
BLOCK
  5
108
330
106
100
AcDbEntity
  8
0
100
AcDbBlockBegin
  2
block 22
 70
     0
 71
     0
 10
0.0
 20
0.0
 30
0.0
  3
block 22
  1

  0
POLYLINE
  5
10A
330
106
100
AcDbEntity
  8
Schneiden
370
     0
100
AcDb2dPolyline
 66
     1
 10
0.0
 20
0.0
 30
0.0
  0
VERTEX
  5
10B
330
10A
100
AcDbEntity
  8
Schneiden
370
     0
100
AcDbVertex
100
AcDb2dVertex
 10
78.84583331362188
 20
32.62781032170416
 30
0.0
  0
VERTEX
  5
10C
330
10A
100
AcDbEntity
  8
Schneiden
370
     0
100
AcDbVertex
100
AcDb2dVertex
 10
78.84583331362188
 20
22.62773165666946
 30
0.0
  0
VERTEX
  5
10D
330
10A
100
AcDbEntity
  8
Schneiden
370
     0
100
AcDbVertex
100
AcDb2dVertex
 10
81.69578855379481
 20
22.62773165666946
 30
0.0
  0
VERTEX
  5
10E
330
10A
100
AcDbEntity
  8
Schneiden
370
     0
100
AcDbVertex
100
AcDb2dVertex
 10
81.69578855379481
 20
32.62781032170416
 30
0.0
  0
VERTEX
  5
10F
330
10A
100
AcDbEntity
  8
Schneiden
370
     0
100
AcDbVertex
100
AcDb2dVertex
 10
78.84583331362188
 20
32.62781032170416
 30
0.0
  0
SEQEND
  5
110
330
10A
100
AcDbEntity
  8
Schneiden
370
     0
  0
ENDBLK
  5
109
330
106
100
AcDbEntity
  8
0
100
AcDbBlockEnd
  0
BLOCK
  5
113
330
111
100
AcDbEntity
  8
0
100
AcDbBlockBegin
  2
block 23
 70
     0
 71
     0
 10
0.0
 20
0.0
 30
0.0
  3
block 23
  1

  0
POLYLINE
  5
115
330
111
100
AcDbEntity
  8
Schneiden
370
     0
100
AcDb2dPolyline
 66
     1
 10
0.0
 20
0.0
 30
0.0
  0
VERTEX
  5
116
330
115
100
AcDbEntity
  8
Schneiden
370
     0
100
AcDbVertex
100
AcDb2dVertex
 10
76.1958658663677
 20
160.6277492545479
 30
0.0
  0
VERTEX
  5
117
330
115
100
AcDbEntity
  8
Schneiden
370
     0
100
AcDbVertex
100
AcDb2dVertex
 10
76.1958658663677
 20
150.6278428442875
 30
0.0
  0
VERTEX
  5
118
330
115
100
AcDbEntity
  8
Schneiden
370
     0
100
AcDbVertex
100
AcDb2dVertex
 10
79.04582110654063
 20
150.6278428442875
 30
0.0
  0
VERTEX
  5
119
330
115
100
AcDbEntity
  8
Schneiden
370
     0
100
AcDbVertex
100
AcDb2dVertex
 10
79.04582110654063
 20
160.6277492545479
 30
0.0
  0
VERTEX
  5
11A
330
115
100
AcDbEntity
  8
Schneiden
370
     0
100
AcDbVertex
100
AcDb2dVertex
 10
76.1958658663677
 20
160.6277492545479
 30
0.0
  0
SEQEND
  5
11B
330
115
100
AcDbEntity
  8
Schneiden
370
     0
  0
ENDBLK
  5
114
330
111
100
AcDbEntity
  8
0
100
AcDbBlockEnd
  0
BLOCK
  5
11E
330
11C
100
AcDbEntity
  8
0
100
AcDbBlockBegin
  2
block 24
 70
     0
 71
     0
 10
0.0
 20
0.0
 30
0.0
  3
block 24
  1

  0
SPLINE
  5
120
330
11C
100
AcDbEntity
  8
Schneiden
370
     0
100
AcDbSpline
210
0.0
220
0.0
230
1.0
 70
    11
 71
     3
 72
    29
 73
    25
 74
     0
 42
0.0000000001
 43
0.0000000001
 40
0.0
 40
0.0
 40
0.0
 40
0.0
 40
1.0
 40
1.0
 40
1.0
 40
2.0
 40
2.0
 40
2.0
 40
3.0
 40
3.0
 40
3.0
 40
4.0
 40
4.0
 40
4.0
 40
5.0
 40
5.0
 40
5.0
 40
6.0
 40
6.0
 40
6.0
 40
7.0
 40
7.0
 40
7.0
 40
8.0
 40
8.0
 40
8.0
 40
8.0
 10
142.6958549990483
 20
136.6278360661035
 30
0.0
 10
142.1436061927627
 20
136.6278360661035
 30
0.0
 10
141.6957437796802
 20
137.0755262244117
 30
0.0
 10
141.6957437796802
 20
137.6277750306972
 30
0.0
 10
141.6957437796802
 20
137.6277750306972
 30
0.0
 10
141.6957437796802
 20
141.6277031438466
 30
0.0
 10
141.6957437796802
 20
141.6277031438466
 30
0.0
 10
141.6957437796802
 20
142.1801242049064
 30
0.0
 10
142.1436061927627
 20
142.6278143632146
 30
0.0
 10
142.6958549990483
 20
142.6278143632146
 30
0.0
 10
142.6958549990483
 20
142.6278143632146
 30
0.0
 10
154.6958115932705
 20
142.6278143632146
 30
0.0
 10
154.6958115932705
 20
142.6278143632146
 30
0.0
 10
155.248060399556
 20
142.6278143632146
 30
0.0
 10
155.6959228126385
 20
142.1801242049064
 30
0.0
 10
155.6959228126385
 20
141.6277031438466
 30
0.0
 10
155.6959228126385
 20
141.6277031438466
 30
0.0
 10
155.6959228126385
 20
137.6277750306972
 30
0.0
 10
155.6959228126385
 20
137.6277750306972
 30
0.0
 10
155.6959228126385
 20
137.0755262244117
 30
0.0
 10
155.248060399556
 20
136.6278360661035
 30
0.0
 10
154.6958115932705
 20
136.6278360661035
 30
0.0
 10
154.6958115932705
 20
136.6278360661035
 30
0.0
 10
142.6958549990483
 20
136.6278360661035
 30
0.0
 10
142.6958549990483
 20
136.6278360661035
 30
0.0
  0
ENDBLK
  5
11F
330
11C
100
AcDbEntity
  8
0
100
AcDbBlockEnd
  0
BLOCK
  5
123
330
121
100
AcDbEntity
  8
0
100
AcDbBlockBegin
  2
block 25
 70
     0
 71
     0
 10
0.0
 20
0.0
 30
0.0
  3
block 25
  1

  0
SPLINE
  5
125
330
121
100
AcDbEntity
  8
Schneiden
370
     0
100
AcDbSpline
210
0.0
220
0.0
230
1.0
 70
    11
 71
     3
 72
    20
 73
    16
 74
     0
 42
0.0000000001
 43
0.0000000001
 40
0.0
 40
0.0
 40
0.0
 40
0.0
 40
1.0
 40
1.0
 40
1.0
 40
2.0
 40
2.0
 40
2.0
 40
3.0
 40
3.0
 40
3.0
 40
4.0
 40
4.0
 40
4.0
 40
5.0
 40
5.0
 40
5.0
 40
5.0
 10
133.6958875533816
 20
195.377738395166
 30
0.0
 10
133.6958875533816
 20
198.139154681368
 30
0.0
 10
131.4572645070662
 20
200.3777777276833
 30
0.0
 10
128.6958482208642
 20
200.3777777276833
 30
0.0
 10
125.9344319346622
 20
200.3777777276833
 30
0.0
 10
123.6958088883469
 20
198.139154681368
 30
0.0
 10
123.6958088883469
 20
195.377738395166
 30
0.0
 10
123.6958088883469
 20
192.616322108964
 30
0.0
 10
125.9344319346622
 20
190.3776990626486
 30
0.0
 10
128.6958482208642
 20
190.3776990626486
 30
0.0
 10
131.4572645070662
 20
190.3776990626486
 30
0.0
 10
133.6958875533816
 20
192.616322108964
 30
0.0
 10
133.6958875533816
 20
195.377738395166
 30
0.0
 10
133.6958875533816
 20
195.377738395166
 30
0.0
 10
133.6958875533816
 20
195.377738395166
 30
0.0
 10
133.6958875533816
 20
195.377738395166
 30
0.0
  0
ENDBLK
  5
124
330
121
100
AcDbEntity
  8
0
100
AcDbBlockEnd
  0
BLOCK
  5
128
330
126
100
AcDbEntity
  8
0
100
AcDbBlockBegin
  2
block 26
 70
     0
 71
     0
 10
0.0
 20
0.0
 30
0.0
  3
block 26
  1

  0
SPLINE
  5
12A
330
126
100
AcDbEntity
  8
Schneiden
370
     0
100
AcDbSpline
210
0.0
220
0.0
230
1.0
 70
    11
 71
     3
 72
    20
 73
    16
 74
     0
 42
0.0000000001
 43
0.0000000001
 40
0.0
 40
0.0
 40
0.0
 40
0.0
 40
1.0
 40
1.0
 40
1.0
 40
2.0
 40
2.0
 40
2.0
 40
3.0
 40
3.0
 40
3.0
 40
4.0
 40
4.0
 40
4.0
 40
5.0
 40
5.0
 40
5.0
 40
5.0
 10
173.6958577039719
 20
195.377738395166
 30
0.0
 10
173.6958577039719
 20
198.139154681368
 30
0.0
 10
171.4572346576565
 20
200.3777777276833
 30
0.0
 10
168.6959906262288
 20
200.3777777276833
 30
0.0
 10
165.9344020852525
 20
200.3777777276833
 30
0.0
 10
163.6957790389372
 20
198.139154681368
 30
0.0
 10
163.6957790389372
 20
195.377738395166
 30
0.0
 10
163.6957790389372
 20
192.616322108964
 30
0.0
 10
165.9344020852525
 20
190.3776990626486
 30
0.0
 10
168.6959906262288
 20
190.3776990626486
 30
0.0
 10
171.4572346576565
 20
190.3776990626486
 30
0.0
 10
173.6958577039719
 20
192.616322108964
 30
0.0
 10
173.6958577039719
 20
195.377738395166
 30
0.0
 10
173.6958577039719
 20
195.377738395166
 30
0.0
 10
173.6958577039719
 20
195.377738395166
 30
0.0
 10
173.6958577039719
 20
195.377738395166
 30
0.0
  0
ENDBLK
  5
129
330
126
100
AcDbEntity
  8
0
100
AcDbBlockEnd
  0
BLOCK
  5
12D
330
12B
100
AcDbEntity
  8
0
100
AcDbBlockBegin
  2
block 27
 70
     0
 71
     0
 10
0.0
 20
0.0
 30
0.0
  3
block 27
  1

  0
POLYLINE
  5
12F
330
12B
100
AcDbEntity
  8
Schneiden
370
     0
100
AcDb2dPolyline
 66
     1
 10
0.0
 20
0.0
 30
0.0
  0
VERTEX
  5
130
330
12F
100
AcDbEntity
  8
Schneiden
370
     0
100
AcDbVertex
100
AcDb2dVertex
 10
113.6959024780865
 20
-29.02217338684168
 30
0.0
  0
VERTEX
  5
131
330
12F
100
AcDbEntity
  8
Schneiden
370
     0
100
AcDbVertex
100
AcDb2dVertex
 10
113.6959024780865
 20
-31.87230088178887
 30
0.0
  0
VERTEX
  5
132
330
12F
100
AcDbEntity
  8
Schneiden
370
     0
100
AcDbVertex
100
AcDb2dVertex
 10
123.6958088883469
 20
-31.87230088178887
 30
0.0
  0
VERTEX
  5
133
330
12F
100
AcDbEntity
  8
Schneiden
370
     0
100
AcDbVertex
100
AcDb2dVertex
 10
123.6958088883469
 20
-29.02217338684168
 30
0.0
  0
VERTEX
  5
134
330
12F
100
AcDbEntity
  8
Schneiden
370
     0
100
AcDbVertex
100
AcDb2dVertex
 10
113.6959024780865
 20
-29.02217338684168
 30
0.0
  0
SEQEND
  5
135
330
12F
100
AcDbEntity
  8
Schneiden
370
     0
  0
ENDBLK
  5
12E
330
12B
100
AcDbEntity
  8
0
100
AcDbBlockEnd
  0
BLOCK
  5
138
330
136
100
AcDbEntity
  8
0
100
AcDbBlockBegin
  2
block 28
 70
     0
 71
     0
 10
0.0
 20
0.0
 30
0.0
  3
block 28
  1

  0
POLYLINE
  5
13A
330
136
100
AcDbEntity
  8
Schneiden
370
     0
100
AcDb2dPolyline
 66
     1
 10
0.0
 20
0.0
 30
0.0
  0
VERTEX
  5
13B
330
13A
100
AcDbEntity
  8
Schneiden
370
     0
100
AcDbVertex
100
AcDb2dVertex
 10
66.195787201333
 20
-29.02217338684168
 30
0.0
  0
VERTEX
  5
13C
330
13A
100
AcDbEntity
  8
Schneiden
370
     0
100
AcDbVertex
100
AcDb2dVertex
 10
66.195787201333
 20
-31.87230088178887
 30
0.0
  0
VERTEX
  5
13D
330
13A
100
AcDbEntity
  8
Schneiden
370
     0
100
AcDbVertex
100
AcDb2dVertex
 10
76.1958658663677
 20
-31.87230088178887
 30
0.0
  0
VERTEX
  5
13E
330
13A
100
AcDbEntity
  8
Schneiden
370
     0
100
AcDbVertex
100
AcDb2dVertex
 10
76.1958658663677
 20
-29.02217338684168
 30
0.0
  0
VERTEX
  5
13F
330
13A
100
AcDbEntity
  8
Schneiden
370
     0
100
AcDbVertex
100
AcDb2dVertex
 10
66.195787201333
 20
-29.02217338684168
 30
0.0
  0
SEQEND
  5
140
330
13A
100
AcDbEntity
  8
Schneiden
370
     0
  0
ENDBLK
  5
139
330
136
100
AcDbEntity
  8
0
100
AcDbBlockEnd
  0
BLOCK
  5
143
330
141
100
AcDbEntity
  8
0
100
AcDbBlockBegin
  2
block 29
 70
     0
 71
     0
 10
0.0
 20
0.0
 30
0.0
  3
block 29
  1

  0
POLYLINE
  5
145
330
141
100
AcDbEntity
  8
Schneiden
370
     0
100
AcDb2dPolyline
 66
     1
 10
0.0
 20
0.0
 30
0.0
  0
VERTEX
  5
146
330
145
100
AcDbEntity
  8
Schneiden
370
     0
100
AcDbVertex
100
AcDb2dVertex
 10
89.94575871232259
 20
-29.02217338684168
 30
0.0
  0
VERTEX
  5
147
330
145
100
AcDbEntity
  8
Schneiden
370
     0
100
AcDbVertex
100
AcDb2dVertex
 10
89.94575871232259
 20
-31.87230088178887
 30
0.0
  0
VERTEX
  5
148
330
145
100
AcDbEntity
  8
Schneiden
370
     0
100
AcDbVertex
100
AcDb2dVertex
 10
99.9458373773573
 20
-31.87230088178887
 30
0.0
  0
VERTEX
  5
149
330
145
100
AcDbEntity
  8
Schneiden
370
     0
100
AcDbVertex
100
AcDb2dVertex
 10
99.9458373773573
 20
-29.02217338684168
 30
0.0
  0
VERTEX
  5
14A
330
145
100
AcDbEntity
  8
Schneiden
370
     0
100
AcDbVertex
100
AcDb2dVertex
 10
89.94575871232259
 20
-29.02217338684168
 30
0.0
  0
SEQEND
  5
14B
330
145
100
AcDbEntity
  8
Schneiden
370
     0
  0
ENDBLK
  5
144
330
141
100
AcDbEntity
  8
0
100
AcDbBlockEnd
  0
BLOCK
  5
14E
330
14C
100
AcDbEntity
  8
0
100
AcDbBlockBegin
  2
block 30
 70
     0
 71
     0
 10
0.0
 20
0.0
 30
0.0
  3
block 30
  1

  0
POLYLINE
  5
150
330
14C
100
AcDbEntity
  8
Schneiden
370
     0
100
AcDb2dPolyline
 66
     1
 10
0.0
 20
0.0
 30
0.0
  0
VERTEX
  5
151
330
150
100
AcDbEntity
  8
Schneiden
370
     0
100
AcDbVertex
100
AcDb2dVertex
 10
61.19592012358991
 20
-25.87232258467775
 30
0.0
  0
VERTEX
  5
152
330
150
100
AcDbEntity
  8
Schneiden
370
     0
100
AcDbVertex
100
AcDb2dVertex
 10
128.6958482208642
 20
-25.87232258467775
 30
0.0
  0
VERTEX
  5
153
330
150
100
AcDbEntity
  8
Schneiden
370
     0
100
AcDbVertex
100
AcDb2dVertex
 10
128.6958482208642
 20
-34.87229003034443
 30
0.0
  0
VERTEX
  5
154
330
150
100
AcDbEntity
  8
Schneiden
370
     0
100
AcDbVertex
100
AcDb2dVertex
 10
61.19592012358991
 20
-34.87229003034443
 30
0.0
  0
VERTEX
  5
155
330
150
100
AcDbEntity
  8
Schneiden
370
     0
100
AcDbVertex
100
AcDb2dVertex
 10
61.19592012358991
 20
-25.87232258467775
 30
0.0
  0
SEQEND
  5
156
330
150
100
AcDbEntity
  8
Schneiden
370
     0
  0
ENDBLK
  5
14F
330
14C
100
AcDbEntity
  8
0
100
AcDbBlockEnd
  0
BLOCK
  5
15A
330
158
100
AcDbEntity
  8
0
100
AcDbBlockBegin
  2
block 31
 70
     0
 71
     0
 10
0.0
 20
0.0
 30
0.0
  3
block 31
  1

  0
POLYLINE
  5
15C
330
158
100
AcDbEntity
  8
Gravieren
370
     0
100
AcDb2dPolyline
 66
     1
 10
0.0
 20
0.0
 30
0.0
  0
VERTEX
  5
15D
330
15C
100
AcDbEntity
  8
Gravieren
370
     0
100
AcDbVertex
100
AcDb2dVertex
 10
80.67276744944986
 20
20.59546982992058
 30
0.0
  0
VERTEX
  5
15E
330
15C
100
AcDbEntity
  8
Gravieren
370
     0
100
AcDbVertex
100
AcDb2dVertex
 10
61.17283798383874
 20
20.59546982992058
 30
0.0
  0
SEQEND
  5
15F
330
15C
100
AcDbEntity
  8
Gravieren
370
     0
  0
ENDBLK
  5
15B
330
158
100
AcDbEntity
  8
0
100
AcDbBlockEnd
  0
BLOCK
  5
162
330
160
100
AcDbEntity
  8
0
100
AcDbBlockBegin
  2
block 32
 70
     0
 71
     0
 10
0.0
 20
0.0
 30
0.0
  3
block 32
  1

  0
POLYLINE
  5
164
330
160
100
AcDbEntity
  8
Gravieren
370
     0
100
AcDb2dPolyline
 66
     1
 10
0.0
 20
0.0
 30
0.0
  0
VERTEX
  5
165
330
164
100
AcDbEntity
  8
Gravieren
370
     0
100
AcDbVertex
100
AcDb2dVertex
 10
61.17283798383874
 20
5.595524087142786
 30
0.0
  0
VERTEX
  5
166
330
164
100
AcDbEntity
  8
Gravieren
370
     0
100
AcDbVertex
100
AcDb2dVertex
 10
205.1726616240541
 20
5.595524087142786
 30
0.0
  0
SEQEND
  5
167
330
164
100
AcDbEntity
  8
Gravieren
370
     0
  0
ENDBLK
  5
163
330
160
100
AcDbEntity
  8
0
100
AcDbBlockEnd
  0
BLOCK
  5
16A
330
168
100
AcDbEntity
  8
0
100
AcDbBlockBegin
  2
block 33
 70
     0
 71
     0
 10
0.0
 20
0.0
 30
0.0
  3
block 33
  1

  0
POLYLINE
  5
16C
330
168
100
AcDbEntity
  8
Gravieren
370
     0
100
AcDb2dPolyline
 66
     1
 10
0.0
 20
0.0
 30
0.0
  0
VERTEX
  5
16D
330
16C
100
AcDbEntity
  8
Gravieren
370
     0
100
AcDbVertex
100
AcDb2dVertex
 10
213.6724012052625
 20
14.09595268744823
 30
0.0
  0
VERTEX
  5
16E
330
16C
100
AcDbEntity
  8
Gravieren
370
     0
100
AcDbVertex
100
AcDb2dVertex
 10
213.6724012052625
 20
165.0955213345942
 30
0.0
  0
SEQEND
  5
16F
330
16C
100
AcDbEntity
  8
Gravieren
370
     0
  0
ENDBLK
  5
16B
330
168
100
AcDbEntity
  8
0
100
AcDbBlockEnd
  0
BLOCK
  5
172
330
170
100
AcDbEntity
  8
0
100
AcDbBlockBegin
  2
block 34
 70
     0
 71
     0
 10
0.0
 20
0.0
 30
0.0
  3
block 34
  1

  0
POLYLINE
  5
174
330
170
100
AcDbEntity
  8
Gravieren
370
     0
100
AcDb2dPolyline
 66
     1
 10
0.0
 20
0.0
 30
0.0
  0
VERTEX
  5
175
330
174
100
AcDbEntity
  8
Gravieren
370
     0
100
AcDbVertex
100
AcDb2dVertex
 10
201.172905765679
 20
177.5955335385004
 30
0.0
  0
VERTEX
  5
176
330
174
100
AcDbEntity
  8
Gravieren
370
     0
100
AcDbVertex
100
AcDb2dVertex
 10
196.6729220428457
 20
177.5955335385004
 30
0.0
  0
SEQEND
  5
177
330
174
100
AcDbEntity
  8
Gravieren
370
     0
  0
ENDBLK
  5
173
330
170
100
AcDbEntity
  8
0
100
AcDbBlockEnd
  0
BLOCK
  5
17A
330
178
100
AcDbEntity
  8
0
100
AcDbBlockBegin
  2
block 35
 70
     0
 71
     0
 10
0.0
 20
0.0
 30
0.0
  3
block 35
  1

  0
POLYLINE
  5
17C
330
178
100
AcDbEntity
  8
Gravieren
370
     0
100
AcDb2dPolyline
 66
     1
 10
0.0
 20
0.0
 30
0.0
  0
VERTEX
  5
17D
330
17C
100
AcDbEntity
  8
Gravieren
370
     0
100
AcDbVertex
100
AcDb2dVertex
 10
193.6729328942901
 20
180.595522687056
 30
0.0
  0
VERTEX
  5
17E
330
17C
100
AcDbEntity
  8
Gravieren
370
     0
100
AcDbVertex
100
AcDb2dVertex
 10
193.6729328942901
 20
210.0955308177018
 30
0.0
  0
SEQEND
  5
17F
330
17C
100
AcDbEntity
  8
Gravieren
370
     0
  0
ENDBLK
  5
17B
330
178
100
AcDbEntity
  8
0
100
AcDbBlockEnd
  0
BLOCK
  5
182
330
180
100
AcDbEntity
  8
0
100
AcDbBlockBegin
  2
block 36
 70
     0
 71
     0
 10
0.0
 20
0.0
 30
0.0
  3
block 36
  1

  0
POLYLINE
  5
184
330
180
100
AcDbEntity
  8
Gravieren
370
     0
100
AcDb2dPolyline
 66
     1
 10
0.0
 20
0.0
 30
0.0
  0
VERTEX
  5
185
330
184
100
AcDbEntity
  8
Gravieren
370
     0
100
AcDbVertex
100
AcDb2dVertex
 10
190.6729437457346
 20
213.0955199662574
 30
0.0
  0
VERTEX
  5
186
330
184
100
AcDbEntity
  8
Gravieren
370
     0
100
AcDbVertex
100
AcDb2dVertex
 10
106.6727308218561
 20
213.0955199662574
 30
0.0
  0
SEQEND
  5
187
330
184
100
AcDbEntity
  8
Gravieren
370
     0
  0
ENDBLK
  5
183
330
180
100
AcDbEntity
  8
0
100
AcDbBlockEnd
  0
BLOCK
  5
18A
330
188
100
AcDbEntity
  8
0
100
AcDbBlockBegin
  2
block 37
 70
     0
 71
     0
 10
0.0
 20
0.0
 30
0.0
  3
block 37
  1

  0
POLYLINE
  5
18C
330
188
100
AcDbEntity
  8
Gravieren
370
     0
100
AcDb2dPolyline
 66
     1
 10
0.0
 20
0.0
 30
0.0
  0
VERTEX
  5
18D
330
18C
100
AcDbEntity
  8
Gravieren
370
     0
100
AcDbVertex
100
AcDb2dVertex
 10
103.6727416733006
 20
210.0955308177018
 30
0.0
  0
VERTEX
  5
18E
330
18C
100
AcDbEntity
  8
Gravieren
370
     0
100
AcDbVertex
100
AcDb2dVertex
 10
103.6727416733006
 20
180.595522687056
 30
0.0
  0
SEQEND
  5
18F
330
18C
100
AcDbEntity
  8
Gravieren
370
     0
  0
ENDBLK
  5
18B
330
188
100
AcDbEntity
  8
0
100
AcDbBlockEnd
  0
BLOCK
  5
192
330
190
100
AcDbEntity
  8
0
100
AcDbBlockBegin
  2
block 38
 70
     0
 71
     0
 10
0.0
 20
0.0
 30
0.0
  3
block 38
  1

  0
POLYLINE
  5
194
330
190
100
AcDbEntity
  8
Gravieren
370
     0
100
AcDb2dPolyline
 66
     1
 10
0.0
 20
0.0
 30
0.0
  0
VERTEX
  5
195
330
194
100
AcDbEntity
  8
Gravieren
370
     0
100
AcDbVertex
100
AcDb2dVertex
 10
106.6727308218561
 20
177.5955335385004
 30
0.0
  0
VERTEX
  5
196
330
194
100
AcDbEntity
  8
Gravieren
370
     0
100
AcDbVertex
100
AcDb2dVertex
 10
145.6725897530784
 20
177.5955335385004
 30
0.0
  0
SEQEND
  5
197
330
194
100
AcDbEntity
  8
Gravieren
370
     0
  0
ENDBLK
  5
193
330
190
100
AcDbEntity
  8
0
100
AcDbBlockEnd
  0
BLOCK
  5
19A
330
198
100
AcDbEntity
  8
0
100
AcDbBlockBegin
  2
block 39
 70
     0
 71
     0
 10
0.0
 20
0.0
 30
0.0
  3
block 39
  1

  0
POLYLINE
  5
19C
330
198
100
AcDbEntity
  8
Gravieren
370
     0
100
AcDb2dPolyline
 66
     1
 10
0.0
 20
0.0
 30
0.0
  0
VERTEX
  5
19D
330
19C
100
AcDbEntity
  8
Gravieren
370
     0
100
AcDbVertex
100
AcDb2dVertex
 10
148.6724066468597
 20
174.5955443899449
 30
0.0
  0
VERTEX
  5
19E
330
19C
100
AcDbEntity
  8
Gravieren
370
     0
100
AcDbVertex
100
AcDb2dVertex
 10
148.6724066468597
 20
165.5955769442782
 30
0.0
  0
SEQEND
  5
19F
330
19C
100
AcDbEntity
  8
Gravieren
370
     0
  0
ENDBLK
  5
19B
330
198
100
AcDbEntity
  8
0
100
AcDbBlockEnd
  0
BLOCK
  5
1A2
330
1A0
100
AcDbEntity
  8
0
100
AcDbBlockBegin
  2
block 40
 70
     0
 71
     0
 10
0.0
 20
0.0
 30
0.0
  3
block 40
  1

  0
POLYLINE
  5
1A4
330
1A0
100
AcDbEntity
  8
Gravieren
370
     0
100
AcDb2dPolyline
 66
     1
 10
0.0
 20
0.0
 30
0.0
  0
VERTEX
  5
1A5
330
1A4
100
AcDbEntity
  8
Gravieren
370
     0
100
AcDbVertex
100
AcDb2dVertex
 10
151.6723957954152
 20
162.5955877957227
 30
0.0
  0
VERTEX
  5
1A6
330
1A4
100
AcDbEntity
  8
Gravieren
370
     0
100
AcDbVertex
100
AcDb2dVertex
 10
195.6724663139291
 20
162.5955877957227
 30
0.0
  0
SEQEND
  5
1A7
330
1A4
100
AcDbEntity
  8
Gravieren
370
     0
  0
ENDBLK
  5
1A3
330
1A0
100
AcDbEntity
  8
0
100
AcDbBlockEnd
  0
BLOCK
  5
1AA
330
1A8
100
AcDbEntity
  8
0
100
AcDbBlockBegin
  2
block 41
 70
     0
 71
     0
 10
0.0
 20
0.0
 30
0.0
  3
block 41
  1

  0
POLYLINE
  5
1AC
330
1A8
100
AcDbEntity
  8
Gravieren
370
     0
100
AcDb2dPolyline
 66
     1
 10
0.0
 20
0.0
 30
0.0
  0
VERTEX
  5
1AD
330
1AC
100
AcDbEntity
  8
Gravieren
370
     0
100
AcDbVertex
100
AcDb2dVertex
 10
198.6724554624847
 20
159.5955986471671
 30
0.0
  0
VERTEX
  5
1AE
330
1AC
100
AcDbEntity
  8
Gravieren
370
     0
100
AcDbVertex
100
AcDb2dVertex
 10
198.6724554624847
 20
23.59545897847613
 30
0.0
  0
SEQEND
  5
1AF
330
1AC
100
AcDbEntity
  8
Gravieren
370
     0
  0
ENDBLK
  5
1AB
330
1A8
100
AcDbEntity
  8
0
100
AcDbBlockEnd
  0
BLOCK
  5
1B2
330
1B0
100
AcDbEntity
  8
0
100
AcDbBlockBegin
  2
block 42
 70
     0
 71
     0
 10
0.0
 20
0.0
 30
0.0
  3
block 42
  1

  0
POLYLINE
  5
1B4
330
1B0
100
AcDbEntity
  8
Gravieren
370
     0
100
AcDb2dPolyline
 66
     1
 10
0.0
 20
0.0
 30
0.0
  0
VERTEX
  5
1B5
330
1B4
100
AcDbEntity
  8
Gravieren
370
     0
100
AcDbVertex
100
AcDb2dVertex
 10
195.6724663139291
 20
20.59546982992058
 30
0.0
  0
VERTEX
  5
1B6
330
1B4
100
AcDbEntity
  8
Gravieren
370
     0
100
AcDbVertex
100
AcDb2dVertex
 10
101.672863744113
 20
20.59546982992058
 30
0.0
  0
SEQEND
  5
1B7
330
1B4
100
AcDbEntity
  8
Gravieren
370
     0
  0
ENDBLK
  5
1B3
330
1B0
100
AcDbEntity
  8
0
100
AcDbBlockEnd
  0
BLOCK
  5
1BA
330
1B8
100
AcDbEntity
  8
0
100
AcDbBlockBegin
  2
block 43
 70
     0
 71
     0
 10
0.0
 20
0.0
 30
0.0
  3
block 43
  1

  0
POLYLINE
  5
1BC
330
1B8
100
AcDbEntity
  8
Gravieren
370
     0
100
AcDb2dPolyline
 66
     1
 10
0.0
 20
0.0
 30
0.0
  0
VERTEX
  5
1BD
330
1BC
100
AcDbEntity
  8
Gravieren
370
     0
100
AcDbVertex
100
AcDb2dVertex
 10
98.67270234078322
 20
23.59545897847613
 30
0.0
  0
VERTEX
  5
1BE
330
1BC
100
AcDbEntity
  8
Gravieren
370
     0
100
AcDbVertex
100
AcDb2dVertex
 10
98.67270234078322
 20
40.59562715998998
 30
0.0
  0
SEQEND
  5
1BF
330
1BC
100
AcDbEntity
  8
Gravieren
370
     0
  0
ENDBLK
  5
1BB
330
1B8
100
AcDbEntity
  8
0
100
AcDbBlockEnd
  0
BLOCK
  5
1C2
330
1C0
100
AcDbEntity
  8
0
100
AcDbBlockBegin
  2
block 44
 70
     0
 71
     0
 10
0.0
 20
0.0
 30
0.0
  3
block 44
  1

  0
POLYLINE
  5
1C4
330
1C0
100
AcDbEntity
  8
Gravieren
370
     0
100
AcDb2dPolyline
 66
     1
 10
0.0
 20
0.0
 30
0.0
  0
VERTEX
  5
1C5
330
1C4
100
AcDbEntity
  8
Gravieren
370
     0
100
AcDbVertex
100
AcDb2dVertex
 10
101.672863744113
 20
43.59561630854554
 30
0.0
  0
VERTEX
  5
1C6
330
1C4
100
AcDbEntity
  8
Gravieren
370
     0
100
AcDbVertex
100
AcDb2dVertex
 10
145.6725897530784
 20
43.59561630854554
 30
0.0
  0
SEQEND
  5
1C7
330
1C4
100
AcDbEntity
  8
Gravieren
370
     0
  0
ENDBLK
  5
1C3
330
1C0
100
AcDbEntity
  8
0
100
AcDbBlockEnd
  0
BLOCK
  5
1CA
330
1C8
100
AcDbEntity
  8
0
100
AcDbBlockBegin
  2
block 45
 70
     0
 71
     0
 10
0.0
 20
0.0
 30
0.0
  3
block 45
  1

  0
POLYLINE
  5
1CC
330
1C8
100
AcDbEntity
  8
Gravieren
370
     0
100
AcDb2dPolyline
 66
     1
 10
0.0
 20
0.0
 30
0.0
  0
VERTEX
  5
1CD
330
1CC
100
AcDbEntity
  8
Gravieren
370
     0
100
AcDbVertex
100
AcDb2dVertex
 10
148.6724066468597
 20
46.5956054571011
 30
0.0
  0
VERTEX
  5
1CE
330
1CC
100
AcDbEntity
  8
Gravieren
370
     0
100
AcDbVertex
100
AcDb2dVertex
 10
148.6724066468597
 20
55.59557290276778
 30
0.0
  0
SEQEND
  5
1CF
330
1CC
100
AcDbEntity
  8
Gravieren
370
     0
  0
ENDBLK
  5
1CB
330
1C8
100
AcDbEntity
  8
0
100
AcDbBlockEnd
  0
BLOCK
  5
1D2
330
1D0
100
AcDbEntity
  8
0
100
AcDbBlockBegin
  2
block 46
 70
     0
 71
     0
 10
0.0
 20
0.0
 30
0.0
  3
block 46
  1

  0
POLYLINE
  5
1D4
330
1D0
100
AcDbEntity
  8
Gravieren
370
     0
100
AcDb2dPolyline
 66
     1
 10
0.0
 20
0.0
 30
0.0
  0
VERTEX
  5
1D5
330
1D4
100
AcDbEntity
  8
Gravieren
370
     0
100
AcDbVertex
100
AcDb2dVertex
 10
100.672752524745
 20
58.59556205132333
 30
0.0
  0
VERTEX
  5
1D6
330
1D4
100
AcDbEntity
  8
Gravieren
370
     0
100
AcDbVertex
100
AcDb2dVertex
 10
96.17276880191167
 20
58.59556205132333
 30
0.0
  0
SEQEND
  5
1D7
330
1D4
100
AcDbEntity
  8
Gravieren
370
     0
  0
ENDBLK
  5
1D3
330
1D0
100
AcDbEntity
  8
0
100
AcDbBlockEnd
  0
BLOCK
  5
1DA
330
1D8
100
AcDbEntity
  8
0
100
AcDbBlockBegin
  2
block 47
 70
     0
 71
     0
 10
0.0
 20
0.0
 30
0.0
  3
block 47
  1

  0
POLYLINE
  5
1DC
330
1D8
100
AcDbEntity
  8
Gravieren
370
     0
100
AcDb2dPolyline
 66
     1
 10
0.0
 20
0.0
 30
0.0
  0
VERTEX
  5
1DD
330
1DC
100
AcDbEntity
  8
Gravieren
370
     0
100
AcDbVertex
100
AcDb2dVertex
 10
83.67275659800542
 20
46.09606661173987
 30
0.0
  0
VERTEX
  5
1DE
330
1DC
100
AcDbEntity
  8
Gravieren
370
     0
100
AcDbVertex
100
AcDb2dVertex
 10
83.67275659800542
 20
23.59545897847613
 30
0.0
  0
SEQEND
  5
1DF
330
1DC
100
AcDbEntity
  8
Gravieren
370
     0
  0
ENDBLK
  5
1DB
330
1D8
100
AcDbEntity
  8
0
100
AcDbBlockEnd
  0
BLOCK
  5
1E2
330
1E0
100
AcDbEntity
  8
0
100
AcDbBlockBegin
  2
block 48
 70
     0
 71
     0
 10
0.0
 20
0.0
 30
0.0
  3
block 48
  1

  0
POLYLINE
  5
1E4
330
1E0
100
AcDbEntity
  8
Gravieren
370
     0
100
AcDb2dPolyline
 66
     1
 10
0.0
 20
0.0
 30
0.0
  0
VERTEX
  5
1E5
330
1E4
100
AcDbEntity
  8
Gravieren
370
     0
100
AcDbVertex
100
AcDb2dVertex
 10
103.6727416733006
 20
145.5955918689831
 30
0.0
  0
VERTEX
  5
1E6
330
1E4
100
AcDbEntity
  8
Gravieren
370
     0
100
AcDbVertex
100
AcDb2dVertex
 10
103.6727416733006
 20
61.59555119987889
 30
0.0
  0
SEQEND
  5
1E7
330
1E4
100
AcDbEntity
  8
Gravieren
370
     0
  0
ENDBLK
  5
1E3
330
1E0
100
AcDbEntity
  8
0
100
AcDbBlockEnd
  0
BLOCK
  5
1EA
330
1E8
100
AcDbEntity
  8
0
100
AcDbBlockBegin
  2
block 49
 70
     0
 71
     0
 10
0.0
 20
0.0
 30
0.0
  3
block 49
  1

  0
POLYLINE
  5
1EC
330
1E8
100
AcDbEntity
  8
Gravieren
370
     0
100
AcDb2dPolyline
 66
     1
 10
0.0
 20
0.0
 30
0.0
  0
VERTEX
  5
1ED
330
1EC
100
AcDbEntity
  8
Gravieren
370
     0
100
AcDbVertex
100
AcDb2dVertex
 10
190.6729437457346
 20
148.5955810175386
 30
0.0
  0
VERTEX
  5
1EE
330
1EC
100
AcDbEntity
  8
Gravieren
370
     0
100
AcDbVertex
100
AcDb2dVertex
 10
106.6727308218561
 20
148.5955810175386
 30
0.0
  0
SEQEND
  5
1EF
330
1EC
100
AcDbEntity
  8
Gravieren
370
     0
  0
ENDBLK
  5
1EB
330
1E8
100
AcDbEntity
  8
0
100
AcDbBlockEnd
  0
BLOCK
  5
1F2
330
1F0
100
AcDbEntity
  8
0
100
AcDbBlockBegin
  2
block 50
 70
     0
 71
     0
 10
0.0
 20
0.0
 30
0.0
  3
block 50
  1

  0
POLYLINE
  5
1F4
330
1F0
100
AcDbEntity
  8
Gravieren
370
     0
100
AcDb2dPolyline
 66
     1
 10
0.0
 20
0.0
 30
0.0
  0
VERTEX
  5
1F5
330
1F4
100
AcDbEntity
  8
Gravieren
370
     0
100
AcDbVertex
100
AcDb2dVertex
 10
193.6729328942901
 20
61.59555119987889
 30
0.0
  0
VERTEX
  5
1F6
330
1F4
100
AcDbEntity
  8
Gravieren
370
     0
100
AcDbVertex
100
AcDb2dVertex
 10
193.6729328942901
 20
145.5955918689831
 30
0.0
  0
SEQEND
  5
1F7
330
1F4
100
AcDbEntity
  8
Gravieren
370
     0
  0
ENDBLK
  5
1F3
330
1F0
100
AcDbEntity
  8
0
100
AcDbBlockEnd
  0
BLOCK
  5
1FA
330
1F8
100
AcDbEntity
  8
0
100
AcDbBlockBegin
  2
block 51
 70
     0
 71
     0
 10
0.0
 20
0.0
 30
0.0
  3
block 51
  1

  0
POLYLINE
  5
1FC
330
1F8
100
AcDbEntity
  8
Gravieren
370
     0
100
AcDb2dPolyline
 66
     1
 10
0.0
 20
0.0
 30
0.0
  0
VERTEX
  5
1FD
330
1FC
100
AcDbEntity
  8
Gravieren
370
     0
100
AcDbVertex
100
AcDb2dVertex
 10
151.6723957954152
 20
58.59556205132333
 30
0.0
  0
VERTEX
  5
1FE
330
1FC
100
AcDbEntity
  8
Gravieren
370
     0
100
AcDbVertex
100
AcDb2dVertex
 10
190.6729437457346
 20
58.59556205132333
 30
0.0
  0
SEQEND
  5
1FF
330
1FC
100
AcDbEntity
  8
Gravieren
370
     0
  0
ENDBLK
  5
1FB
330
1F8
100
AcDbEntity
  8
0
100
AcDbBlockEnd
  0
ENDSEC
  0
SECTION
  2
ENTITIES
  0
INSERT
  5
3D
330
1F
100
AcDbEntity
  8
Schneiden
100
AcDbBlockReference
  2
block 2
 10
0.0
 20
0.0
 30
0.0
  0
INSERT
  5
42
330
1F
100
AcDbEntity
  8
Schneiden
100
AcDbBlockReference
  2
block 3
 10
0.0
 20
0.0
 30
0.0
  0
INSERT
  5
47
330
1F
100
AcDbEntity
  8
Schneiden
100
AcDbBlockReference
  2
block 4
 10
0.0
 20
0.0
 30
0.0
  0
INSERT
  5
4C
330
1F
100
AcDbEntity
  8
Schneiden
100
AcDbBlockReference
  2
block 5
 10
0.0
 20
0.0
 30
0.0
  0
INSERT
  5
57
330
1F
100
AcDbEntity
  8
Schneiden
100
AcDbBlockReference
  2
block 6
 10
0.0
 20
0.0
 30
0.0
  0
INSERT
  5
62
330
1F
100
AcDbEntity
  8
Schneiden
100
AcDbBlockReference
  2
block 7
 10
0.0
 20
0.0
 30
0.0
  0
INSERT
  5
6D
330
1F
100
AcDbEntity
  8
Schneiden
100
AcDbBlockReference
  2
block 8
 10
0.0
 20
0.0
 30
0.0
  0
INSERT
  5
78
330
1F
100
AcDbEntity
  8
Schneiden
100
AcDbBlockReference
  2
block 9
 10
0.0
 20
0.0
 30
0.0
  0
INSERT
  5
83
330
1F
100
AcDbEntity
  8
Schneiden
100
AcDbBlockReference
  2
block 10
 10
0.0
 20
0.0
 30
0.0
  0
INSERT
  5
8E
330
1F
100
AcDbEntity
  8
Schneiden
100
AcDbBlockReference
  2
block 11
 10
0.0
 20
0.0
 30
0.0
  0
INSERT
  5
99
330
1F
100
AcDbEntity
  8
Schneiden
100
AcDbBlockReference
  2
block 12
 10
0.0
 20
0.0
 30
0.0
  0
INSERT
  5
A4
330
1F
100
AcDbEntity
  8
Schneiden
100
AcDbBlockReference
  2
block 13
 10
0.0
 20
0.0
 30
0.0
  0
INSERT
  5
AF
330
1F
100
AcDbEntity
  8
Schneiden
100
AcDbBlockReference
  2
block 14
 10
0.0
 20
0.0
 30
0.0
  0
INSERT
  5
BA
330
1F
100
AcDbEntity
  8
Schneiden
100
AcDbBlockReference
  2
block 15
 10
0.0
 20
0.0
 30
0.0
  0
INSERT
  5
C5
330
1F
100
AcDbEntity
  8
Schneiden
100
AcDbBlockReference
  2
block 16
 10
0.0
 20
0.0
 30
0.0
  0
INSERT
  5
D0
330
1F
100
AcDbEntity
  8
Schneiden
100
AcDbBlockReference
  2
block 17
 10
0.0
 20
0.0
 30
0.0
  0
INSERT
  5
DB
330
1F
100
AcDbEntity
  8
Schneiden
100
AcDbBlockReference
  2
block 18
 10
0.0
 20
0.0
 30
0.0
  0
INSERT
  5
E6
330
1F
100
AcDbEntity
  8
Schneiden
100
AcDbBlockReference
  2
block 19
 10
0.0
 20
0.0
 30
0.0
  0
INSERT
  5
F1
330
1F
100
AcDbEntity
  8
Schneiden
100
AcDbBlockReference
  2
block 20
 10
0.0
 20
0.0
 30
0.0
  0
INSERT
  5
FC
330
1F
100
AcDbEntity
  8
Schneiden
100
AcDbBlockReference
  2
block 21
 10
0.0
 20
0.0
 30
0.0
  0
INSERT
  5
107
330
1F
100
AcDbEntity
  8
Schneiden
100
AcDbBlockReference
  2
block 22
 10
0.0
 20
0.0
 30
0.0
  0
INSERT
  5
112
330
1F
100
AcDbEntity
  8
Schneiden
100
AcDbBlockReference
  2
block 23
 10
0.0
 20
0.0
 30
0.0
  0
INSERT
  5
11D
330
1F
100
AcDbEntity
  8
Schneiden
100
AcDbBlockReference
  2
block 24
 10
0.0
 20
0.0
 30
0.0
  0
INSERT
  5
122
330
1F
100
AcDbEntity
  8
Schneiden
100
AcDbBlockReference
  2
block 25
 10
0.0
 20
0.0
 30
0.0
  0
INSERT
  5
127
330
1F
100
AcDbEntity
  8
Schneiden
100
AcDbBlockReference
  2
block 26
 10
0.0
 20
0.0
 30
0.0
  0
INSERT
  5
12C
330
1F
100
AcDbEntity
  8
Schneiden
100
AcDbBlockReference
  2
block 27
 10
0.0
 20
0.0
 30
0.0
  0
INSERT
  5
137
330
1F
100
AcDbEntity
  8
Schneiden
100
AcDbBlockReference
  2
block 28
 10
0.0
 20
0.0
 30
0.0
  0
INSERT
  5
142
330
1F
100
AcDbEntity
  8
Schneiden
100
AcDbBlockReference
  2
block 29
 10
0.0
 20
0.0
 30
0.0
  0
INSERT
  5
14D
330
1F
100
AcDbEntity
  8
Schneiden
100
AcDbBlockReference
  2
block 30
 10
0.0
 20
0.0
 30
0.0
  0
INSERT
  5
159
330
1F
100
AcDbEntity
  8
Gravieren
100
AcDbBlockReference
  2
block 31
 10
0.0
 20
0.0
 30
0.0
  0
INSERT
  5
161
330
1F
100
AcDbEntity
  8
Gravieren
100
AcDbBlockReference
  2
block 32
 10
0.0
 20
0.0
 30
0.0
  0
INSERT
  5
169
330
1F
100
AcDbEntity
  8
Gravieren
100
AcDbBlockReference
  2
block 33
 10
0.0
 20
0.0
 30
0.0
  0
INSERT
  5
171
330
1F
100
AcDbEntity
  8
Gravieren
100
AcDbBlockReference
  2
block 34
 10
0.0
 20
0.0
 30
0.0
  0
INSERT
  5
179
330
1F
100
AcDbEntity
  8
Gravieren
100
AcDbBlockReference
  2
block 35
 10
0.0
 20
0.0
 30
0.0
  0
INSERT
  5
181
330
1F
100
AcDbEntity
  8
Gravieren
100
AcDbBlockReference
  2
block 36
 10
0.0
 20
0.0
 30
0.0
  0
INSERT
  5
189
330
1F
100
AcDbEntity
  8
Gravieren
100
AcDbBlockReference
  2
block 37
 10
0.0
 20
0.0
 30
0.0
  0
INSERT
  5
191
330
1F
100
AcDbEntity
  8
Gravieren
100
AcDbBlockReference
  2
block 38
 10
0.0
 20
0.0
 30
0.0
  0
INSERT
  5
199
330
1F
100
AcDbEntity
  8
Gravieren
100
AcDbBlockReference
  2
block 39
 10
0.0
 20
0.0
 30
0.0
  0
INSERT
  5
1A1
330
1F
100
AcDbEntity
  8
Gravieren
100
AcDbBlockReference
  2
block 40
 10
0.0
 20
0.0
 30
0.0
  0
INSERT
  5
1A9
330
1F
100
AcDbEntity
  8
Gravieren
100
AcDbBlockReference
  2
block 41
 10
0.0
 20
0.0
 30
0.0
  0
INSERT
  5
1B1
330
1F
100
AcDbEntity
  8
Gravieren
100
AcDbBlockReference
  2
block 42
 10
0.0
 20
0.0
 30
0.0
  0
INSERT
  5
1B9
330
1F
100
AcDbEntity
  8
Gravieren
100
AcDbBlockReference
  2
block 43
 10
0.0
 20
0.0
 30
0.0
  0
INSERT
  5
1C1
330
1F
100
AcDbEntity
  8
Gravieren
100
AcDbBlockReference
  2
block 44
 10
0.0
 20
0.0
 30
0.0
  0
INSERT
  5
1C9
330
1F
100
AcDbEntity
  8
Gravieren
100
AcDbBlockReference
  2
block 45
 10
0.0
 20
0.0
 30
0.0
  0
INSERT
  5
1D1
330
1F
100
AcDbEntity
  8
Gravieren
100
AcDbBlockReference
  2
block 46
 10
0.0
 20
0.0
 30
0.0
  0
INSERT
  5
1D9
330
1F
100
AcDbEntity
  8
Gravieren
100
AcDbBlockReference
  2
block 47
 10
0.0
 20
0.0
 30
0.0
  0
INSERT
  5
1E1
330
1F
100
AcDbEntity
  8
Gravieren
100
AcDbBlockReference
  2
block 48
 10
0.0
 20
0.0
 30
0.0
  0
INSERT
  5
1E9
330
1F
100
AcDbEntity
  8
Gravieren
100
AcDbBlockReference
  2
block 49
 10
0.0
 20
0.0
 30
0.0
  0
INSERT
  5
1F1
330
1F
100
AcDbEntity
  8
Gravieren
100
AcDbBlockReference
  2
block 50
 10
0.0
 20
0.0
 30
0.0
  0
INSERT
  5
1F9
330
1F
100
AcDbEntity
  8
Gravieren
100
AcDbBlockReference
  2
block 51
 10
0.0
 20
0.0
 30
0.0
  0
MTEXT
  5
200
330
1F
100
AcDbEntity
  8
Gravieren
 62
     7
100
AcDbMText
 10
145.5106702652716
 20
29.33326550915974
 30
0.0
 40
6.956777776038583
 41
0.0
 71
     7
 72
     1
  1
\fMyriad Pro|b0|i0|c0|p34;\W1;4
 73
     1
 44
1.0
  0
ENDSEC
  0
SECTION
  2
OBJECTS
  0
DICTIONARY
  5
C
330
0
100
AcDbDictionary
281
     1
  3
ACAD_GROUP
350
D
  3
ACAD_LAYOUT
350
1A
  3
ACAD_MLINESTYLE
350
17
  3
ACAD_PLOTSETTINGS
350
19
  3
ACAD_PLOTSTYLENAME
350
E
  3
ACAD_TABLESTYLE
350
201
  3
ACAD_VISUALSTYLE
350
2A
  0
DICTIONARY
  5
D
102
{ACAD_REACTORS
330
C
102
}
330
C
100
AcDbDictionary
281
     1
  0
DICTIONARY
  5
1A
102
{ACAD_REACTORS
330
C
102
}
330
C
100
AcDbDictionary
281
     1
  3
Layout1
350
1E
  3
Layout2
350
26
  3
Model
350
22
  0
DICTIONARY
  5
17
102
{ACAD_REACTORS
330
C
102
}
330
C
100
AcDbDictionary
281
     1
  3
Standard
350
18
  0
DICTIONARY
  5
19
102
{ACAD_REACTORS
330
C
102
}
330
C
100
AcDbDictionary
281
     1
  0
ACDBDICTIONARYWDFLT
  5
E
102
{ACAD_REACTORS
330
C
102
}
330
C
100
AcDbDictionary
281
     1
  3
Normal
350
F
100
AcDbDictionaryWithDefault
340
F
  0
DICTIONARY
  5
201
102
{ACAD_REACTORS
330
C
102
}
330
C
100
AcDbDictionary
281
     1
  0
DICTIONARY
  5
2A
102
{ACAD_REACTORS
330
C
102
}
330
C
100
AcDbDictionary
281
     1
  3
2dWireframe
350
2F
  3
3D Hidden
350
31
  3
3dWireframe
350
30
  3
Basic
350
32
  3
Brighten
350
36
  3
ColorChange
350
3A
  3
Conceptual
350
34
  3
Dim
350
35
  3
Facepattern
350
39
  3
Flat
350
2B
  3
FlatWithEdges
350
2C
  3
Gouraud
350
2D
  3
GouraudWithEdges
350
2E
  3
Linepattern
350
38
  3
Realistic
350
33
  3
Thicken
350
37
  0
LAYOUT
  5
1E
102
{ACAD_REACTORS
330
1A
102
}
330
1A
100
AcDbPlotSettings
  1

  2
none_device
  4

  6

 40
0.0
 41
0.0
 42
0.0
 43
0.0
 44
0.0
 45
0.0
 46
0.0
 47
0.0
 48
0.0
 49
0.0
140
0.0
141
0.0
142
1.0
143
1.0
 70
   688
 72
     0
 73
     0
 74
     5
  7

 75
    16
147
1.0
148
0.0
149
0.0
100
AcDbLayout
  1
Layout1
 70
     1
 71
     1
 10
0.0
 20
0.0
 11
12.0
 21
9.0
 12
0.0
 22
0.0
 32
0.0
 14
1.000000000000000E+20
 24
1.000000000000000E+20
 34
1.000000000000000E+20
 15
-1.000000000000000E+20
 25
-1.000000000000000E+20
 35
-1.000000000000000E+20
146
0.0
 13
0.0
 23
0.0
 33
0.0
 16
1.0
 26
0.0
 36
0.0
 17
0.0
 27
1.0
 37
0.0
 76
     0
330
1B
  0
LAYOUT
  5
26
102
{ACAD_REACTORS
330
1A
102
}
330
1A
100
AcDbPlotSettings
  1

  2
none_device
  4

  6

 40
0.0
 41
0.0
 42
0.0
 43
0.0
 44
0.0
 45
0.0
 46
0.0
 47
0.0
 48
0.0
 49
0.0
140
0.0
141
0.0
142
1.0
143
1.0
 70
   688
 72
     0
 73
     0
 74
     5
  7

 75
    16
147
1.0
148
0.0
149
0.0
100
AcDbLayout
  1
Layout2
 70
     1
 71
     2
 10
0.0
 20
0.0
 11
0.0
 21
0.0
 12
0.0
 22
0.0
 32
0.0
 14
0.0
 24
0.0
 34
0.0
 15
0.0
 25
0.0
 35
0.0
146
0.0
 13
0.0
 23
0.0
 33
0.0
 16
1.0
 26
0.0
 36
0.0
 17
0.0
 27
1.0
 37
0.0
 76
     0
330
23
  0
LAYOUT
  5
22
102
{ACAD_REACTORS
330
1A
102
}
330
1A
100
AcDbPlotSettings
  1

  2
none_device
  4

  6

 40
0.0
 41
0.0
 42
0.0
 43
0.0
 44
0.0
 45
0.0
 46
0.0
 47
0.0
 48
0.0
 49
0.0
140
0.0
141
0.0
142
1.0
143
1.0
 70
  1712
 72
     0
 73
     0
 74
     0
  7

 75
     0
147
1.0
148
0.0
149
0.0
100
AcDbLayout
  1
Model
 70
     1
 71
     0
 10
0.0
 20
0.0
 11
12.0
 21
9.0
 12
0.0
 22
0.0
 32
0.0
 14
1.000000000000000E+20
 24
1.000000000000000E+20
 34
1.000000000000000E+20
 15
-1.000000000000000E+20
 25
-1.000000000000000E+20
 35
-1.000000000000000E+20
146
0.0
 13
0.0
 23
0.0
 33
0.0
 16
1.0
 26
0.0
 36
0.0
 17
0.0
 27
1.0
 37
0.0
 76
     0
330
1F
331
29
  0
MLINESTYLE
  5
18
102
{ACAD_REACTORS
330
17
102
}
330
17
100
AcDbMlineStyle
  2
Standard
 70
     0
  3

 62
   256
 51
90.0
 52
90.0
 71
     2
 49
0.5
 62
   256
  6
BYLAYER
 49
-0.5
 62
   256
  6
BYLAYER
  0
ACDBPLACEHOLDER
  5
F
102
{ACAD_REACTORS
330
E
102
}
330
E
  0
VISUALSTYLE
  5
2F
102
{ACAD_REACTORS
330
2A
102
}
330
2A
100
AcDbVisualStyle
  2
2dWireframe
 70
     4
 71
     0
 72
     2
 73
     0
 90
        0
 40
-0.6
 41
-30.0
 62
     5
 63
     7
 74
     1
 91
        4
 64
     7
 65
   257
 75
     1
175
     1
 42
1.0
 92
        0
 66
   257
 43
1.0
 76
     1
 77
     6
 78
     2
 67
     7
 79
     5
170
     0
171
     0
290
     0
174
     0
 93
        1
 44
0.0
173
     0
291
     0
 45
0.0
1001
ACAD
1000
AcDbSavedByObjectVersion
1070
     0
  0
VISUALSTYLE
  5
31
102
{ACAD_REACTORS
330
2A
102
}
330
2A
100
AcDbVisualStyle
  2
3D Hidden
 70
     6
 71
     1
 72
     2
 73
     2
 90
        0
 40
-0.6
 41
-30.0
 62
     5
 63
     7
 74
     2
 91
        2
 64
     7
 65
   257
 75
     2
175
     1
 42
40.0
 92
        0
 66
   257
 43
1.0
 76
     1
 77
     6
 78
     2
 67
     7
 79
     3
170
     0
171
     0
290
     0
174
     0
 93
        1
 44
0.0
173
     0
291
     0
 45
0.0
1001
ACAD
1000
AcDbSavedByObjectVersion
1070
     0
  0
VISUALSTYLE
  5
30
102
{ACAD_REACTORS
330
2A
102
}
330
2A
100
AcDbVisualStyle
  2
3dWireframe
 70
     5
 71
     0
 72
     2
 73
     0
 90
        0
 40
-0.6
 41
-30.0
 62
     5
 63
     7
 74
     1
 91
        4
 64
     7
 65
   257
 75
     1
175
     1
 42
1.0
 92
        0
 66
   257
 43
1.0
 76
     1
 77
     6
 78
     2
 67
     7
 79
     5
170
     0
171
     0
290
     0
174
     0
 93
        1
 44
0.0
173
     0
291
     0
 45
0.0
1001
ACAD
1000
AcDbSavedByObjectVersion
1070
     0
  0
VISUALSTYLE
  5
32
102
{ACAD_REACTORS
330
2A
102
}
330
2A
100
AcDbVisualStyle
  2
Basic
 70
     7
 71
     1
 72
     0
 73
     1
 90
        0
 40
-0.6
 41
-30.0
 62
     5
 63
     7
 74
     0
 91
        4
 64
     7
 65
   257
 75
     1
175
     1
 42
1.0
 92
        8
 66
     7
 43
1.0
 76
     1
 77
     6
 78
     2
 67
     7
 79
     5
170
     0
171
     0
290
     0
174
     0
 93
        1
 44
0.0
173
     0
291
     1
 45
0.0
1001
ACAD
1000
AcDbSavedByObjectVersion
1070
     0
  0
VISUALSTYLE
  5
36
102
{ACAD_REACTORS
330
2A
102
}
330
2A
100
AcDbVisualStyle
  2
Brighten
 70
    12
 71
     2
 72
     2
 73
     0
 90
        0
 40
-0.6
 41
-30.0
 62
     5
 63
     7
 74
     1
 91
        4
 64
     7
 65
   257
 75
     1
175
     1
 42
1.0
 92
        8
 66
     7
 43
1.0
 76
     1
 77
     6
 78
     2
 67
     7
 79
     5
170
     0
171
     0
290
     0
174
     0
 93
        1
 44
50.0
173
     0
291
     1
 45
0.0
1001
ACAD
1000
AcDbSavedByObjectVersion
1070
     0
  0
VISUALSTYLE
  5
3A
102
{ACAD_REACTORS
330
2A
102
}
330
2A
100
AcDbVisualStyle
  2
ColorChange
 70
    16
 71
     2
 72
     2
 73
     3
 90
        0
 40
-0.6
 41
-30.0
 62
     5
 63
     8
 74
     1
 91
        4
 64
     7
 65
   257
 75
     1
175
     1
 42
1.0
 92
        8
 66
     8
 43
1.0
 76
     1
 77
     6
 78
     2
 67
     7
 79
     5
170
     0
171
     0
290
     0
174
     0
 93
        1
 44
0.0
173
     0
291
     1
 45
0.0
1001
ACAD
1000
AcDbSavedByObjectVersion
1070
     0
  0
VISUALSTYLE
  5
34
102
{ACAD_REACTORS
330
2A
102
}
330
2A
100
AcDbVisualStyle
  2
Conceptual
 70
     9
 71
     3
 72
     2
 73
     0
 90
        0
 40
-0.6
 41
-30.0
 62
     5
 63
     7
 74
     2
 91
        2
 64
     7
 65
   257
 75
     1
175
     1
 42
40.0
 92
        8
 66
     7
 43
1.0
 76
     1
 77
     6
 78
     2
 67
     7
 79
     3
170
     0
171
     0
290
     0
174
     0
 93
        1
 44
0.0
173
     0
291
     0
 45
0.0
1001
ACAD
1000
AcDbSavedByObjectVersion
1070
     0
  0
VISUALSTYLE
  5
35
102
{ACAD_REACTORS
330
2A
102
}
330
2A
100
AcDbVisualStyle
  2
Dim
 70
    11
 71
     2
 72
     2
 73
     0
 90
        0
 40
-0.6
 41
-30.0
 62
     5
 63
     7
 74
     1
 91
        4
 64
     7
 65
   257
 75
     1
175
     1
 42
1.0
 92
        8
 66
     7
 43
1.0
 76
     1
 77
     6
 78
     2
 67
     7
 79
     5
170
     0
171
     0
290
     0
174
     0
 93
        1
 44
-50.0
173
     0
291
     1
 45
0.0
1001
ACAD
1000
AcDbSavedByObjectVersion
1070
     0
  0
VISUALSTYLE
  5
39
102
{ACAD_REACTORS
330
2A
102
}
330
2A
100
AcDbVisualStyle
  2
Facepattern
 70
    15
 71
     2
 72
     2
 73
     0
 90
        0
 40
-0.6
 41
-30.0
 62
     5
 63
     7
 74
     1
 91
        4
 64
     7
 65
   257
 75
     1
175
     1
 42
1.0
 92
        8
 66
     7
 43
1.0
 76
     1
 77
     6
 78
     2
 67
     7
 79
     5
170
     0
171
     0
290
     0
174
     0
 93
        1
 44
0.0
173
     0
291
     1
 45
0.0
1001
ACAD
1000
AcDbSavedByObjectVersion
1070
     0
  0
VISUALSTYLE
  5
2B
102
{ACAD_REACTORS
330
2A
102
}
330
2A
100
AcDbVisualStyle
  2
Flat
 70
     0
 71
     2
 72
     1
 73
     1
 90
        2
 40
-0.6
 41
30.0
 62
     5
 63
     7
 74
     0
 91
        4
 64
     7
 65
   257
 75
     1
175
     1
 42
1.0
 92
        8
 66
     7
 43
1.0
 76
     1
 77
     6
 78
     2
 67
     7
 79
     5
170
     0
171
     0
290
     0
174
     0
 93
       13
 44
0.0
173
     0
291
     1
 45
0.0
1001
ACAD
1000
AcDbSavedByObjectVersion
1070
     0
  0
VISUALSTYLE
  5
2C
102
{ACAD_REACTORS
330
2A
102
}
330
2A
100
AcDbVisualStyle
  2
FlatWithEdges
 70
     1
 71
     2
 72
     1
 73
     1
 90
        2
 40
-0.6
 41
30.0
 62
     5
 63
     7
 74
     1
 91
        4
 64
     7
 65
   257
 75
     1
175
     1
 42
1.0
 92
        0
 66
   257
 43
1.0
 76
     1
 77
     6
 78
     2
 67
     7
 79
     5
170
     0
171
     0
290
     0
174
     0
 93
       13
 44
0.0
173
     0
291
     1
 45
0.0
1001
ACAD
1000
AcDbSavedByObjectVersion
1070
     0
  0
VISUALSTYLE
  5
2D
102
{ACAD_REACTORS
330
2A
102
}
330
2A
100
AcDbVisualStyle
  2
Gouraud
 70
     2
 71
     2
 72
     2
 73
     1
 90
        2
 40
-0.6
 41
30.0
 62
     5
 63
     7
 74
     0
 91
        4
 64
     7
 65
   257
 75
     1
175
     1
 42
1.0
 92
        0
 66
     7
 43
1.0
 76
     1
 77
     6
 78
     2
 67
     7
 79
     5
170
     0
171
     0
290
     0
174
     0
 93
       13
 44
0.0
173
     0
291
     1
 45
0.0
1001
ACAD
1000
AcDbSavedByObjectVersion
1070
     0
  0
VISUALSTYLE
  5
2E
102
{ACAD_REACTORS
330
2A
102
}
330
2A
100
AcDbVisualStyle
  2
GouraudWithEdges
 70
     3
 71
     2
 72
     2
 73
     1
 90
        2
 40
-0.6
 41
30.0
 62
     5
 63
     7
 74
     1
 91
        4
 64
     7
 65
   257
 75
     1
175
     1
 42
1.0
 92
        0
 66
   257
 43
1.0
 76
     1
 77
     6
 78
     2
 67
     7
 79
     5
170
     0
171
     0
290
     0
174
     0
 93
       13
 44
0.0
173
     0
291
     1
 45
0.0
1001
ACAD
1000
AcDbSavedByObjectVersion
1070
     0
  0
VISUALSTYLE
  5
38
102
{ACAD_REACTORS
330
2A
102
}
330
2A
100
AcDbVisualStyle
  2
Linepattern
 70
    14
 71
     2
 72
     2
 73
     0
 90
        0
 40
-0.6
 41
-30.0
 62
     5
 63
     7
 74
     1
 91
        4
 64
     7
 65
   257
 75
     7
175
     7
 42
1.0
 92
        8
 66
     7
 43
1.0
 76
     1
 77
     6
 78
     2
 67
     7
 79
     5
170
     0
171
     0
290
     0
174
     0
 93
        1
 44
0.0
173
     0
291
     1
 45
0.0
1001
ACAD
1000
AcDbSavedByObjectVersion
1070
     0
  0
VISUALSTYLE
  5
33
102
{ACAD_REACTORS
330
2A
102
}
330
2A
100
AcDbVisualStyle
  2
Realistic
 70
     8
 71
     2
 72
     2
 73
     0
 90
        0
 40
-0.6
 41
-30.0
 62
     5
 63
     7
 74
     1
 91
        0
 64
     7
 65
   257
 75
     1
175
     1
 42
1.0
 92
        8
 66
     8
 43
1.0
 76
     1
 77
     6
 78
     2
 67
     7
 79
     5
170
     0
171
     0
290
     0
174
     0
 93
       13
 44
0.0
173
     0
291
     0
 45
0.0
1001
ACAD
1000
AcDbSavedByObjectVersion
1070
     0
  0
VISUALSTYLE
  5
37
102
{ACAD_REACTORS
330
2A
102
}
330
2A
100
AcDbVisualStyle
  2
Thicken
 70
    13
 71
     2
 72
     2
 73
     0
 90
        0
 40
-0.6
 41
-30.0
 62
     5
 63
     7
 74
     1
 91
        4
 64
     7
 65
   257
 75
     1
175
     1
 42
1.0
 92
       12
 66
     7
 43
1.0
 76
     1
 77
     6
 78
     2
 67
     7
 79
     5
170
     0
171
     0
290
     0
174
     0
 93
        1
 44
0.0
173
     0
291
     1
 45
0.0
1001
ACAD
1000
AcDbSavedByObjectVersion
1070
     0
  0
ENDSEC
  0
EOF
