0
SECTION
2
HEADER
9
$ANGDIR
70
0
9
$CHAMFERA
40
10
9
$CHAMFERB
40
10
9
$CLAYER
8
Layer_1
9
$EXTMAX
10
400.52891713812642
20
294.76260666923588
9
$EXTMIN
10
6.4538429324121864
20
99.434912980478714
9
$LIMMAX
10
420
20
297
9
$LIMMIN
10
0
20
0
9
$LTSCALE
40
10
9
$PLINEGEN
70
0
9
$TEXTSIZE
40
20
9
$GRIDUNIT
10
3
20
3
9
$SNAPUNIT
10
1
20
1
0
ENDSEC
0
SECTION
2
TABLES
0
TABLE
2
STYLE
70
1
0
STYLE
2
STANDARD
70
0
40
0
41
1
50
0
71
0
42
0.20000000000000001
3
txt
4

0
ENDTAB
0
TABLE
2
LTYPE
70
14
0
LTYPE
2
CONTINUOUS
70
0
3
Solid line
72
65
73
0
40
0
0
LTYPE
2
DOT
70
0
3
............................................
72
65
73
2
40
0.25
49
0
49
-0.25
0
LTYPE
2
HIDDEN
70
0
3
_ _ _ _ _ _ _ _ _ _ _ _ _ _ _ _ _ _ _ _ _ _ 
72
65
73
2
40
0.375
49
0.25
49
-0.125
0
LTYPE
2
TSLONGDASH
70
0
3
__ __ __ __ __ __ __ __ __ __ __ __ __ __ _ 
72
65
73
2
40
1.28
49
1
49
-0.28000000000000003
0
LTYPE
2
TSDASHDOT
70
0
3
______ . ______ . ______ . ______ . ______ .
72
65
73
4
40
1.28
49
1
49
-0.14000000000000001
49
0
49
-0.14000000000000001
0
LTYPE
2
TSCENTER
70
0
3
______ _ ______ _ ______ _ ______ _ ______ _
72
65
73
4
40
2
49
1.5
49
-0.17999999999999999
49
0.14000000000000001
49
-0.17999999999999999
0
LTYPE
2
TSPHANTOM
70
0
3
_____ _ _ _____ _ _ _____ _ _ _____ _ _ ____
72
65
73
6
40
2.5
49
1.6299999999999999
49
-0.19
49
0.14999999999999999
49
-0.19
49
0.14999999999999999
49
-0.19
0
LTYPE
2
DASHED
70
0
3
__ __ __ __ __ __ __ __ __ __ __ __ __ __ __
72
65
73
2
40
0.75
49
0.5
49
-0.25
0
LTYPE
2
CENTER
70
0
3
____ _ ____ _ ____ _ ____ _ ____ _ ____ _ __
72
65
73
4
40
2
49
1.25
49
-0.25
49
0.25
49
-0.25
0
LTYPE
2
PHANTOM
70
0
3
_____ _ _ _____ _ _ _____ _ _ _____ _ _ ____
72
65
73
6
40
2.5
49
1.25
49
-0.25
49
0.25
49
-0.25
49
0.25
49
-0.25
0
LTYPE
2
DASHDOT
70
0
3
__ . __ . __ . __ . __ . __ . __ . __ . __ .
72
65
73
4
40
1
49
0.5
49
-0.25
49
0
49
-0.25
0
LTYPE
2
BORDER
70
0
3
__ __ . __ __ . __ __ . __ __ . __ __ . __ _
72
65
73
6
40
1.75
49
0.5
49
-0.25
49
0.5
49
-0.25
49
0
49
-0.25
0
LTYPE
2
DIVIDE
70
0
3
__ . . __ . . __ . . __ . . __ . . __ . . __
72
65
73
6
40
1.25
49
0.5
49
-0.25
49
0
49
-0.25
49
0
49
-0.25
0
ENDTAB
0
TABLE
2
LAYER
70
3
0
LAYER
2
Layer_1
70
0
62
7
6
CONTINUOUS
0
LAYER
2
Layer_2
70
0
62
7
6
CONTINUOUS
0
LAYER
2
Layer_3
70
0
62
7
6
CONTINUOUS
0
ENDTAB
0
ENDSEC
0
SECTION
2
ENTITIES
0
LINE
8
Layer_1
6
CONTINUOUS
62
1
10
9.453375401583429
20
102.43444544964991
11
14.252696243678315
21
102.43444544964991
0
LINE
8
Layer_1
6
CONTINUOUS
62
1
10
14.252696243678315
20
102.43444544964991
11
14.252696243678315
21
99.434912980478714
0
LINE
8
Layer_1
6
CONTINUOUS
62
1
10
14.252696243678315
20
99.434912980478714
11
22.051549554944359
21
99.434912980478714
0
LINE
8
Layer_1
6
CONTINUOUS
62
1
10
22.051549554944359
20
102.43444544964991
11
22.051549554944359
21
99.434912980478714
0
LINE
8
Layer_1
6
CONTINUOUS
62
1
10
22.051549554944359
20
102.43444544964991
11
29.850230637658029
21
102.43444544964991
0
LINE
8
Layer_1
6
CONTINUOUS
62
1
10
29.850230637658029
20
102.43444544964991
11
29.850230637658029
21
99.434912980478714
0
LINE
8
Layer_1
6
CONTINUOUS
62
1
10
29.850230637658029
20
99.434912980478714
11
37.64908394892413
21
99.434912980478714
0
LINE
8
Layer_1
6
CONTINUOUS
62
1
10
37.64908394892413
20
102.43444544964991
11
37.64908394892413
21
99.434912980478714
0
LINE
8
Layer_1
6
CONTINUOUS
62
1
10
37.64908394892413
20
102.43444544964991
11
45.447937260190201
21
102.43444544964991
0
LINE
8
Layer_1
6
CONTINUOUS
62
1
10
45.447937260190201
20
102.43444544964991
11
45.447937260190201
21
99.434912980478714
0
LINE
8
Layer_1
6
CONTINUOUS
62
1
10
45.447937260190201
20
99.434912980478714
11
53.246790571456302
21
99.434912980478714
0
LINE
8
Layer_1
6
CONTINUOUS
62
1
10
53.246790571456302
20
102.43444544964991
11
53.246790571456302
21
99.434912980478714
0
LINE
8
Layer_1
6
CONTINUOUS
62
1
10
53.246790571456302
20
102.43444544964991
11
61.045643882722402
21
102.43444544964991
0
LINE
8
Layer_1
6
CONTINUOUS
62
1
10
61.045643882722402
20
102.43444544964991
11
61.045643882722402
21
99.434912980478714
0
LINE
8
Layer_1
6
CONTINUOUS
62
1
10
61.045643882722402
20
99.434912980478714
11
68.844324965436044
21
99.434912980478714
0
LINE
8
Layer_1
6
CONTINUOUS
62
1
10
68.844324965436044
20
102.43444544964991
11
68.844324965436044
21
99.434912980478714
0
LINE
8
Layer_1
6
CONTINUOUS
62
1
10
68.844324965436044
20
102.43444544964991
11
76.643178276702201
21
102.43444544964991
0
LINE
8
Layer_1
6
CONTINUOUS
62
1
10
76.643178276702201
20
102.43444544964991
11
76.643178276702201
21
99.434912980478714
0
LINE
8
Layer_1
6
CONTINUOUS
62
1
10
76.643178276702201
20
99.434912980478714
11
84.442031587968188
21
99.434912980478714
0
LINE
8
Layer_1
6
CONTINUOUS
62
1
10
84.442031587968188
20
102.43444544964991
11
84.442031587968188
21
99.434912980478714
0
LINE
8
Layer_1
6
CONTINUOUS
62
1
10
84.442031587968188
20
102.43444544964991
11
92.240712670681944
21
102.43444544964991
0
LINE
8
Layer_1
6
CONTINUOUS
62
1
10
92.240712670681944
20
102.43444544964991
11
92.240712670681944
21
99.434912980478714
0
LINE
8
Layer_1
6
CONTINUOUS
62
1
10
92.240712670681944
20
99.434912980478714
11
100.03956598194804
21
99.434912980478714
0
LINE
8
Layer_1
6
CONTINUOUS
62
1
10
100.03956598194804
20
102.43444544964991
11
100.03956598194804
21
99.434912980478714
0
LINE
8
Layer_1
6
CONTINUOUS
62
1
10
100.03956598194804
20
102.43444544964991
11
107.83841929321409
21
102.43444544964991
0
LINE
8
Layer_1
6
CONTINUOUS
62
1
10
107.83841929321409
20
102.43444544964991
11
107.83841929321409
21
99.434912980478714
0
LINE
8
Layer_1
6
CONTINUOUS
62
1
10
107.83841929321409
20
99.434912980478714
11
115.63727260448024
21
99.434912980478714
0
LINE
8
Layer_1
6
CONTINUOUS
62
1
10
115.63727260448024
20
102.43444544964991
11
115.63727260448024
21
99.434912980478714
0
LINE
8
Layer_1
6
CONTINUOUS
62
1
10
115.63727260448024
20
102.43444544964991
11
123.43612591574629
21
102.43444544964991
0
LINE
8
Layer_1
6
CONTINUOUS
62
1
10
123.43612591574629
20
102.43444544964991
11
123.43612591574629
21
99.434912980478714
0
LINE
8
Layer_1
6
CONTINUOUS
62
1
10
123.43612591574629
20
99.434912980478714
11
131.23497922701245
21
99.434912980478714
0
LINE
8
Layer_1
6
CONTINUOUS
62
1
10
131.23497922701245
20
102.43444544964991
11
131.23497922701245
21
99.434912980478714
0
LINE
8
Layer_1
6
CONTINUOUS
62
1
10
131.23497922701245
20
102.43444544964991
11
139.0338325382786
21
102.43444544964991
0
LINE
8
Layer_1
6
CONTINUOUS
62
1
10
139.0338325382786
20
102.43444544964991
11
139.0338325382786
21
99.434912980478714
0
LINE
8
Layer_1
6
CONTINUOUS
62
1
10
139.0338325382786
20
99.434912980478714
11
146.83234139243984
21
99.434912980478714
0
LINE
8
Layer_1
6
CONTINUOUS
62
1
10
146.83234139243984
20
102.43444544964991
11
146.83234139243984
21
99.434912980478714
0
LINE
8
Layer_1
6
CONTINUOUS
62
1
10
146.83234139243984
20
102.43444544964991
11
154.63119470370594
21
102.43444544964991
0
LINE
8
Layer_1
6
CONTINUOUS
62
1
10
154.63119470370594
20
102.43444544964991
11
154.63119470370594
21
99.434912980478714
0
LINE
8
Layer_1
6
CONTINUOUS
62
1
10
154.63119470370594
20
99.434912980478714
11
162.43039247207707
21
99.434912980478714
0
LINE
8
Layer_1
6
CONTINUOUS
62
1
10
162.43039247207707
20
102.43444544964991
11
162.43039247207707
21
99.434912980478714
0
LINE
8
Layer_1
6
CONTINUOUS
62
1
10
162.43039247207707
20
102.43444544964991
11
170.2289013262382
21
102.43444544964991
0
LINE
8
Layer_1
6
CONTINUOUS
62
1
10
170.2289013262382
20
102.43444544964991
11
170.2289013262382
21
99.434912980478714
0
LINE
8
Layer_1
6
CONTINUOUS
62
1
10
170.2289013262382
20
99.434912980478714
11
178.02775463750413
21
99.434912980478714
0
LINE
8
Layer_1
6
CONTINUOUS
62
1
10
178.02775463750413
20
102.43444544964991
11
178.02775463750413
21
99.434912980478714
0
LINE
8
Layer_1
6
CONTINUOUS
62
1
10
178.02775463750413
20
102.43444544964991
11
185.82660794877029
21
102.43444544964991
0
LINE
8
Layer_1
6
CONTINUOUS
62
1
10
185.82660794877029
20
102.43444544964991
11
185.82660794877029
21
99.434912980478714
0
LINE
8
Layer_1
6
CONTINUOUS
62
1
10
185.82660794877029
20
99.434912980478714
11
193.62511680293164
21
99.434912980478714
0
LINE
8
Layer_1
6
CONTINUOUS
62
1
10
193.62511680293164
20
102.43444544964991
11
193.62511680293164
21
99.434912980478714
0
LINE
8
Layer_1
6
CONTINUOUS
62
1
10
193.62511680293164
20
102.43444544964991
11
198.42478210213147
21
102.43444544964991
0
LINE
8
Layer_1
6
CONTINUOUS
62
1
10
9.453375401583429
20
291.40585215019775
11
14.252696243678315
21
291.40585215019775
0
LINE
8
Layer_1
6
CONTINUOUS
62
1
10
14.252696243678315
20
294.40538461936893
11
14.252696243678315
21
291.40585215019775
0
LINE
8
Layer_1
6
CONTINUOUS
62
1
10
14.252696243678315
20
294.40538461936893
11
22.051549554944359
21
294.40538461936893
0
LINE
8
Layer_1
6
CONTINUOUS
62
1
10
22.051549554944359
20
294.40538461936893
11
22.051549554944359
21
291.40585215019775
0
LINE
8
Layer_1
6
CONTINUOUS
62
1
10
22.051549554944359
20
291.40585215019775
11
29.850230637658029
21
291.40585215019775
0
LINE
8
Layer_1
6
CONTINUOUS
62
1
10
29.850230637658029
20
294.40538461936893
11
29.850230637658029
21
291.40585215019775
0
LINE
8
Layer_1
6
CONTINUOUS
62
1
10
29.850230637658029
20
294.40538461936893
11
37.64908394892413
21
294.40538461936893
0
LINE
8
Layer_1
6
CONTINUOUS
62
1
10
37.64908394892413
20
294.40538461936893
11
37.64908394892413
21
291.40585215019775
0
LINE
8
Layer_1
6
CONTINUOUS
62
1
10
37.64908394892413
20
291.40585215019775
11
45.447937260190201
21
291.40585215019775
0
LINE
8
Layer_1
6
CONTINUOUS
62
1
10
45.447937260190201
20
294.40538461936893
11
45.447937260190201
21
291.40585215019775
0
LINE
8
Layer_1
6
CONTINUOUS
62
1
10
45.447937260190201
20
294.40538461936893
11
53.246790571456302
21
294.40538461936893
0
LINE
8
Layer_1
6
CONTINUOUS
62
1
10
53.246790571456302
20
294.40538461936893
11
53.246790571456302
21
291.40585215019775
0
LINE
8
Layer_1
6
CONTINUOUS
62
1
10
53.246790571456302
20
291.40585215019775
11
61.045643882722402
21
291.40585215019775
0
LINE
8
Layer_1
6
CONTINUOUS
62
1
10
61.045643882722402
20
294.40538461936893
11
61.045643882722402
21
291.40585215019775
0
LINE
8
Layer_1
6
CONTINUOUS
62
1
10
61.045643882722402
20
294.40538461936893
11
68.844324965436044
21
294.40538461936893
0
LINE
8
Layer_1
6
CONTINUOUS
62
1
10
68.844324965436044
20
294.40538461936893
11
68.844324965436044
21
291.40585215019775
0
LINE
8
Layer_1
6
CONTINUOUS
62
1
10
68.844324965436044
20
291.40585215019775
11
76.643178276702201
21
291.40585215019775
0
LINE
8
Layer_1
6
CONTINUOUS
62
1
10
76.643178276702201
20
294.40538461936893
11
76.643178276702201
21
291.40585215019775
0
LINE
8
Layer_1
6
CONTINUOUS
62
1
10
76.643178276702201
20
294.40538461936893
11
84.442031587968188
21
294.40538461936893
0
LINE
8
Layer_1
6
CONTINUOUS
62
1
10
84.442031587968188
20
294.40538461936893
11
84.442031587968188
21
291.40585215019775
0
LINE
8
Layer_1
6
CONTINUOUS
62
1
10
84.442031587968188
20
291.40585215019775
11
92.240712670681944
21
291.40585215019775
0
LINE
8
Layer_1
6
CONTINUOUS
62
1
10
92.240712670681944
20
294.40538461936893
11
92.240712670681944
21
291.40585215019775
0
LINE
8
Layer_1
6
CONTINUOUS
62
1
10
92.240712670681944
20
294.40538461936893
11
100.03956598194804
21
294.40538461936893
0
LINE
8
Layer_1
6
CONTINUOUS
62
1
10
100.03956598194804
20
294.40538461936893
11
100.03956598194804
21
291.40585215019775
0
LINE
8
Layer_1
6
CONTINUOUS
62
1
10
100.03956598194804
20
291.40585215019775
11
107.83841929321409
21
291.40585215019775
0
LINE
8
Layer_1
6
CONTINUOUS
62
1
10
107.83841929321409
20
294.40538461936893
11
107.83841929321409
21
291.40585215019775
0
LINE
8
Layer_1
6
CONTINUOUS
62
1
10
107.83841929321409
20
294.40538461936893
11
115.63727260448024
21
294.40538461936893
0
LINE
8
Layer_1
6
CONTINUOUS
62
1
10
115.63727260448024
20
294.40538461936893
11
115.63727260448024
21
291.40585215019775
0
LINE
8
Layer_1
6
CONTINUOUS
62
1
10
115.63727260448024
20
291.40585215019775
11
123.43612591574629
21
291.40585215019775
0
LINE
8
Layer_1
6
CONTINUOUS
62
1
10
123.43612591574629
20
294.40538461936893
11
123.43612591574629
21
291.40585215019775
0
LINE
8
Layer_1
6
CONTINUOUS
62
1
10
123.43612591574629
20
294.40538461936893
11
131.23497922701245
21
294.40538461936893
0
LINE
8
Layer_1
6
CONTINUOUS
62
1
10
131.23497922701245
20
294.40538461936893
11
131.23497922701245
21
291.40585215019775
0
LINE
8
Layer_1
6
CONTINUOUS
62
1
10
131.23497922701245
20
291.40585215019775
11
139.0338325382786
21
291.40585215019775
0
LINE
8
Layer_1
6
CONTINUOUS
62
1
10
139.0338325382786
20
294.40538461936893
11
139.0338325382786
21
291.40585215019775
0
LINE
8
Layer_1
6
CONTINUOUS
62
1
10
139.0338325382786
20
294.40538461936893
11
146.83234139243984
21
294.40538461936893
0
LINE
8
Layer_1
6
CONTINUOUS
62
1
10
146.83234139243984
20
294.40538461936893
11
146.83234139243984
21
291.40585215019775
0
LINE
8
Layer_1
6
CONTINUOUS
62
1
10
146.83234139243984
20
291.40585215019775
11
154.63119470370594
21
291.40585215019775
0
LINE
8
Layer_1
6
CONTINUOUS
62
1
10
154.63119470370594
20
294.40538461936893
11
154.63119470370594
21
291.40585215019775
0
LINE
8
Layer_1
6
CONTINUOUS
62
1
10
154.63119470370594
20
294.40538461936893
11
162.43039247207707
21
294.40538461936893
0
LINE
8
Layer_1
6
CONTINUOUS
62
1
10
162.43039247207707
20
294.40538461936893
11
162.43039247207707
21
291.40585215019775
0
LINE
8
Layer_1
6
CONTINUOUS
62
1
10
162.43039247207707
20
291.40585215019775
11
170.2289013262382
21
291.40585215019775
0
LINE
8
Layer_1
6
CONTINUOUS
62
1
10
170.2289013262382
20
294.40538461936893
11
170.2289013262382
21
291.40585215019775
0
LINE
8
Layer_1
6
CONTINUOUS
62
1
10
170.2289013262382
20
294.40538461936893
11
178.02775463750413
21
294.40538461936893
0
LINE
8
Layer_1
6
CONTINUOUS
62
1
10
178.02775463750413
20
294.40538461936893
11
178.02775463750413
21
291.40585215019775
0
LINE
8
Layer_1
6
CONTINUOUS
62
1
10
178.02775463750413
20
291.40585215019775
11
185.82660794877029
21
291.40585215019775
0
LINE
8
Layer_1
6
CONTINUOUS
62
1
10
185.82660794877029
20
294.40538461936893
11
185.82660794877029
21
291.40585215019775
0
LINE
8
Layer_1
6
CONTINUOUS
62
1
10
185.82660794877029
20
294.40538461936893
11
193.62511680293164
21
294.40538461936893
0
LINE
8
Layer_1
6
CONTINUOUS
62
1
10
193.62511680293164
20
294.40538461936893
11
193.62511680293164
21
291.40585215019775
0
LINE
8
Layer_1
6
CONTINUOUS
62
1
10
193.62511680293164
20
291.40585215019775
11
198.42478210213147
21
291.40585215019775
0
LINE
8
Layer_1
6
CONTINUOUS
62
1
10
9.453375401583429
20
102.43444544964991
11
9.453375401583429
21
107.23376629174489
0
LINE
8
Layer_1
6
CONTINUOUS
62
1
10
9.453375401583429
20
107.23376629174489
11
6.4538429324121864
21
107.23376629174489
0
LINE
8
Layer_1
6
CONTINUOUS
62
1
10
6.4538429324121864
20
107.23376629174489
11
6.4538429324121864
21
115.03261960301099
0
LINE
8
Layer_1
6
CONTINUOUS
62
1
10
9.453375401583429
20
115.03261960301099
11
6.4538429324121864
21
115.03261960301099
0
LINE
8
Layer_1
6
CONTINUOUS
62
1
10
9.453375401583429
20
115.03261960301099
11
9.453375401583429
21
122.83130068572466
0
LINE
8
Layer_1
6
CONTINUOUS
62
1
10
9.453375401583429
20
122.83130068572466
11
6.4538429324121864
21
122.83130068572466
0
LINE
8
Layer_1
6
CONTINUOUS
62
1
10
6.4538429324121864
20
122.83130068572466
11
6.4538429324121864
21
130.63015399699071
0
LINE
8
Layer_1
6
CONTINUOUS
62
1
10
9.453375401583429
20
130.63015399699071
11
6.4538429324121864
21
130.63015399699071
0
LINE
8
Layer_1
6
CONTINUOUS
62
1
10
9.453375401583429
20
130.63015399699071
11
9.453375401583429
21
138.42900730825684
0
LINE
8
Layer_1
6
CONTINUOUS
62
1
10
9.453375401583429
20
138.42900730825684
11
6.4538429324121864
21
138.42900730825684
0
LINE
8
Layer_1
6
CONTINUOUS
62
1
10
6.4538429324121864
20
138.42900730825684
11
6.4538429324121864
21
146.22786061952291
0
LINE
8
Layer_1
6
CONTINUOUS
62
1
10
9.453375401583429
20
146.22786061952291
11
6.4538429324121864
21
146.22786061952291
0
LINE
8
Layer_1
6
CONTINUOUS
62
1
10
9.453375401583429
20
146.22786061952291
11
9.453375401583429
21
154.02671393078896
0
LINE
8
Layer_1
6
CONTINUOUS
62
1
10
9.453375401583429
20
154.02671393078896
11
6.4538429324121864
21
154.02671393078896
0
LINE
8
Layer_1
6
CONTINUOUS
62
1
10
6.4538429324121864
20
154.02671393078896
11
6.4538429324121864
21
161.82539501350269
0
LINE
8
Layer_1
6
CONTINUOUS
62
1
10
9.453375401583429
20
161.82539501350269
11
6.4538429324121864
21
161.82539501350269
0
LINE
8
Layer_1
6
CONTINUOUS
62
1
10
9.453375401583429
20
161.82539501350269
11
9.453375401583429
21
169.62442055332119
0
LINE
8
Layer_1
6
CONTINUOUS
62
1
10
9.453375401583429
20
169.62442055332119
11
6.4538429324121864
21
169.62442055332119
0
LINE
8
Layer_1
6
CONTINUOUS
62
1
10
6.4538429324121864
20
169.62442055332119
11
6.4538429324121864
21
177.42310163603486
0
LINE
8
Layer_1
6
CONTINUOUS
62
1
10
9.453375401583429
20
177.42310163603486
11
6.4538429324121864
21
177.42310163603486
0
LINE
8
Layer_1
6
CONTINUOUS
62
1
10
9.453375401583429
20
177.42310163603486
11
9.453375401583429
21
185.2217827187485
0
LINE
8
Layer_1
6
CONTINUOUS
62
1
10
9.453375401583429
20
185.2217827187485
11
6.4538429324121864
21
185.2217827187485
0
LINE
8
Layer_1
6
CONTINUOUS
62
1
10
6.4538429324121864
20
185.2217827187485
11
6.4538429324121864
21
193.02080825856706
0
LINE
8
Layer_1
6
CONTINUOUS
62
1
10
9.453375401583429
20
193.02080825856706
11
6.4538429324121864
21
193.02080825856706
0
LINE
8
Layer_1
6
CONTINUOUS
62
1
10
9.453375401583429
20
193.02080825856706
11
9.453375401583429
21
200.8194893412807
0
LINE
8
Layer_1
6
CONTINUOUS
62
1
10
9.453375401583429
20
200.8194893412807
11
6.4538429324121864
21
200.8194893412807
0
LINE
8
Layer_1
6
CONTINUOUS
62
1
10
6.4538429324121864
20
200.8194893412807
11
6.4538429324121864
21
208.61834265254669
0
LINE
8
Layer_1
6
CONTINUOUS
62
1
10
9.453375401583429
20
208.61834265254669
11
6.4538429324121864
21
208.61834265254669
0
LINE
8
Layer_1
6
CONTINUOUS
62
1
10
9.453375401583429
20
208.61834265254669
11
9.453375401583429
21
216.41702373526044
0
LINE
8
Layer_1
6
CONTINUOUS
62
1
10
9.453375401583429
20
216.41702373526044
11
6.4538429324121864
21
216.41702373526044
0
LINE
8
Layer_1
6
CONTINUOUS
62
1
10
6.4538429324121864
20
216.41702373526044
11
6.4538429324121864
21
224.2160492750788
0
LINE
8
Layer_1
6
CONTINUOUS
62
1
10
9.453375401583429
20
224.2160492750788
11
6.4538429324121864
21
224.2160492750788
0
LINE
8
Layer_1
6
CONTINUOUS
62
1
10
9.453375401583429
20
224.2160492750788
11
9.453375401583429
21
232.01490258634502
0
LINE
8
Layer_1
6
CONTINUOUS
62
1
10
9.453375401583429
20
232.01490258634502
11
6.4538429324121864
21
232.01490258634502
0
LINE
8
Layer_1
6
CONTINUOUS
62
1
10
6.4538429324121864
20
232.01490258634502
11
6.4538429324121864
21
239.81358366905872
0
LINE
8
Layer_1
6
CONTINUOUS
62
1
10
9.453375401583429
20
239.81358366905872
11
6.4538429324121864
21
239.81358366905872
0
LINE
8
Layer_1
6
CONTINUOUS
62
1
10
9.453375401583429
20
239.81358366905872
11
9.453375401583429
21
247.61226475177236
0
LINE
8
Layer_1
6
CONTINUOUS
62
1
10
9.453375401583429
20
247.61226475177236
11
6.4538429324121864
21
247.61226475177236
0
LINE
8
Layer_1
6
CONTINUOUS
62
1
10
6.4538429324121864
20
247.61226475177236
11
6.4538429324121864
21
255.4111180630384
0
LINE
8
Layer_1
6
CONTINUOUS
62
1
10
9.453375401583429
20
255.4111180630384
11
6.4538429324121864
21
255.4111180630384
0
LINE
8
Layer_1
6
CONTINUOUS
62
1
10
9.453375401583429
20
255.4111180630384
11
9.453375401583429
21
263.21014360285699
0
LINE
8
Layer_1
6
CONTINUOUS
62
1
10
9.453375401583429
20
263.21014360285699
11
6.4538429324121864
21
263.21014360285699
0
LINE
8
Layer_1
6
CONTINUOUS
62
1
10
6.4538429324121864
20
263.21014360285699
11
6.4538429324121864
21
271.00882468557046
0
LINE
8
Layer_1
6
CONTINUOUS
62
1
10
9.453375401583429
20
271.00882468557046
11
6.4538429324121864
21
271.00882468557046
0
LINE
8
Layer_1
6
CONTINUOUS
62
1
10
9.453375401583429
20
271.00882468557046
11
9.453375401583429
21
278.80767799683684
0
LINE
8
Layer_1
6
CONTINUOUS
62
1
10
9.453375401583429
20
278.80767799683684
11
6.4538429324121864
21
278.80767799683684
0
LINE
8
Layer_1
6
CONTINUOUS
62
1
10
6.4538429324121864
20
278.80767799683684
11
6.4538429324121864
21
286.60635907955037
0
LINE
8
Layer_1
6
CONTINUOUS
62
1
10
9.453375401583429
20
286.60635907955037
11
6.4538429324121864
21
286.60635907955037
0
LINE
8
Layer_1
6
CONTINUOUS
62
1
10
9.453375401583429
20
286.60635907955037
11
9.453375401583429
21
291.40585215019775
0
LINE
8
Layer_1
6
CONTINUOUS
62
1
10
198.42478210213147
20
102.43444544964991
11
198.42478210213147
21
107.23376629174489
0
LINE
8
Layer_1
6
CONTINUOUS
62
1
10
201.42431457130249
20
107.23376629174489
11
198.42478210213147
21
107.23376629174489
0
LINE
8
Layer_1
6
CONTINUOUS
62
1
10
201.42431457130249
20
107.23376629174489
11
201.42431457130249
21
115.03261960301099
0
LINE
8
Layer_1
6
CONTINUOUS
62
1
10
201.42431457130249
20
115.03261960301099
11
198.42478210213147
21
115.03261960301099
0
LINE
8
Layer_1
6
CONTINUOUS
62
1
10
198.42478210213147
20
115.03261960301099
11
198.42478210213147
21
122.83130068572466
0
LINE
8
Layer_1
6
CONTINUOUS
62
1
10
201.42431457130249
20
122.83130068572466
11
198.42478210213147
21
122.83130068572466
0
LINE
8
Layer_1
6
CONTINUOUS
62
1
10
201.42431457130249
20
122.83130068572466
11
201.42431457130249
21
130.63015399699071
0
LINE
8
Layer_1
6
CONTINUOUS
62
1
10
201.42431457130249
20
130.63015399699071
11
198.42478210213147
21
130.63015399699071
0
LINE
8
Layer_1
6
CONTINUOUS
62
1
10
198.42478210213147
20
130.63015399699071
11
198.42478210213147
21
138.42900730825684
0
LINE
8
Layer_1
6
CONTINUOUS
62
1
10
201.42431457130249
20
138.42900730825684
11
198.42478210213147
21
138.42900730825684
0
LINE
8
Layer_1
6
CONTINUOUS
62
1
10
201.42431457130249
20
138.42900730825684
11
201.42431457130249
21
146.22786061952291
0
LINE
8
Layer_1
6
CONTINUOUS
62
1
10
201.42431457130249
20
146.22786061952291
11
198.42478210213147
21
146.22786061952291
0
LINE
8
Layer_1
6
CONTINUOUS
62
1
10
198.42478210213147
20
146.22786061952291
11
198.42478210213147
21
154.02671393078896
0
LINE
8
Layer_1
6
CONTINUOUS
62
1
10
201.42431457130249
20
154.02671393078896
11
198.42478210213147
21
154.02671393078896
0
LINE
8
Layer_1
6
CONTINUOUS
62
1
10
201.42431457130249
20
154.02671393078896
11
201.42431457130249
21
161.82539501350269
0
LINE
8
Layer_1
6
CONTINUOUS
62
1
10
201.42431457130249
20
161.82539501350269
11
198.42478210213147
21
161.82539501350269
0
LINE
8
Layer_1
6
CONTINUOUS
62
1
10
198.42478210213147
20
161.82539501350269
11
198.42478210213147
21
169.62442055332119
0
LINE
8
Layer_1
6
CONTINUOUS
62
1
10
201.42431457130249
20
169.62442055332119
11
198.42478210213147
21
169.62442055332119
0
LINE
8
Layer_1
6
CONTINUOUS
62
1
10
201.42431457130249
20
169.62442055332119
11
201.42431457130249
21
177.42310163603486
0
LINE
8
Layer_1
6
CONTINUOUS
62
1
10
201.42431457130249
20
177.42310163603486
11
198.42478210213147
21
177.42310163603486
0
LINE
8
Layer_1
6
CONTINUOUS
62
1
10
198.42478210213147
20
177.42310163603486
11
198.42478210213147
21
185.2217827187485
0
LINE
8
Layer_1
6
CONTINUOUS
62
1
10
201.42431457130249
20
185.2217827187485
11
198.42478210213147
21
185.2217827187485
0
LINE
8
Layer_1
6
CONTINUOUS
62
1
10
201.42431457130249
20
185.2217827187485
11
201.42431457130249
21
193.02080825856706
0
LINE
8
Layer_1
6
CONTINUOUS
62
1
10
201.42431457130249
20
193.02080825856706
11
198.42478210213147
21
193.02080825856706
0
LINE
8
Layer_1
6
CONTINUOUS
62
1
10
198.42478210213147
20
193.02080825856706
11
198.42478210213147
21
200.8194893412807
0
LINE
8
Layer_1
6
CONTINUOUS
62
1
10
201.42431457130249
20
200.8194893412807
11
198.42478210213147
21
200.8194893412807
0
LINE
8
Layer_1
6
CONTINUOUS
62
1
10
201.42431457130249
20
200.8194893412807
11
201.42431457130249
21
208.61834265254669
0
LINE
8
Layer_1
6
CONTINUOUS
62
1
10
201.42431457130249
20
208.61834265254669
11
198.42478210213147
21
208.61834265254669
0
LINE
8
Layer_1
6
CONTINUOUS
62
1
10
198.42478210213147
20
208.61834265254669
11
198.42478210213147
21
216.41702373526044
0
LINE
8
Layer_1
6
CONTINUOUS
62
1
10
201.42431457130249
20
216.41702373526044
11
198.42478210213147
21
216.41702373526044
0
LINE
8
Layer_1
6
CONTINUOUS
62
1
10
201.42431457130249
20
216.41702373526044
11
201.42431457130249
21
224.2160492750788
0
LINE
8
Layer_1
6
CONTINUOUS
62
1
10
201.42431457130249
20
224.2160492750788
11
198.42478210213147
21
224.2160492750788
0
LINE
8
Layer_1
6
CONTINUOUS
62
1
10
198.42478210213147
20
224.2160492750788
11
198.42478210213147
21
232.01490258634502
0
LINE
8
Layer_1
6
CONTINUOUS
62
1
10
201.42431457130249
20
232.01490258634502
11
198.42478210213147
21
232.01490258634502
0
LINE
8
Layer_1
6
CONTINUOUS
62
1
10
201.42431457130249
20
232.01490258634502
11
201.42431457130249
21
239.81358366905872
0
LINE
8
Layer_1
6
CONTINUOUS
62
1
10
201.42431457130249
20
239.81358366905872
11
198.42478210213147
21
239.81358366905872
0
LINE
8
Layer_1
6
CONTINUOUS
62
1
10
198.42478210213147
20
239.81358366905872
11
198.42478210213147
21
247.61226475177236
0
LINE
8
Layer_1
6
CONTINUOUS
62
1
10
201.42431457130249
20
247.61226475177236
11
198.42478210213147
21
247.61226475177236
0
LINE
8
Layer_1
6
CONTINUOUS
62
1
10
201.42431457130249
20
247.61226475177236
11
201.42431457130249
21
255.4111180630384
0
LINE
8
Layer_1
6
CONTINUOUS
62
1
10
201.42431457130249
20
255.4111180630384
11
198.42478210213147
21
255.4111180630384
0
LINE
8
Layer_1
6
CONTINUOUS
62
1
10
198.42478210213147
20
255.4111180630384
11
198.42478210213147
21
263.21014360285699
0
LINE
8
Layer_1
6
CONTINUOUS
62
1
10
201.42431457130249
20
263.21014360285699
11
198.42478210213147
21
263.21014360285699
0
LINE
8
Layer_1
6
CONTINUOUS
62
1
10
201.42431457130249
20
263.21014360285699
11
201.42431457130249
21
271.00882468557046
0
LINE
8
Layer_1
6
CONTINUOUS
62
1
10
201.42431457130249
20
271.00882468557046
11
198.42478210213147
21
271.00882468557046
0
LINE
8
Layer_1
6
CONTINUOUS
62
1
10
198.42478210213147
20
271.00882468557046
11
198.42478210213147
21
278.80767799683684
0
LINE
8
Layer_1
6
CONTINUOUS
62
1
10
201.42431457130249
20
278.80767799683684
11
198.42478210213147
21
278.80767799683684
0
LINE
8
Layer_1
6
CONTINUOUS
62
1
10
201.42431457130249
20
278.80767799683684
11
201.42431457130249
21
286.60635907955037
0
LINE
8
Layer_1
6
CONTINUOUS
62
1
10
201.42431457130249
20
286.60635907955037
11
198.42478210213147
21
286.60635907955037
0
LINE
8
Layer_1
6
CONTINUOUS
62
1
10
198.42478210213147
20
286.60635907955037
11
198.42478210213147
21
291.40585215019775
0
LINE
8
Layer_1
6
CONTINUOUS
62
1
10
208.55797796840733
20
102.79166749951686
11
213.35729881050224
21
102.79166749951686
0
LINE
8
Layer_1
6
CONTINUOUS
62
1
10
213.35729881050224
20
102.79166749951686
11
213.35729881050224
21
99.792135030345662
0
LINE
8
Layer_1
6
CONTINUOUS
62
1
10
213.35729881050224
20
99.792135030345662
11
221.15615212176829
21
99.792135030345662
0
LINE
8
Layer_1
6
CONTINUOUS
62
1
10
221.15615212176829
20
102.79166749951686
11
221.15615212176829
21
99.792135030345662
0
LINE
8
Layer_1
6
CONTINUOUS
62
1
10
221.15615212176829
20
102.79166749951686
11
228.95483320448193
21
102.79166749951686
0
LINE
8
Layer_1
6
CONTINUOUS
62
1
10
228.95483320448193
20
102.79166749951686
11
228.95483320448193
21
99.792135030345662
0
LINE
8
Layer_1
6
CONTINUOUS
62
1
10
228.95483320448193
20
99.792135030345662
11
236.75368651574803
21
99.792135030345662
0
LINE
8
Layer_1
6
CONTINUOUS
62
1
10
236.75368651574803
20
102.79166749951686
11
236.75368651574803
21
99.792135030345662
0
LINE
8
Layer_1
6
CONTINUOUS
62
1
10
236.75368651574803
20
102.79166749951686
11
244.55253982701413
21
102.79166749951686
0
LINE
8
Layer_1
6
CONTINUOUS
62
1
10
244.55253982701413
20
102.79166749951686
11
244.55253982701413
21
99.792135030345662
0
LINE
8
Layer_1
6
CONTINUOUS
62
1
10
244.55253982701413
20
99.792135030345662
11
252.35139313828023
21
99.792135030345662
0
LINE
8
Layer_1
6
CONTINUOUS
62
1
10
252.35139313828023
20
102.79166749951686
11
252.35139313828023
21
99.792135030345662
0
LINE
8
Layer_1
6
CONTINUOUS
62
1
10
252.35139313828023
20
102.79166749951686
11
260.15024644954633
21
102.79166749951686
0
LINE
8
Layer_1
6
CONTINUOUS
62
1
10
260.15024644954633
20
102.79166749951686
11
260.15024644954633
21
99.792135030345662
0
LINE
8
Layer_1
6
CONTINUOUS
62
1
10
260.15024644954633
20
99.792135030345662
11
267.94892753225997
21
99.792135030345662
0
LINE
8
Layer_1
6
CONTINUOUS
62
1
10
267.94892753225997
20
102.79166749951686
11
267.94892753225997
21
99.792135030345662
0
LINE
8
Layer_1
6
CONTINUOUS
62
1
10
267.94892753225997
20
102.79166749951686
11
275.74778084352613
21
102.79166749951686
0
LINE
8
Layer_1
6
CONTINUOUS
62
1
10
275.74778084352613
20
102.79166749951686
11
275.74778084352613
21
99.792135030345662
0
LINE
8
Layer_1
6
CONTINUOUS
62
1
10
275.74778084352613
20
99.792135030345662
11
283.54663415479212
21
99.792135030345662
0
LINE
8
Layer_1
6
CONTINUOUS
62
1
10
283.54663415479212
20
102.79166749951686
11
283.54663415479212
21
99.792135030345662
0
LINE
8
Layer_1
6
CONTINUOUS
62
1
10
283.54663415479212
20
102.79166749951686
11
291.34531523750587
21
102.79166749951686
0
LINE
8
Layer_1
6
CONTINUOUS
62
1
10
291.34531523750587
20
102.79166749951686
11
291.34531523750587
21
99.792135030345662
0
LINE
8
Layer_1
6
CONTINUOUS
62
1
10
291.34531523750587
20
99.792135030345662
11
299.14416854877197
21
99.792135030345662
0
LINE
8
Layer_1
6
CONTINUOUS
62
1
10
299.14416854877197
20
102.79166749951686
11
299.14416854877197
21
99.792135030345662
0
LINE
8
Layer_1
6
CONTINUOUS
62
1
10
299.14416854877197
20
102.79166749951686
11
306.94302186003802
21
102.79166749951686
0
LINE
8
Layer_1
6
CONTINUOUS
62
1
10
306.94302186003802
20
102.79166749951686
11
306.94302186003802
21
99.792135030345662
0
LINE
8
Layer_1
6
CONTINUOUS
62
1
10
306.94302186003802
20
99.792135030345662
11
314.74187517130417
21
99.792135030345662
0
LINE
8
Layer_1
6
CONTINUOUS
62
1
10
314.74187517130417
20
102.79166749951686
11
314.74187517130417
21
99.792135030345662
0
LINE
8
Layer_1
6
CONTINUOUS
62
1
10
314.74187517130417
20
102.79166749951686
11
322.54072848257022
21
102.79166749951686
0
LINE
8
Layer_1
6
CONTINUOUS
62
1
10
322.54072848257022
20
102.79166749951686
11
322.54072848257022
21
99.792135030345662
0
LINE
8
Layer_1
6
CONTINUOUS
62
1
10
322.54072848257022
20
99.792135030345662
11
330.33958179383637
21
99.792135030345662
0
LINE
8
Layer_1
6
CONTINUOUS
62
1
10
330.33958179383637
20
102.79166749951686
11
330.33958179383637
21
99.792135030345662
0
LINE
8
Layer_1
6
CONTINUOUS
62
1
10
330.33958179383637
20
102.79166749951686
11
338.13843510510253
21
102.79166749951686
0
LINE
8
Layer_1
6
CONTINUOUS
62
1
10
338.13843510510253
20
102.79166749951686
11
338.13843510510253
21
99.792135030345662
0
LINE
8
Layer_1
6
CONTINUOUS
62
1
10
338.13843510510253
20
99.792135030345662
11
345.93694395926377
21
99.792135030345662
0
LINE
8
Layer_1
6
CONTINUOUS
62
1
10
345.93694395926377
20
102.79166749951686
11
345.93694395926377
21
99.792135030345662
0
LINE
8
Layer_1
6
CONTINUOUS
62
1
10
345.93694395926377
20
102.79166749951686
11
353.73579727052987
21
102.79166749951686
0
LINE
8
Layer_1
6
CONTINUOUS
62
1
10
353.73579727052987
20
102.79166749951686
11
353.73579727052987
21
99.792135030345662
0
LINE
8
Layer_1
6
CONTINUOUS
62
1
10
353.73579727052987
20
99.792135030345662
11
361.534995038901
21
99.792135030345662
0
LINE
8
Layer_1
6
CONTINUOUS
62
1
10
361.534995038901
20
102.79166749951686
11
361.534995038901
21
99.792135030345662
0
LINE
8
Layer_1
6
CONTINUOUS
62
1
10
361.534995038901
20
102.79166749951686
11
369.33350389306213
21
102.79166749951686
0
LINE
8
Layer_1
6
CONTINUOUS
62
1
10
369.33350389306213
20
102.79166749951686
11
369.33350389306213
21
99.792135030345662
0
LINE
8
Layer_1
6
CONTINUOUS
62
1
10
369.33350389306213
20
99.792135030345662
11
377.13235720432806
21
99.792135030345662
0
LINE
8
Layer_1
6
CONTINUOUS
62
1
10
377.13235720432806
20
102.79166749951686
11
377.13235720432806
21
99.792135030345662
0
LINE
8
Layer_1
6
CONTINUOUS
62
1
10
377.13235720432806
20
102.79166749951686
11
384.93121051559422
21
102.79166749951686
0
LINE
8
Layer_1
6
CONTINUOUS
62
1
10
384.93121051559422
20
102.79166749951686
11
384.93121051559422
21
99.792135030345662
0
LINE
8
Layer_1
6
CONTINUOUS
62
1
10
384.93121051559422
20
99.792135030345662
11
392.72971936975557
21
99.792135030345662
0
LINE
8
Layer_1
6
CONTINUOUS
62
1
10
392.72971936975557
20
102.79166749951686
11
392.72971936975557
21
99.792135030345662
0
LINE
8
Layer_1
6
CONTINUOUS
62
1
10
392.72971936975557
20
102.79166749951686
11
397.5293846689554
21
102.79166749951686
0
LINE
8
Layer_1
6
CONTINUOUS
62
1
10
208.55797796840733
20
291.76307420006469
11
213.35729881050224
21
291.76307420006469
0
LINE
8
Layer_1
6
CONTINUOUS
62
1
10
213.35729881050224
20
294.76260666923588
11
213.35729881050224
21
291.76307420006469
0
LINE
8
Layer_1
6
CONTINUOUS
62
1
10
213.35729881050224
20
294.76260666923588
11
221.15615212176829
21
294.76260666923588
0
LINE
8
Layer_1
6
CONTINUOUS
62
1
10
221.15615212176829
20
294.76260666923588
11
221.15615212176829
21
291.76307420006469
0
LINE
8
Layer_1
6
CONTINUOUS
62
1
10
221.15615212176829
20
291.76307420006469
11
228.95483320448193
21
291.76307420006469
0
LINE
8
Layer_1
6
CONTINUOUS
62
1
10
228.95483320448193
20
294.76260666923588
11
228.95483320448193
21
291.76307420006469
0
LINE
8
Layer_1
6
CONTINUOUS
62
1
10
228.95483320448193
20
294.76260666923588
11
236.75368651574803
21
294.76260666923588
0
LINE
8
Layer_1
6
CONTINUOUS
62
1
10
236.75368651574803
20
294.76260666923588
11
236.75368651574803
21
291.76307420006469
0
LINE
8
Layer_1
6
CONTINUOUS
62
1
10
236.75368651574803
20
291.76307420006469
11
244.55253982701413
21
291.76307420006469
0
LINE
8
Layer_1
6
CONTINUOUS
62
1
10
244.55253982701413
20
294.76260666923588
11
244.55253982701413
21
291.76307420006469
0
LINE
8
Layer_1
6
CONTINUOUS
62
1
10
244.55253982701413
20
294.76260666923588
11
252.35139313828023
21
294.76260666923588
0
LINE
8
Layer_1
6
CONTINUOUS
62
1
10
252.35139313828023
20
294.76260666923588
11
252.35139313828023
21
291.76307420006469
0
LINE
8
Layer_1
6
CONTINUOUS
62
1
10
252.35139313828023
20
291.76307420006469
11
260.15024644954633
21
291.76307420006469
0
LINE
8
Layer_1
6
CONTINUOUS
62
1
10
260.15024644954633
20
294.76260666923588
11
260.15024644954633
21
291.76307420006469
0
LINE
8
Layer_1
6
CONTINUOUS
62
1
10
260.15024644954633
20
294.76260666923588
11
267.94892753225997
21
294.76260666923588
0
LINE
8
Layer_1
6
CONTINUOUS
62
1
10
267.94892753225997
20
294.76260666923588
11
267.94892753225997
21
291.76307420006469
0
LINE
8
Layer_1
6
CONTINUOUS
62
1
10
267.94892753225997
20
291.76307420006469
11
275.74778084352613
21
291.76307420006469
0
LINE
8
Layer_1
6
CONTINUOUS
62
1
10
275.74778084352613
20
294.76260666923588
11
275.74778084352613
21
291.76307420006469
0
LINE
8
Layer_1
6
CONTINUOUS
62
1
10
275.74778084352613
20
294.76260666923588
11
283.54663415479212
21
294.76260666923588
0
LINE
8
Layer_1
6
CONTINUOUS
62
1
10
283.54663415479212
20
294.76260666923588
11
283.54663415479212
21
291.76307420006469
0
LINE
8
Layer_1
6
CONTINUOUS
62
1
10
283.54663415479212
20
291.76307420006469
11
291.34531523750587
21
291.76307420006469
0
LINE
8
Layer_1
6
CONTINUOUS
62
1
10
291.34531523750587
20
294.76260666923588
11
291.34531523750587
21
291.76307420006469
0
LINE
8
Layer_1
6
CONTINUOUS
62
1
10
291.34531523750587
20
294.76260666923588
11
299.14416854877197
21
294.76260666923588
0
LINE
8
Layer_1
6
CONTINUOUS
62
1
10
299.14416854877197
20
294.76260666923588
11
299.14416854877197
21
291.76307420006469
0
LINE
8
Layer_1
6
CONTINUOUS
62
1
10
299.14416854877197
20
291.76307420006469
11
306.94302186003802
21
291.76307420006469
0
LINE
8
Layer_1
6
CONTINUOUS
62
1
10
306.94302186003802
20
294.76260666923588
11
306.94302186003802
21
291.76307420006469
0
LINE
8
Layer_1
6
CONTINUOUS
62
1
10
306.94302186003802
20
294.76260666923588
11
314.74187517130417
21
294.76260666923588
0
LINE
8
Layer_1
6
CONTINUOUS
62
1
10
314.74187517130417
20
294.76260666923588
11
314.74187517130417
21
291.76307420006469
0
LINE
8
Layer_1
6
CONTINUOUS
62
1
10
314.74187517130417
20
291.76307420006469
11
322.54072848257022
21
291.76307420006469
0
LINE
8
Layer_1
6
CONTINUOUS
62
1
10
322.54072848257022
20
294.76260666923588
11
322.54072848257022
21
291.76307420006469
0
LINE
8
Layer_1
6
CONTINUOUS
62
1
10
322.54072848257022
20
294.76260666923588
11
330.33958179383637
21
294.76260666923588
0
LINE
8
Layer_1
6
CONTINUOUS
62
1
10
330.33958179383637
20
294.76260666923588
11
330.33958179383637
21
291.76307420006469
0
LINE
8
Layer_1
6
CONTINUOUS
62
1
10
330.33958179383637
20
291.76307420006469
11
338.13843510510253
21
291.76307420006469
0
LINE
8
Layer_1
6
CONTINUOUS
62
1
10
338.13843510510253
20
294.76260666923588
11
338.13843510510253
21
291.76307420006469
0
LINE
8
Layer_1
6
CONTINUOUS
62
1
10
338.13843510510253
20
294.76260666923588
11
345.93694395926377
21
294.76260666923588
0
LINE
8
Layer_1
6
CONTINUOUS
62
1
10
345.93694395926377
20
294.76260666923588
11
345.93694395926377
21
291.76307420006469
0
LINE
8
Layer_1
6
CONTINUOUS
62
1
10
345.93694395926377
20
291.76307420006469
11
353.73579727052987
21
291.76307420006469
0
LINE
8
Layer_1
6
CONTINUOUS
62
1
10
353.73579727052987
20
294.76260666923588
11
353.73579727052987
21
291.76307420006469
0
LINE
8
Layer_1
6
CONTINUOUS
62
1
10
353.73579727052987
20
294.76260666923588
11
361.534995038901
21
294.76260666923588
0
LINE
8
Layer_1
6
CONTINUOUS
62
1
10
361.534995038901
20
294.76260666923588
11
361.534995038901
21
291.76307420006469
0
LINE
8
Layer_1
6
CONTINUOUS
62
1
10
361.534995038901
20
291.76307420006469
11
369.33350389306213
21
291.76307420006469
0
LINE
8
Layer_1
6
CONTINUOUS
62
1
10
369.33350389306213
20
294.76260666923588
11
369.33350389306213
21
291.76307420006469
0
LINE
8
Layer_1
6
CONTINUOUS
62
1
10
369.33350389306213
20
294.76260666923588
11
377.13235720432806
21
294.76260666923588
0
LINE
8
Layer_1
6
CONTINUOUS
62
1
10
377.13235720432806
20
294.76260666923588
11
377.13235720432806
21
291.76307420006469
0
LINE
8
Layer_1
6
CONTINUOUS
62
1
10
377.13235720432806
20
291.76307420006469
11
384.93121051559422
21
291.76307420006469
0
LINE
8
Layer_1
6
CONTINUOUS
62
1
10
384.93121051559422
20
294.76260666923588
11
384.93121051559422
21
291.76307420006469
0
LINE
8
Layer_1
6
CONTINUOUS
62
1
10
384.93121051559422
20
294.76260666923588
11
392.72971936975557
21
294.76260666923588
0
LINE
8
Layer_1
6
CONTINUOUS
62
1
10
392.72971936975557
20
294.76260666923588
11
392.72971936975557
21
291.76307420006469
0
LINE
8
Layer_1
6
CONTINUOUS
62
1
10
392.72971936975557
20
291.76307420006469
11
397.5293846689554
21
291.76307420006469
0
LINE
8
Layer_1
6
CONTINUOUS
62
1
10
208.55797796840733
20
102.79166749951686
11
208.55797796840733
21
107.59098834161183
0
LINE
8
Layer_1
6
CONTINUOUS
62
1
10
208.55797796840733
20
107.59098834161183
11
205.55844549923609
21
107.59098834161183
0
LINE
8
Layer_1
6
CONTINUOUS
62
1
10
205.55844549923609
20
107.59098834161183
11
205.55844549923609
21
115.38984165287793
0
LINE
8
Layer_1
6
CONTINUOUS
62
1
10
208.55797796840733
20
115.38984165287793
11
205.55844549923609
21
115.38984165287793
0
LINE
8
Layer_1
6
CONTINUOUS
62
1
10
208.55797796840733
20
115.38984165287793
11
208.55797796840733
21
123.1885227355916
0
LINE
8
Layer_1
6
CONTINUOUS
62
1
10
208.55797796840733
20
123.1885227355916
11
205.55844549923609
21
123.1885227355916
0
LINE
8
Layer_1
6
CONTINUOUS
62
1
10
205.55844549923609
20
123.1885227355916
11
205.55844549923609
21
130.98737604685766
0
LINE
8
Layer_1
6
CONTINUOUS
62
1
10
208.55797796840733
20
130.98737604685766
11
205.55844549923609
21
130.98737604685766
0
LINE
8
Layer_1
6
CONTINUOUS
62
1
10
208.55797796840733
20
130.98737604685766
11
208.55797796840733
21
138.78622935812379
0
LINE
8
Layer_1
6
CONTINUOUS
62
1
10
208.55797796840733
20
138.78622935812379
11
205.55844549923609
21
138.78622935812379
0
LINE
8
Layer_1
6
CONTINUOUS
62
1
10
205.55844549923609
20
138.78622935812379
11
205.55844549923609
21
146.58508266938986
0
LINE
8
Layer_1
6
CONTINUOUS
62
1
10
208.55797796840733
20
146.58508266938986
11
205.55844549923609
21
146.58508266938986
0
LINE
8
Layer_1
6
CONTINUOUS
62
1
10
208.55797796840733
20
146.58508266938986
11
208.55797796840733
21
154.38393598065591
0
LINE
8
Layer_1
6
CONTINUOUS
62
1
10
208.55797796840733
20
154.38393598065591
11
205.55844549923609
21
154.38393598065591
0
LINE
8
Layer_1
6
CONTINUOUS
62
1
10
205.55844549923609
20
154.38393598065591
11
205.55844549923609
21
162.18261706336963
0
LINE
8
Layer_1
6
CONTINUOUS
62
1
10
208.55797796840733
20
162.18261706336963
11
205.55844549923609
21
162.18261706336963
0
LINE
8
Layer_1
6
CONTINUOUS
62
1
10
208.55797796840733
20
162.18261706336963
11
208.55797796840733
21
169.98164260318813
0
LINE
8
Layer_1
6
CONTINUOUS
62
1
10
208.55797796840733
20
169.98164260318813
11
205.55844549923609
21
169.98164260318813
0
LINE
8
Layer_1
6
CONTINUOUS
62
1
10
205.55844549923609
20
169.98164260318813
11
205.55844549923609
21
177.78032368590181
0
LINE
8
Layer_1
6
CONTINUOUS
62
1
10
208.55797796840733
20
177.78032368590181
11
205.55844549923609
21
177.78032368590181
0
LINE
8
Layer_1
6
CONTINUOUS
62
1
10
208.55797796840733
20
177.78032368590181
11
208.55797796840733
21
185.57900476861545
0
LINE
8
Layer_1
6
CONTINUOUS
62
1
10
208.55797796840733
20
185.57900476861545
11
205.55844549923609
21
185.57900476861545
0
LINE
8
Layer_1
6
CONTINUOUS
62
1
10
205.55844549923609
20
185.57900476861545
11
205.55844549923609
21
193.37803030843401
0
LINE
8
Layer_1
6
CONTINUOUS
62
1
10
208.55797796840733
20
193.37803030843401
11
205.55844549923609
21
193.37803030843401
0
LINE
8
Layer_1
6
CONTINUOUS
62
1
10
208.55797796840733
20
193.37803030843401
11
208.55797796840733
21
201.17671139114765
0
LINE
8
Layer_1
6
CONTINUOUS
62
1
10
208.55797796840733
20
201.17671139114765
11
205.55844549923609
21
201.17671139114765
0
LINE
8
Layer_1
6
CONTINUOUS
62
1
10
205.55844549923609
20
201.17671139114765
11
205.55844549923609
21
208.97556470241364
0
LINE
8
Layer_1
6
CONTINUOUS
62
1
10
208.55797796840733
20
208.97556470241364
11
205.55844549923609
21
208.97556470241364
0
LINE
8
Layer_1
6
CONTINUOUS
62
1
10
208.55797796840733
20
208.97556470241364
11
208.55797796840733
21
216.77424578512739
0
LINE
8
Layer_1
6
CONTINUOUS
62
1
10
208.55797796840733
20
216.77424578512739
11
205.55844549923609
21
216.77424578512739
0
LINE
8
Layer_1
6
CONTINUOUS
62
1
10
205.55844549923609
20
216.77424578512739
11
205.55844549923609
21
224.57327132494575
0
LINE
8
Layer_1
6
CONTINUOUS
62
1
10
208.55797796840733
20
224.57327132494575
11
205.55844549923609
21
224.57327132494575
0
LINE
8
Layer_1
6
CONTINUOUS
62
1
10
208.55797796840733
20
224.57327132494575
11
208.55797796840733
21
232.37212463621196
0
LINE
8
Layer_1
6
CONTINUOUS
62
1
10
208.55797796840733
20
232.37212463621196
11
205.55844549923609
21
232.37212463621196
0
LINE
8
Layer_1
6
CONTINUOUS
62
1
10
205.55844549923609
20
232.37212463621196
11
205.55844549923609
21
240.17080571892566
0
LINE
8
Layer_1
6
CONTINUOUS
62
1
10
208.55797796840733
20
240.17080571892566
11
205.55844549923609
21
240.17080571892566
0
LINE
8
Layer_1
6
CONTINUOUS
62
1
10
208.55797796840733
20
240.17080571892566
11
208.55797796840733
21
247.96948680163931
0
LINE
8
Layer_1
6
CONTINUOUS
62
1
10
208.55797796840733
20
247.96948680163931
11
205.55844549923609
21
247.96948680163931
0
LINE
8
Layer_1
6
CONTINUOUS
62
1
10
205.55844549923609
20
247.96948680163931
11
205.55844549923609
21
255.76834011290535
0
LINE
8
Layer_1
6
CONTINUOUS
62
1
10
208.55797796840733
20
255.76834011290535
11
205.55844549923609
21
255.76834011290535
0
LINE
8
Layer_1
6
CONTINUOUS
62
1
10
208.55797796840733
20
255.76834011290535
11
208.55797796840733
21
263.56736565272394
0
LINE
8
Layer_1
6
CONTINUOUS
62
1
10
208.55797796840733
20
263.56736565272394
11
205.55844549923609
21
263.56736565272394
0
LINE
8
Layer_1
6
CONTINUOUS
62
1
10
205.55844549923609
20
263.56736565272394
11
205.55844549923609
21
271.36604673543741
0
LINE
8
Layer_1
6
CONTINUOUS
62
1
10
208.55797796840733
20
271.36604673543741
11
205.55844549923609
21
271.36604673543741
0
LINE
8
Layer_1
6
CONTINUOUS
62
1
10
208.55797796840733
20
271.36604673543741
11
208.55797796840733
21
279.16490004670379
0
LINE
8
Layer_1
6
CONTINUOUS
62
1
10
208.55797796840733
20
279.16490004670379
11
205.55844549923609
21
279.16490004670379
0
LINE
8
Layer_1
6
CONTINUOUS
62
1
10
205.55844549923609
20
279.16490004670379
11
205.55844549923609
21
286.96358112941732
0
LINE
8
Layer_1
6
CONTINUOUS
62
1
10
208.55797796840733
20
286.96358112941732
11
205.55844549923609
21
286.96358112941732
0
LINE
8
Layer_1
6
CONTINUOUS
62
1
10
208.55797796840733
20
286.96358112941732
11
208.55797796840733
21
291.76307420006469
0
LINE
8
Layer_1
6
CONTINUOUS
62
1
10
397.5293846689554
20
102.79166749951686
11
397.5293846689554
21
107.59098834161183
0
LINE
8
Layer_1
6
CONTINUOUS
62
1
10
400.52891713812642
20
107.59098834161183
11
397.5293846689554
21
107.59098834161183
0
LINE
8
Layer_1
6
CONTINUOUS
62
1
10
400.52891713812642
20
107.59098834161183
11
400.52891713812642
21
115.38984165287793
0
LINE
8
Layer_1
6
CONTINUOUS
62
1
10
400.52891713812642
20
115.38984165287793
11
397.5293846689554
21
115.38984165287793
0
LINE
8
Layer_1
6
CONTINUOUS
62
1
10
397.5293846689554
20
115.38984165287793
11
397.5293846689554
21
123.1885227355916
0
LINE
8
Layer_1
6
CONTINUOUS
62
1
10
400.52891713812642
20
123.1885227355916
11
397.5293846689554
21
123.1885227355916
0
LINE
8
Layer_1
6
CONTINUOUS
62
1
10
400.52891713812642
20
123.1885227355916
11
400.52891713812642
21
130.98737604685766
0
LINE
8
Layer_1
6
CONTINUOUS
62
1
10
400.52891713812642
20
130.98737604685766
11
397.5293846689554
21
130.98737604685766
0
LINE
8
Layer_1
6
CONTINUOUS
62
1
10
397.5293846689554
20
130.98737604685766
11
397.5293846689554
21
138.78622935812379
0
LINE
8
Layer_1
6
CONTINUOUS
62
1
10
400.52891713812642
20
138.78622935812379
11
397.5293846689554
21
138.78622935812379
0
LINE
8
Layer_1
6
CONTINUOUS
62
1
10
400.52891713812642
20
138.78622935812379
11
400.52891713812642
21
146.58508266938986
0
LINE
8
Layer_1
6
CONTINUOUS
62
1
10
400.52891713812642
20
146.58508266938986
11
397.5293846689554
21
146.58508266938986
0
LINE
8
Layer_1
6
CONTINUOUS
62
1
10
397.5293846689554
20
146.58508266938986
11
397.5293846689554
21
154.38393598065591
0
LINE
8
Layer_1
6
CONTINUOUS
62
1
10
400.52891713812642
20
154.38393598065591
11
397.5293846689554
21
154.38393598065591
0
LINE
8
Layer_1
6
CONTINUOUS
62
1
10
400.52891713812642
20
154.38393598065591
11
400.52891713812642
21
162.18261706336963
0
LINE
8
Layer_1
6
CONTINUOUS
62
1
10
400.52891713812642
20
162.18261706336963
11
397.5293846689554
21
162.18261706336963
0
LINE
8
Layer_1
6
CONTINUOUS
62
1
10
397.5293846689554
20
162.18261706336963
11
397.5293846689554
21
169.98164260318813
0
LINE
8
Layer_1
6
CONTINUOUS
62
1
10
400.52891713812642
20
169.98164260318813
11
397.5293846689554
21
169.98164260318813
0
LINE
8
Layer_1
6
CONTINUOUS
62
1
10
400.52891713812642
20
169.98164260318813
11
400.52891713812642
21
177.78032368590181
0
LINE
8
Layer_1
6
CONTINUOUS
62
1
10
400.52891713812642
20
177.78032368590181
11
397.5293846689554
21
177.78032368590181
0
LINE
8
Layer_1
6
CONTINUOUS
62
1
10
397.5293846689554
20
177.78032368590181
11
397.5293846689554
21
185.57900476861545
0
LINE
8
Layer_1
6
CONTINUOUS
62
1
10
400.52891713812642
20
185.57900476861545
11
397.5293846689554
21
185.57900476861545
0
LINE
8
Layer_1
6
CONTINUOUS
62
1
10
400.52891713812642
20
185.57900476861545
11
400.52891713812642
21
193.37803030843401
0
LINE
8
Layer_1
6
CONTINUOUS
62
1
10
400.52891713812642
20
193.37803030843401
11
397.5293846689554
21
193.37803030843401
0
LINE
8
Layer_1
6
CONTINUOUS
62
1
10
397.5293846689554
20
193.37803030843401
11
397.5293846689554
21
201.17671139114765
0
LINE
8
Layer_1
6
CONTINUOUS
62
1
10
400.52891713812642
20
201.17671139114765
11
397.5293846689554
21
201.17671139114765
0
LINE
8
Layer_1
6
CONTINUOUS
62
1
10
400.52891713812642
20
201.17671139114765
11
400.52891713812642
21
208.97556470241364
0
LINE
8
Layer_1
6
CONTINUOUS
62
1
10
400.52891713812642
20
208.97556470241364
11
397.5293846689554
21
208.97556470241364
0
LINE
8
Layer_1
6
CONTINUOUS
62
1
10
397.5293846689554
20
208.97556470241364
11
397.5293846689554
21
216.77424578512739
0
LINE
8
Layer_1
6
CONTINUOUS
62
1
10
400.52891713812642
20
216.77424578512739
11
397.5293846689554
21
216.77424578512739
0
LINE
8
Layer_1
6
CONTINUOUS
62
1
10
400.52891713812642
20
216.77424578512739
11
400.52891713812642
21
224.57327132494575
0
LINE
8
Layer_1
6
CONTINUOUS
62
1
10
400.52891713812642
20
224.57327132494575
11
397.5293846689554
21
224.57327132494575
0
LINE
8
Layer_1
6
CONTINUOUS
62
1
10
397.5293846689554
20
224.57327132494575
11
397.5293846689554
21
232.37212463621196
0
LINE
8
Layer_1
6
CONTINUOUS
62
1
10
400.52891713812642
20
232.37212463621196
11
397.5293846689554
21
232.37212463621196
0
LINE
8
Layer_1
6
CONTINUOUS
62
1
10
400.52891713812642
20
232.37212463621196
11
400.52891713812642
21
240.17080571892566
0
LINE
8
Layer_1
6
CONTINUOUS
62
1
10
400.52891713812642
20
240.17080571892566
11
397.5293846689554
21
240.17080571892566
0
LINE
8
Layer_1
6
CONTINUOUS
62
1
10
397.5293846689554
20
240.17080571892566
11
397.5293846689554
21
247.96948680163931
0
LINE
8
Layer_1
6
CONTINUOUS
62
1
10
400.52891713812642
20
247.96948680163931
11
397.5293846689554
21
247.96948680163931
0
LINE
8
Layer_1
6
CONTINUOUS
62
1
10
400.52891713812642
20
247.96948680163931
11
400.52891713812642
21
255.76834011290535
0
LINE
8
Layer_1
6
CONTINUOUS
62
1
10
400.52891713812642
20
255.76834011290535
11
397.5293846689554
21
255.76834011290535
0
LINE
8
Layer_1
6
CONTINUOUS
62
1
10
397.5293846689554
20
255.76834011290535
11
397.5293846689554
21
263.56736565272394
0
LINE
8
Layer_1
6
CONTINUOUS
62
1
10
400.52891713812642
20
263.56736565272394
11
397.5293846689554
21
263.56736565272394
0
LINE
8
Layer_1
6
CONTINUOUS
62
1
10
400.52891713812642
20
263.56736565272394
11
400.52891713812642
21
271.36604673543741
0
LINE
8
Layer_1
6
CONTINUOUS
62
1
10
400.52891713812642
20
271.36604673543741
11
397.5293846689554
21
271.36604673543741
0
LINE
8
Layer_1
6
CONTINUOUS
62
1
10
397.5293846689554
20
271.36604673543741
11
397.5293846689554
21
279.16490004670379
0
LINE
8
Layer_1
6
CONTINUOUS
62
1
10
400.52891713812642
20
279.16490004670379
11
397.5293846689554
21
279.16490004670379
0
LINE
8
Layer_1
6
CONTINUOUS
62
1
10
400.52891713812642
20
279.16490004670379
11
400.52891713812642
21
286.96358112941732
0
LINE
8
Layer_1
6
CONTINUOUS
62
1
10
400.52891713812642
20
286.96358112941732
11
397.5293846689554
21
286.96358112941732
0
LINE
8
Layer_1
6
CONTINUOUS
62
1
10
397.5293846689554
20
286.96358112941732
11
397.5293846689554
21
291.76307420006469
0
ENDSEC
0
EOF
