  0
SECTION
  2
HEADER
  9
$ACADVER
  1
AC1018
  9
$ACADMAINTVER
 70
     0
  9
$DWGCODEPAGE
  3
ANSI_932
  9
$INSBASE
 10
0.0
 20
0.0
 30
0.0
  9
$EXTMIN
 10
1.000000000000000E+20
 20
1.000000000000000E+20
 30
1.000000000000000E+20
  9
$EXTMAX
 10
-1.000000000000000E+20
 20
-1.000000000000000E+20
 30
-1.000000000000000E+20
  9
$LIMMIN
 10
0.0
 20
0.0
  9
$LIMMAX
 10
12.0
 20
9.0
  9
$ORTHOMODE
 70
     0
  9
$REGENMODE
 70
     1
  9
$FILLMODE
 70
     1
  9
$QTEXTMODE
 70
     0
  9
$MIRRTEXT
 70
     1
  9
$LTSCALE
 40
1.0
  9
$ATTMODE
 70
     1
  9
$TEXTSIZE
 40
0.2
  9
$TRACEWID
 40
0.05
  9
$TEXTSTYLE
  7
Standard
  9
$CLAYER
  8
0
  9
$CELTYPE
  6
ByLayer
  9
$CECOLOR
 62
   256
  9
$CELTSCALE
 40
1.0
  9
$DISPSILH
 70
     0
  9
$DIMSCALE
 40
1.0
  9
$DIMASZ
 40
0.18
  9
$DIMEXO
 40
0.0625
  9
$DIMDLI
 40
0.38
  9
$DIMRND
 40
0.0
  9
$DIMDLE
 40
0.0
  9
$DIMEXE
 40
0.18
  9
$DIMTP
 40
0.0
  9
$DIMTM
 40
0.0
  9
$DIMTXT
 40
0.18
  9
$DIMCEN
 40
0.09
  9
$DIMTSZ
 40
0.0
  9
$DIMTOL
 70
     0
  9
$DIMLIM
 70
     0
  9
$DIMTIH
 70
     1
  9
$DIMTOH
 70
     1
  9
$DIMSE1
 70
     0
  9
$DIMSE2
 70
     0
  9
$DIMTAD
 70
     0
  9
$DIMZIN
 70
     0
  9
$DIMBLK
  1

  9
$DIMASO
 70
     1
  9
$DIMSHO
 70
     1
  9
$DIMPOST
  1

  9
$DIMAPOST
  1

  9
$DIMALT
 70
     0
  9
$DIMALTD
 70
     2
  9
$DIMALTF
 40
25.4
  9
$DIMLFAC
 40
1.0
  9
$DIMTOFL
 70
     0
  9
$DIMTVP
 40
0.0
  9
$DIMTIX
 70
     0
  9
$DIMSOXD
 70
     0
  9
$DIMSAH
 70
     0
  9
$DIMBLK1
  1

  9
$DIMBLK2
  1

  9
$DIMSTYLE
  2
Standard
  9
$DIMCLRD
 70
     0
  9
$DIMCLRE
 70
     0
  9
$DIMCLRT
 70
     0
  9
$DIMTFAC
 40
1.0
  9
$DIMGAP
 40
0.09
  9
$DIMJUST
 70
     0
  9
$DIMSD1
 70
     0
  9
$DIMSD2
 70
     0
  9
$DIMTOLJ
 70
     1
  9
$DIMTZIN
 70
     0
  9
$DIMALTZ
 70
     0
  9
$DIMALTTZ
 70
     0
  9
$DIMUPT
 70
     0
  9
$DIMDEC
 70
     4
  9
$DIMTDEC
 70
     4
  9
$DIMALTU
 70
     2
  9
$DIMALTTD
 70
     2
  9
$DIMTXSTY
  7
Standard
  9
$DIMAUNIT
 70
     0
  9
$DIMADEC
 70
     0
  9
$DIMALTRND
 40
0.0
  9
$DIMAZIN
 70
     0
  9
$DIMDSEP
 70
    46
  9
$DIMATFIT
 70
     3
  9
$DIMFRAC
 70
     0
  9
$DIMLDRBLK
  1

  9
$DIMLUNIT
 70
     2
  9
$DIMLWD
 70
    -2
  9
$DIMLWE
 70
    -2
  9
$DIMTMOVE
 70
     0
  9
$LUNITS
 70
     2
  9
$LUPREC
 70
     4
  9
$SKETCHINC
 40
0.1
  9
$FILLETRAD
 40
0.5
  9
$AUNITS
 70
     0
  9
$AUPREC
 70
     0
  9
$MENU
  1
.
  9
$ELEVATION
 40
0.0
  9
$PELEVATION
 40
0.0
  9
$THICKNESS
 40
0.0
  9
$LIMCHECK
 70
     0
  9
$CHAMFERA
 40
0.5
  9
$CHAMFERB
 40
0.5
  9
$CHAMFERC
 40
1.0
  9
$CHAMFERD
 40
0.0
  9
$SKPOLY
 70
     0
  9
$TDCREATE
 40
2456849.525752315
  9
$TDUCREATE
 40
2456849.859085648
  9
$TDUPDATE
 40
2456849.525752326
  9
$TDUUPDATE
 40
2456849.859085659
  9
$TDINDWG
 40
0.0000000116
  9
$TDUSRTIMER
 40
0.0000000116
  9
$USRTIMER
 70
     1
  9
$ANGBASE
 50
0.0
  9
$ANGDIR
 70
     0
  9
$PDMODE
 70
     0
  9
$PDSIZE
 40
0.0
  9
$PLINEWID
 40
0.0
  9
$SPLFRAME
 70
     0
  9
$SPLINETYPE
 70
     6
  9
$SPLINESEGS
 70
     8
  9
$HANDSEED
  5
F8
  9
$SURFTAB1
 70
     6
  9
$SURFTAB2
 70
     6
  9
$SURFTYPE
 70
     6
  9
$SURFU
 70
     6
  9
$SURFV
 70
     6
  9
$UCSBASE
  2

  9
$UCSNAME
  2

  9
$UCSORG
 10
0.0
 20
0.0
 30
0.0
  9
$UCSXDIR
 10
1.0
 20
0.0
 30
0.0
  9
$UCSYDIR
 10
0.0
 20
1.0
 30
0.0
  9
$UCSORTHOREF
  2

  9
$UCSORTHOVIEW
 70
     0
  9
$UCSORGTOP
 10
0.0
 20
0.0
 30
0.0
  9
$UCSORGBOTTOM
 10
0.0
 20
0.0
 30
0.0
  9
$UCSORGLEFT
 10
0.0
 20
0.0
 30
0.0
  9
$UCSORGRIGHT
 10
0.0
 20
0.0
 30
0.0
  9
$UCSORGFRONT
 10
0.0
 20
0.0
 30
0.0
  9
$UCSORGBACK
 10
0.0
 20
0.0
 30
0.0
  9
$PUCSBASE
  2

  9
$PUCSNAME
  2

  9
$PUCSORG
 10
0.0
 20
0.0
 30
0.0
  9
$PUCSXDIR
 10
1.0
 20
0.0
 30
0.0
  9
$PUCSYDIR
 10
0.0
 20
1.0
 30
0.0
  9
$PUCSORTHOREF
  2

  9
$PUCSORTHOVIEW
 70
     0
  9
$PUCSORGTOP
 10
0.0
 20
0.0
 30
0.0
  9
$PUCSORGBOTTOM
 10
0.0
 20
0.0
 30
0.0
  9
$PUCSORGLEFT
 10
0.0
 20
0.0
 30
0.0
  9
$PUCSORGRIGHT
 10
0.0
 20
0.0
 30
0.0
  9
$PUCSORGFRONT
 10
0.0
 20
0.0
 30
0.0
  9
$PUCSORGBACK
 10
0.0
 20
0.0
 30
0.0
  9
$USERI1
 70
     0
  9
$USERI2
 70
     0
  9
$USERI3
 70
     0
  9
$USERI4
 70
     0
  9
$USERI5
 70
     0
  9
$USERR1
 40
0.0
  9
$USERR2
 40
0.0
  9
$USERR3
 40
0.0
  9
$USERR4
 40
0.0
  9
$USERR5
 40
0.0
  9
$WORLDVIEW
 70
     1
  9
$SHADEDGE
 70
     3
  9
$SHADEDIF
 70
    70
  9
$TILEMODE
 70
     1
  9
$MAXACTVP
 70
    64
  9
$PINSBASE
 10
0.0
 20
0.0
 30
0.0
  9
$PLIMCHECK
 70
     0
  9
$PEXTMIN
 10
1.000000000000000E+20
 20
1.000000000000000E+20
 30
1.000000000000000E+20
  9
$PEXTMAX
 10
-1.000000000000000E+20
 20
-1.000000000000000E+20
 30
-1.000000000000000E+20
  9
$PLIMMIN
 10
0.0
 20
0.0
  9
$PLIMMAX
 10
12.0
 20
9.0
  9
$UNITMODE
 70
     0
  9
$VISRETAIN
 70
     1
  9
$PLINEGEN
 70
     0
  9
$PSLTSCALE
 70
     1
  9
$TREEDEPTH
 70
  3020
  9
$CMLSTYLE
  2
Standard
  9
$CMLJUST
 70
     0
  9
$CMLSCALE
 40
1.0
  9
$PROXYGRAPHICS
 70
     1
  9
$MEASUREMENT
 70
     0
  9
$CELWEIGHT
370
    -1
  9
$ENDCAPS
280
     0
  9
$JOINSTYLE
280
     0
  9
$LWDISPLAY
290
     1
  9
$INSUNITS
 70
     1
  9
$HYPERLINKBASE
  1

  9
$STYLESHEET
  1

  9
$XEDIT
290
     1
  9
$CEPSNTYPE
380
     0
  9
$PSTYLEMODE
290
     1
  9
$FINGERPRINTGUID
  2
{8BCED9BE-1EC7-F91C-0B39-939B81FEA390}
  9
$VERSIONGUID
  2
{FAEB1C32-E019-11D5-929B-00C0DF256EC4}
  9
$EXTNAMES
290
     1
  9
$PSVPSCALE
 40
0.0
  9
$OLESTARTUP
290
     0
  9
$SORTENTS
280
   127
  9
$INDEXCTL
280
     0
  9
$HIDETEXT
280
     1
  9
$XCLIPFRAME
290
     0
  9
$HALOGAP
280
     0
  9
$OBSCOLOR
 70
   257
  9
$OBSLTYPE
280
     0
  9
$INTERSECTIONDISPLAY
280
     0
  9
$INTERSECTIONCOLOR
 70
   257
  9
$DIMASSOC
280
     2
  9
$PROJECTNAME
  1

  0
ENDSEC
  0
SECTION
  2
CLASSES
  0
CLASS
  1
ACDBDICTIONARYWDFLT
  2
AcDbDictionaryWithDefault
  3
ObjectDBX Classes
 90
        0
 91
        3
280
     0
281
     0
  0
CLASS
  1
VISUALSTYLE
  2
AcDbVisualStyle
  3
ObjectDBX Classes
 90
     4095
 91
        3
280
     0
281
     0
  0
ENDSEC
  0
SECTION
  2
TABLES
  0
TABLE
  2
VPORT
  5
8
330
0
100
AcDbSymbolTable
 70
     1
  0
VPORT
  5
29
330
8
100
AcDbSymbolTableRecord
100
AcDbViewportTableRecord
  2
*Active
 70
     0
 10
0.0
 20
0.0
 11
1.0
 21
1.0
 12
0.0
 22
0.0
 13
0.0
 23
0.0
 14
0.5
 24
0.5
 15
0.5
 25
0.5
 16
0.0
 26
0.0
 36
1.0
 17
17.99305555555555
 27
1.006944444444444
 37
0.0
 40
3.0
 41
2.0
 42
50.0
 43
0.0
 44
0.0
 50
0.0
 51
0.0
 71
     0
 72
   100
 73
     1
 74
     3
 75
     0
 76
     0
 77
     0
 78
     0
281
     0
 65
     1
110
0.0
120
0.0
130
0.0
111
1.0
121
0.0
131
0.0
112
0.0
122
1.0
132
0.0
 79
     0
146
0.0
  0
ENDTAB
  0
TABLE
  2
LTYPE
  5
5
330
0
100
AcDbSymbolTable
 70
     1
  0
LTYPE
  5
14
330
5
100
AcDbSymbolTableRecord
100
AcDbLinetypeTableRecord
  2
ByBlock
 70
     0
  3

 72
    65
 73
     0
 40
0.0
  0
LTYPE
  5
15
330
5
100
AcDbSymbolTableRecord
100
AcDbLinetypeTableRecord
  2
ByLayer
 70
     0
  3

 72
    65
 73
     0
 40
0.0
  0
LTYPE
  5
16
330
5
100
AcDbSymbolTableRecord
100
AcDbLinetypeTableRecord
  2
Continuous
 70
     0
  3
Solid line
 72
    65
 73
     0
 40
0.0
  0
ENDTAB
  0
TABLE
  2
LAYER
  5
2
330
0
100
AcDbSymbolTable
 70
     5
  0
LAYER
  5
10
330
2
100
AcDbSymbolTableRecord
100
AcDbLayerTableRecord
  2
0
 70
     0
 62
     7
  6
Continuous
370
    -3
390
F
  0
LAYER
  5
3B
330
2
100
AcDbSymbolTableRecord
100
AcDbLayerTableRecord
  2
Comb With teeth
 70
     0
 62
     7
  6
Continuous
370
    -3
390
F
  0
LAYER
  5
3C
330
2
100
AcDbSymbolTableRecord
100
AcDbLayerTableRecord
  2
Teeth
 70
     0
 62
     7
  6
Continuous
370
    -3
390
F
  0
LAYER
  5
3E
330
2
100
AcDbSymbolTableRecord
100
AcDbLayerTableRecord
  2
Inches Labels
 70
     0
 62
     7
  6
Continuous
370
    -3
390
F
  0
LAYER
  5
3F
330
2
100
AcDbSymbolTableRecord
100
AcDbLayerTableRecord
  2
Immeasurable Beauty
 70
     0
 62
     7
  6
Continuous
370
    -3
390
F
  0
ENDTAB
  0
TABLE
  2
STYLE
  5
3
330
0
100
AcDbSymbolTable
 70
     1
  0
STYLE
  5
11
330
3
100
AcDbSymbolTableRecord
100
AcDbTextStyleTableRecord
  2
Standard
 70
     0
 40
0.0
 41
1.0
 50
0.0
 71
     0
 42
0.2
  3
txt
  4

  0
ENDTAB
  0
TABLE
  2
VIEW
  5
6
330
0
100
AcDbSymbolTable
 70
     0
  0
ENDTAB
  0
TABLE
  2
UCS
  5
7
330
0
100
AcDbSymbolTable
 70
     0
  0
ENDTAB
  0
TABLE
  2
APPID
  5
9
330
0
100
AcDbSymbolTable
 70
     1
  0
APPID
  5
12
330
9
100
AcDbSymbolTableRecord
100
AcDbRegAppTableRecord
  2
ACAD
 70
     0
  0
ENDTAB
  0
TABLE
  2
DIMSTYLE
  5
A
330
0
100
AcDbSymbolTable
 70
     1
100
AcDbDimStyleTable
  0
DIMSTYLE
105
27
330
A
100
AcDbSymbolTableRecord
100
AcDbDimStyleTableRecord
  2
Standard
 70
     0
340
11
  0
ENDTAB
  0
TABLE
  2
BLOCK_RECORD
  5
1
330
0
100
AcDbSymbolTable
 70
     9
  0
BLOCK_RECORD
  5
1F
330
1
100
AcDbSymbolTableRecord
100
AcDbBlockTableRecord
  2
*Model_Space
340
22
  0
BLOCK_RECORD
  5
1B
330
1
100
AcDbSymbolTableRecord
100
AcDbBlockTableRecord
  2
*Paper_Space
340
1E
  0
BLOCK_RECORD
  5
23
330
1
100
AcDbSymbolTableRecord
100
AcDbBlockTableRecord
  2
*Paper_Space0
340
26
  0
BLOCK_RECORD
  5
40
330
1
100
AcDbSymbolTableRecord
100
AcDbBlockTableRecord
  2
block 2
340
0
102
{BLKREFS
331
41
102
}
  0
BLOCK_RECORD
  5
44
330
1
100
AcDbSymbolTableRecord
100
AcDbBlockTableRecord
  2
block 3
340
0
102
{BLKREFS
331
45
102
}
  0
BLOCK_RECORD
  5
5B
330
1
100
AcDbSymbolTableRecord
100
AcDbBlockTableRecord
  2
block 4
340
0
102
{BLKREFS
331
5C
102
}
  0
BLOCK_RECORD
  5
79
330
1
100
AcDbSymbolTableRecord
100
AcDbBlockTableRecord
  2
block 5
340
0
102
{BLKREFS
331
7A
102
}
  0
BLOCK_RECORD
  5
8E
330
1
100
AcDbSymbolTableRecord
100
AcDbBlockTableRecord
  2
block 6
340
0
102
{BLKREFS
331
8F
102
}
  0
BLOCK_RECORD
  5
A3
330
1
100
AcDbSymbolTableRecord
100
AcDbBlockTableRecord
  2
block 7
340
0
102
{BLKREFS
331
A4
102
}
  0
BLOCK_RECORD
  5
C9
330
1
100
AcDbSymbolTableRecord
100
AcDbBlockTableRecord
  2
block 8
340
0
102
{BLKREFS
331
CA
102
}
  0
BLOCK_RECORD
  5
DE
330
1
100
AcDbSymbolTableRecord
100
AcDbBlockTableRecord
  2
block 9
340
0
102
{BLKREFS
331
DF
102
}
  0
ENDTAB
  0
ENDSEC
  0
SECTION
  2
BLOCKS
  0
BLOCK
  5
20
330
1F
100
AcDbEntity
  8
0
100
AcDbBlockBegin
  2
*Model_Space
 70
     0
 71
     0
 10
0.0
 20
0.0
 30
0.0
  3
*Model_Space
  1

  0
ENDBLK
  5
21
330
1F
100
AcDbEntity
  8
0
100
AcDbBlockEnd
  0
BLOCK
  5
1C
330
1B
100
AcDbEntity
 67
     1
  8
0
100
AcDbBlockBegin
  2
*Paper_Space
 70
     0
 71
     0
 10
0.0
 20
0.0
 30
0.0
  3
*Paper_Space
  1

  0
ENDBLK
  5
1D
330
1B
100
AcDbEntity
 67
     1
  8
0
100
AcDbBlockEnd
  0
BLOCK
  5
24
330
23
100
AcDbEntity
  8
0
100
AcDbBlockBegin
  2
*Paper_Space0
 70
     0
 71
     0
 10
0.0
 20
0.0
 30
0.0
  3
*Paper_Space0
  1

  0
ENDBLK
  5
25
330
23
100
AcDbEntity
  8
0
100
AcDbBlockEnd
  0
BLOCK
  5
42
330
40
100
AcDbEntity
  8
0
100
AcDbBlockBegin
  2
block 2
 70
     0
 71
     0
 10
0.0
 20
0.0
 30
0.0
  3
block 2
  1

  0
INSERT
  5
45
330
40
100
AcDbEntity
  8
Immeasurable Beauty
100
AcDbBlockReference
  2
block 3
 10
0.0
 20
0.0
 30
0.0
  0
INSERT
  5
5C
330
40
100
AcDbEntity
  8
Immeasurable Beauty
100
AcDbBlockReference
  2
block 4
 10
0.0
 20
0.0
 30
0.0
  0
INSERT
  5
7A
330
40
100
AcDbEntity
  8
Immeasurable Beauty
100
AcDbBlockReference
  2
block 5
 10
0.0
 20
0.0
 30
0.0
  0
INSERT
  5
8F
330
40
100
AcDbEntity
  8
Immeasurable Beauty
100
AcDbBlockReference
  2
block 6
 10
0.0
 20
0.0
 30
0.0
  0
INSERT
  5
A4
330
40
100
AcDbEntity
  8
Immeasurable Beauty
100
AcDbBlockReference
  2
block 7
 10
0.0
 20
0.0
 30
0.0
  0
INSERT
  5
CA
330
40
100
AcDbEntity
  8
Immeasurable Beauty
100
AcDbBlockReference
  2
block 8
 10
0.0
 20
0.0
 30
0.0
  0
INSERT
  5
DF
330
40
100
AcDbEntity
  8
Immeasurable Beauty
100
AcDbBlockReference
  2
block 9
 10
0.0
 20
0.0
 30
0.0
  0
ENDBLK
  5
43
330
40
100
AcDbEntity
  8
0
100
AcDbBlockEnd
  0
BLOCK
  5
46
330
44
100
AcDbEntity
  8
0
100
AcDbBlockBegin
  2
block 3
 70
     0
 71
     0
 10
0.0
 20
0.0
 30
0.0
  3
block 3
  1

  0
POLYLINE
  5
48
330
44
100
AcDbEntity
  8
Immeasurable Beauty
370
     0
100
AcDb2dPolyline
 66
     1
 10
0.0
 20
0.0
 30
0.0
  0
VERTEX
  5
49
330
48
100
AcDbEntity
  8
Immeasurable Beauty
370
     0
100
AcDbVertex
100
AcDb2dVertex
 10
15.13527425130208
 20
1.903632269965278
 30
0.0
  0
VERTEX
  5
4A
330
48
100
AcDbEntity
  8
Immeasurable Beauty
370
     0
100
AcDbVertex
100
AcDb2dVertex
 10
15.14426676432292
 20
1.903632269965278
 30
0.0
  0
VERTEX
  5
4B
330
48
100
AcDbEntity
  8
Immeasurable Beauty
370
     0
100
AcDbVertex
100
AcDb2dVertex
 10
15.14426676432292
 20
1.842400444878472
 30
0.0
  0
VERTEX
  5
4C
330
48
100
AcDbEntity
  8
Immeasurable Beauty
370
     0
100
AcDbVertex
100
AcDb2dVertex
 10
15.13527425130208
 20
1.842400444878472
 30
0.0
  0
VERTEX
  5
4D
330
48
100
AcDbEntity
  8
Immeasurable Beauty
370
     0
100
AcDbVertex
100
AcDb2dVertex
 10
15.13527425130208
 20
1.903632269965278
 30
0.0
  0
SEQEND
  5
4E
330
48
100
AcDbEntity
  8
Immeasurable Beauty
370
     0
  0
HATCH
  5
4F
330
44
100
AcDbEntity
  8
Immeasurable Beauty
 62
   179
420
  2301728
100
AcDbHatch
 10
0.0
 20
0.0
 30
0.0
210
0.0
220
0.0
230
1.0
  2
SOLID
 70
     1
 71
     0
 91
        1
 92
        1
 93
        4
 72
     1
 10
15.13527425130208
 20
1.903632269965278
 11
15.14426676432292
 21
1.903632269965278
 72
     1
 10
15.14426676432292
 20
1.903632269965278
 11
15.14426676432292
 21
1.842400444878472
 72
     1
 10
15.14426676432292
 20
1.842400444878472
 11
15.13527425130208
 21
1.842400444878472
 72
     1
 10
15.13527425130208
 20
1.842400444878472
 11
15.13527425130208
 21
1.903632269965278
 97
        0
 75
     2
 76
     1
 98
        0
  0
SPLINE
  5
50
330
44
100
AcDbEntity
  8
Immeasurable Beauty
370
     0
100
AcDbSpline
210
0.0
220
0.0
230
1.0
 70
    11
 71
     3
 72
    53
 73
    49
 74
     0
 42
0.0000000001
 43
0.0000000001
 40
0.0
 40
0.0
 40
0.0
 40
0.0
 40
1.0
 40
1.0
 40
1.0
 40
2.0
 40
2.0
 40
2.0
 40
3.0
 40
3.0
 40
3.0
 40
4.0
 40
4.0
 40
4.0
 40
5.0
 40
5.0
 40
5.0
 40
6.0
 40
6.0
 40
6.0
 40
7.0
 40
7.0
 40
7.0
 40
8.0
 40
8.0
 40
8.0
 40
9.0
 40
9.0
 40
9.0
 40
10.0
 40
10.0
 40
10.0
 40
11.0
 40
11.0
 40
11.0
 40
12.0
 40
12.0
 40
12.0
 40
13.0
 40
13.0
 40
13.0
 40
14.0
 40
14.0
 40
14.0
 40
15.0
 40
15.0
 40
15.0
 40
16.0
 40
16.0
 40
16.0
 40
16.0
 10
15.15669759114583
 20
1.885999891493055
 30
0.0
 10
15.15669759114583
 20
1.885999891493055
 30
0.0
 10
15.16517469618056
 20
1.885999891493055
 30
0.0
 10
15.16517469618056
 20
1.885999891493055
 30
0.0
 10
15.16517469618056
 20
1.885999891493055
 30
0.0
 10
15.16517469618056
 20
1.881374782986111
 30
0.0
 10
15.16517469618056
 20
1.881374782986111
 30
0.0
 10
15.16517469618056
 20
1.881374782986111
 30
0.0
 10
15.16533745659722
 20
1.881374782986111
 30
0.0
 10
15.16533745659722
 20
1.881374782986111
 30
0.0
 10
15.16813151041667
 20
1.884819878472222
 30
0.0
 10
15.17178683810764
 20
1.886542426215278
 30
0.0
 10
15.17631700303819
 20
1.886542426215278
 30
0.0
 10
15.1798095703125
 20
1.886542426215278
 30
0.0
 10
15.18301052517361
 20
1.885267469618055
 30
0.0
 10
15.18590630425347
 20
1.882724338107639
 30
0.0
 10
15.18877495659722
 20
1.880147298177083
 30
0.0
 10
15.19028049045139
 20
1.876363118489583
 30
0.0
 10
15.19042290581597
 20
1.871385362413194
 30
0.0
 10
15.19042290581597
 20
1.871385362413194
 30
0.0
 10
15.19042290581597
 20
1.842400444878472
 30
0.0
 10
15.19042290581597
 20
1.842400444878472
 30
0.0
 10
15.19042290581597
 20
1.842400444878472
 30
0.0
 10
15.18194580078125
 20
1.842400444878472
 30
0.0
 10
15.18194580078125
 20
1.842400444878472
 30
0.0
 10
15.18194580078125
 20
1.842400444878472
 30
0.0
 10
15.18194580078125
 20
1.868394639756944
 30
0.0
 10
15.18194580078125
 20
1.868394639756944
 30
0.0
 10
15.18194580078125
 20
1.871446397569444
 30
0.0
 10
15.18115234375
 20
1.873779296875
 30
0.0
 10
15.17957899305556
 20
1.875372992621528
 30
0.0
 10
15.17803276909722
 20
1.876993815104167
 30
0.0
 10
15.17604573567708
 20
1.877814398871528
 30
0.0
 10
15.17359754774306
 20
1.877814398871528
 30
0.0
 10
15.17115614149306
 20
1.877814398871528
 30
0.0
 10
15.16915554470486
 20
1.876993815104167
 30
0.0
 10
15.16757541232639
 20
1.875372992621528
 30
0.0
 10
15.16597493489583
 20
1.873779296875
 30
0.0
 10
15.16517469618056
 20
1.871446397569444
 30
0.0
 10
15.16517469618056
 20
1.868394639756944
 30
0.0
 10
15.16517469618056
 20
1.868394639756944
 30
0.0
 10
15.16517469618056
 20
1.842400444878472
 30
0.0
 10
15.16517469618056
 20
1.842400444878472
 30
0.0
 10
15.16517469618056
 20
1.842400444878472
 30
0.0
 10
15.15669759114583
 20
1.842400444878472
 30
0.0
 10
15.15669759114583
 20
1.842400444878472
 30
0.0
 10
15.15669759114583
 20
1.842400444878472
 30
0.0
 10
15.15669759114583
 20
1.885999891493055
 30
0.0
 10
15.15669759114583
 20
1.885999891493055
 30
0.0
  0
HATCH
  5
51
330
44
100
AcDbEntity
  8
Immeasurable Beauty
 62
   179
420
  2301728
100
AcDbHatch
 10
0.0
 20
0.0
 30
0.0
210
0.0
220
0.0
230
1.0
  2
SOLID
 70
     1
 71
     0
 91
        1
 92
        1
 93
        1
 72
     4
 94
        3
 73
     0
 74
     1
 95
       53
 96
       49
 40
0.0
 40
0.0
 40
0.0
 40
0.0
 40
1.0
 40
1.0
 40
1.0
 40
2.0
 40
2.0
 40
2.0
 40
3.0
 40
3.0
 40
3.0
 40
4.0
 40
4.0
 40
4.0
 40
5.0
 40
5.0
 40
5.0
 40
6.0
 40
6.0
 40
6.0
 40
7.0
 40
7.0
 40
7.0
 40
8.0
 40
8.0
 40
8.0
 40
9.0
 40
9.0
 40
9.0
 40
10.0
 40
10.0
 40
10.0
 40
11.0
 40
11.0
 40
11.0
 40
12.0
 40
12.0
 40
12.0
 40
13.0
 40
13.0
 40
13.0
 40
14.0
 40
14.0
 40
14.0
 40
15.0
 40
15.0
 40
15.0
 40
16.0
 40
16.0
 40
16.0
 40
16.0
 10
15.15669759114583
 20
1.885999891493055
 10
15.15669759114583
 20
1.885999891493055
 10
15.16517469618056
 20
1.885999891493055
 10
15.16517469618056
 20
1.885999891493055
 10
15.16517469618056
 20
1.885999891493055
 10
15.16517469618056
 20
1.881374782986111
 10
15.16517469618056
 20
1.881374782986111
 10
15.16517469618056
 20
1.881374782986111
 10
15.16533745659722
 20
1.881374782986111
 10
15.16533745659722
 20
1.881374782986111
 10
15.16813151041667
 20
1.884819878472222
 10
15.17178683810764
 20
1.886542426215278
 10
15.17631700303819
 20
1.886542426215278
 10
15.1798095703125
 20
1.886542426215278
 10
15.18301052517361
 20
1.885267469618055
 10
15.18590630425347
 20
1.882724338107639
 10
15.18877495659722
 20
1.880147298177083
 10
15.19028049045139
 20
1.876363118489583
 10
15.19042290581597
 20
1.871385362413194
 10
15.19042290581597
 20
1.871385362413194
 10
15.19042290581597
 20
1.842400444878472
 10
15.19042290581597
 20
1.842400444878472
 10
15.19042290581597
 20
1.842400444878472
 10
15.18194580078125
 20
1.842400444878472
 10
15.18194580078125
 20
1.842400444878472
 10
15.18194580078125
 20
1.842400444878472
 10
15.18194580078125
 20
1.868394639756944
 10
15.18194580078125
 20
1.868394639756944
 10
15.18194580078125
 20
1.871446397569444
 10
15.18115234375
 20
1.873779296875
 10
15.17957899305556
 20
1.875372992621528
 10
15.17803276909722
 20
1.876993815104167
 10
15.17604573567708
 20
1.877814398871528
 10
15.17359754774306
 20
1.877814398871528
 10
15.17115614149306
 20
1.877814398871528
 10
15.16915554470486
 20
1.876993815104167
 10
15.16757541232639
 20
1.875372992621528
 10
15.16597493489583
 20
1.873779296875
 10
15.16517469618056
 20
1.871446397569444
 10
15.16517469618056
 20
1.868394639756944
 10
15.16517469618056
 20
1.868394639756944
 10
15.16517469618056
 20
1.842400444878472
 10
15.16517469618056
 20
1.842400444878472
 10
15.16517469618056
 20
1.842400444878472
 10
15.15669759114583
 20
1.842400444878472
 10
15.15669759114583
 20
1.842400444878472
 10
15.15669759114583
 20
1.842400444878472
 10
15.15669759114583
 20
1.885999891493055
 10
15.15669759114583
 20
1.885999891493055
 97
        0
 75
     2
 76
     1
 98
        0
  0
SPLINE
  5
52
330
44
100
AcDbEntity
  8
Immeasurable Beauty
370
     0
100
AcDbSpline
210
0.0
220
0.0
230
1.0
 70
    11
 71
     3
 72
    47
 73
    43
 74
     0
 42
0.0000000001
 43
0.0000000001
 40
0.0
 40
0.0
 40
0.0
 40
0.0
 40
1.0
 40
1.0
 40
1.0
 40
2.0
 40
2.0
 40
2.0
 40
3.0
 40
3.0
 40
3.0
 40
4.0
 40
4.0
 40
4.0
 40
5.0
 40
5.0
 40
5.0
 40
6.0
 40
6.0
 40
6.0
 40
7.0
 40
7.0
 40
7.0
 40
8.0
 40
8.0
 40
8.0
 40
9.0
 40
9.0
 40
9.0
 40
10.0
 40
10.0
 40
10.0
 40
11.0
 40
11.0
 40
11.0
 40
12.0
 40
12.0
 40
12.0
 40
13.0
 40
13.0
 40
13.0
 40
14.0
 40
14.0
 40
14.0
 40
14.0
 10
15.23397488064236
 20
1.849412706163194
 30
0.0
 10
15.23213026258681
 20
1.847242567274305
 30
0.0
 10
15.22996012369792
 20
1.845479329427083
 30
0.0
 10
15.22746446397569
 20
1.844109429253472
 30
0.0
 10
15.22496880425347
 20
1.842692057291667
 30
0.0
 10
15.22207980685764
 20
1.841952853732639
 30
0.0
 10
15.21879747178819
 20
1.841898600260417
 30
0.0
 10
15.21381971571181
 20
1.841898600260417
 30
0.0
 10
15.20943874782986
 20
1.843648274739583
 30
0.0
 10
15.20567491319444
 20
1.847147623697917
 30
0.0
 10
15.20177544487847
 20
1.85064697265625
 30
0.0
 10
15.19977484809028
 20
1.856316460503472
 30
0.0
 10
15.19966634114583
 20
1.864162868923611
 30
0.0
 10
15.19977484809028
 20
1.872083875868055
 30
0.0
 10
15.20177544487847
 20
1.877821180555555
 30
0.0
 10
15.20568169487847
 20
1.881374782986111
 30
0.0
 10
15.20945231119792
 20
1.884880913628472
 30
0.0
 10
15.21382649739583
 20
1.886603461371528
 30
0.0
 10
15.21881781684028
 20
1.886542426215278
 30
0.0
 10
15.22210015190972
 20
1.886488172743055
 30
0.0
 10
15.2249755859375
 20
1.885789659288194
 30
0.0
 10
15.22747802734375
 20
1.884446885850694
 30
0.0
 10
15.22996690538194
 20
1.883076985677083
 30
0.0
 10
15.23213026258681
 20
1.881252712673611
 30
0.0
 10
15.23397488064236
 20
1.878953721788194
 30
0.0
 10
15.23397488064236
 20
1.878953721788194
 30
0.0
 10
15.22770860460069
 20
1.873216417100694
 30
0.0
 10
15.22770860460069
 20
1.873216417100694
 30
0.0
 10
15.22556559244792
 20
1.876166449652778
 30
0.0
 10
15.22270372178819
 20
1.877692328559028
 30
0.0
 10
15.21912299262153
 20
1.877814398871528
 30
0.0
 10
15.2119140625
 20
1.877916124131944
 30
0.0
 10
15.20825873480903
 20
1.873365614149305
 30
0.0
 10
15.20814344618056
 20
1.864162868923611
 30
0.0
 10
15.20825873480903
 20
1.855000813802083
 30
0.0
 10
15.2119140625
 20
1.850484212239583
 30
0.0
 10
15.21912299262153
 20
1.850626627604167
 30
0.0
 10
15.22270372178819
 20
1.850680881076389
 30
0.0
 10
15.22556559244792
 20
1.852199978298611
 30
0.0
 10
15.22770860460069
 20
1.855190700954861
 30
0.0
 10
15.22770860460069
 20
1.855190700954861
 30
0.0
 10
15.23397488064236
 20
1.849412706163194
 30
0.0
 10
15.23397488064236
 20
1.849412706163194
 30
0.0
  0
HATCH
  5
53
330
44
100
AcDbEntity
  8
Immeasurable Beauty
 62
   179
420
  2301728
100
AcDbHatch
 10
0.0
 20
0.0
 30
0.0
210
0.0
220
0.0
230
1.0
  2
SOLID
 70
     1
 71
     0
 91
        1
 92
        1
 93
        1
 72
     4
 94
        3
 73
     0
 74
     1
 95
       47
 96
       43
 40
0.0
 40
0.0
 40
0.0
 40
0.0
 40
1.0
 40
1.0
 40
1.0
 40
2.0
 40
2.0
 40
2.0
 40
3.0
 40
3.0
 40
3.0
 40
4.0
 40
4.0
 40
4.0
 40
5.0
 40
5.0
 40
5.0
 40
6.0
 40
6.0
 40
6.0
 40
7.0
 40
7.0
 40
7.0
 40
8.0
 40
8.0
 40
8.0
 40
9.0
 40
9.0
 40
9.0
 40
10.0
 40
10.0
 40
10.0
 40
11.0
 40
11.0
 40
11.0
 40
12.0
 40
12.0
 40
12.0
 40
13.0
 40
13.0
 40
13.0
 40
14.0
 40
14.0
 40
14.0
 40
14.0
 10
15.23397488064236
 20
1.849412706163194
 10
15.23213026258681
 20
1.847242567274305
 10
15.22996012369792
 20
1.845479329427083
 10
15.22746446397569
 20
1.844109429253472
 10
15.22496880425347
 20
1.842692057291667
 10
15.22207980685764
 20
1.841952853732639
 10
15.21879747178819
 20
1.841898600260417
 10
15.21381971571181
 20
1.841898600260417
 10
15.20943874782986
 20
1.843648274739583
 10
15.20567491319444
 20
1.847147623697917
 10
15.20177544487847
 20
1.85064697265625
 10
15.19977484809028
 20
1.856316460503472
 10
15.19966634114583
 20
1.864162868923611
 10
15.19977484809028
 20
1.872083875868055
 10
15.20177544487847
 20
1.877821180555555
 10
15.20568169487847
 20
1.881374782986111
 10
15.20945231119792
 20
1.884880913628472
 10
15.21382649739583
 20
1.886603461371528
 10
15.21881781684028
 20
1.886542426215278
 10
15.22210015190972
 20
1.886488172743055
 10
15.2249755859375
 20
1.885789659288194
 10
15.22747802734375
 20
1.884446885850694
 10
15.22996690538194
 20
1.883076985677083
 10
15.23213026258681
 20
1.881252712673611
 10
15.23397488064236
 20
1.878953721788194
 10
15.23397488064236
 20
1.878953721788194
 10
15.22770860460069
 20
1.873216417100694
 10
15.22770860460069
 20
1.873216417100694
 10
15.22556559244792
 20
1.876166449652778
 10
15.22270372178819
 20
1.877692328559028
 10
15.21912299262153
 20
1.877814398871528
 10
15.2119140625
 20
1.877916124131944
 10
15.20825873480903
 20
1.873365614149305
 10
15.20814344618056
 20
1.864162868923611
 10
15.20825873480903
 20
1.855000813802083
 10
15.2119140625
 20
1.850484212239583
 10
15.21912299262153
 20
1.850626627604167
 10
15.22270372178819
 20
1.850680881076389
 10
15.22556559244792
 20
1.852199978298611
 10
15.22770860460069
 20
1.855190700954861
 10
15.22770860460069
 20
1.855190700954861
 10
15.23397488064236
 20
1.849412706163194
 10
15.23397488064236
 20
1.849412706163194
 97
        0
 75
     2
 76
     1
 98
        0
  0
SPLINE
  5
54
330
44
100
AcDbEntity
  8
Immeasurable Beauty
370
     0
100
AcDbSpline
210
0.0
220
0.0
230
1.0
 70
    11
 71
     3
 72
    53
 73
    49
 74
     0
 42
0.0000000001
 43
0.0000000001
 40
0.0
 40
0.0
 40
0.0
 40
0.0
 40
1.0
 40
1.0
 40
1.0
 40
2.0
 40
2.0
 40
2.0
 40
3.0
 40
3.0
 40
3.0
 40
4.0
 40
4.0
 40
4.0
 40
5.0
 40
5.0
 40
5.0
 40
6.0
 40
6.0
 40
6.0
 40
7.0
 40
7.0
 40
7.0
 40
8.0
 40
8.0
 40
8.0
 40
9.0
 40
9.0
 40
9.0
 40
10.0
 40
10.0
 40
10.0
 40
11.0
 40
11.0
 40
11.0
 40
12.0
 40
12.0
 40
12.0
 40
13.0
 40
13.0
 40
13.0
 40
14.0
 40
14.0
 40
14.0
 40
15.0
 40
15.0
 40
15.0
 40
16.0
 40
16.0
 40
16.0
 40
16.0
 10
15.24108208550347
 20
1.903632269965278
 30
0.0
 10
15.24108208550347
 20
1.903632269965278
 30
0.0
 10
15.24955919053819
 20
1.903632269965278
 30
0.0
 10
15.24955919053819
 20
1.903632269965278
 30
0.0
 10
15.24955919053819
 20
1.903632269965278
 30
0.0
 10
15.24955919053819
 20
1.881374782986111
 30
0.0
 10
15.24955919053819
 20
1.881374782986111
 30
0.0
 10
15.24955919053819
 20
1.881374782986111
 30
0.0
 10
15.24970838758681
 20
1.881374782986111
 30
0.0
 10
15.24970838758681
 20
1.881374782986111
 30
0.0
 10
15.25251600477431
 20
1.884819878472222
 30
0.0
 10
15.25616455078125
 20
1.886542426215278
 30
0.0
 10
15.26068793402778
 20
1.886542426215278
 30
0.0
 10
15.26419406467014
 20
1.886542426215278
 30
0.0
 10
15.26738145616319
 20
1.885267469618055
 30
0.0
 10
15.27029079861111
 20
1.882724338107639
 30
0.0
 10
15.27315945095486
 20
1.880147298177083
 30
0.0
 10
15.27466498480903
 20
1.876363118489583
 30
0.0
 10
15.27480061848958
 20
1.871385362413194
 30
0.0
 10
15.27480061848958
 20
1.871385362413194
 30
0.0
 10
15.27480061848958
 20
1.842400444878472
 30
0.0
 10
15.27480061848958
 20
1.842400444878472
 30
0.0
 10
15.27480061848958
 20
1.842400444878472
 30
0.0
 10
15.26632351345486
 20
1.842400444878472
 30
0.0
 10
15.26632351345486
 20
1.842400444878472
 30
0.0
 10
15.26632351345486
 20
1.842400444878472
 30
0.0
 10
15.26632351345486
 20
1.868394639756944
 30
0.0
 10
15.26632351345486
 20
1.868394639756944
 30
0.0
 10
15.26632351345486
 20
1.871446397569444
 30
0.0
 10
15.26553683810764
 20
1.873779296875
 30
0.0
 10
15.26396348741319
 20
1.875372992621528
 30
0.0
 10
15.26241048177083
 20
1.876993815104167
 30
0.0
 10
15.26042344835069
 20
1.877814398871528
 30
0.0
 10
15.25798204210069
 20
1.877814398871528
 30
0.0
 10
15.25554063585069
 20
1.877814398871528
 30
0.0
 10
15.25352647569444
 20
1.876993815104167
 30
0.0
 10
15.25195990668403
 20
1.875372992621528
 30
0.0
 10
15.25034586588542
 20
1.873779296875
 30
0.0
 10
15.24955919053819
 20
1.871446397569444
 30
0.0
 10
15.24955919053819
 20
1.868394639756944
 30
0.0
 10
15.24955919053819
 20
1.868394639756944
 30
0.0
 10
15.24955919053819
 20
1.842400444878472
 30
0.0
 10
15.24955919053819
 20
1.842400444878472
 30
0.0
 10
15.24955919053819
 20
1.842400444878472
 30
0.0
 10
15.24108208550347
 20
1.842400444878472
 30
0.0
 10
15.24108208550347
 20
1.842400444878472
 30
0.0
 10
15.24108208550347
 20
1.842400444878472
 30
0.0
 10
15.24108208550347
 20
1.903632269965278
 30
0.0
 10
15.24108208550347
 20
1.903632269965278
 30
0.0
  0
HATCH
  5
55
330
44
100
AcDbEntity
  8
Immeasurable Beauty
 62
   179
420
  2301728
100
AcDbHatch
 10
0.0
 20
0.0
 30
0.0
210
0.0
220
0.0
230
1.0
  2
SOLID
 70
     1
 71
     0
 91
        1
 92
        1
 93
        1
 72
     4
 94
        3
 73
     0
 74
     1
 95
       53
 96
       49
 40
0.0
 40
0.0
 40
0.0
 40
0.0
 40
1.0
 40
1.0
 40
1.0
 40
2.0
 40
2.0
 40
2.0
 40
3.0
 40
3.0
 40
3.0
 40
4.0
 40
4.0
 40
4.0
 40
5.0
 40
5.0
 40
5.0
 40
6.0
 40
6.0
 40
6.0
 40
7.0
 40
7.0
 40
7.0
 40
8.0
 40
8.0
 40
8.0
 40
9.0
 40
9.0
 40
9.0
 40
10.0
 40
10.0
 40
10.0
 40
11.0
 40
11.0
 40
11.0
 40
12.0
 40
12.0
 40
12.0
 40
13.0
 40
13.0
 40
13.0
 40
14.0
 40
14.0
 40
14.0
 40
15.0
 40
15.0
 40
15.0
 40
16.0
 40
16.0
 40
16.0
 40
16.0
 10
15.24108208550347
 20
1.903632269965278
 10
15.24108208550347
 20
1.903632269965278
 10
15.24955919053819
 20
1.903632269965278
 10
15.24955919053819
 20
1.903632269965278
 10
15.24955919053819
 20
1.903632269965278
 10
15.24955919053819
 20
1.881374782986111
 10
15.24955919053819
 20
1.881374782986111
 10
15.24955919053819
 20
1.881374782986111
 10
15.24970838758681
 20
1.881374782986111
 10
15.24970838758681
 20
1.881374782986111
 10
15.25251600477431
 20
1.884819878472222
 10
15.25616455078125
 20
1.886542426215278
 10
15.26068793402778
 20
1.886542426215278
 10
15.26419406467014
 20
1.886542426215278
 10
15.26738145616319
 20
1.885267469618055
 10
15.27029079861111
 20
1.882724338107639
 10
15.27315945095486
 20
1.880147298177083
 10
15.27466498480903
 20
1.876363118489583
 10
15.27480061848958
 20
1.871385362413194
 10
15.27480061848958
 20
1.871385362413194
 10
15.27480061848958
 20
1.842400444878472
 10
15.27480061848958
 20
1.842400444878472
 10
15.27480061848958
 20
1.842400444878472
 10
15.26632351345486
 20
1.842400444878472
 10
15.26632351345486
 20
1.842400444878472
 10
15.26632351345486
 20
1.842400444878472
 10
15.26632351345486
 20
1.868394639756944
 10
15.26632351345486
 20
1.868394639756944
 10
15.26632351345486
 20
1.871446397569444
 10
15.26553683810764
 20
1.873779296875
 10
15.26396348741319
 20
1.875372992621528
 10
15.26241048177083
 20
1.876993815104167
 10
15.26042344835069
 20
1.877814398871528
 10
15.25798204210069
 20
1.877814398871528
 10
15.25554063585069
 20
1.877814398871528
 10
15.25352647569444
 20
1.876993815104167
 10
15.25195990668403
 20
1.875372992621528
 10
15.25034586588542
 20
1.873779296875
 10
15.24955919053819
 20
1.871446397569444
 10
15.24955919053819
 20
1.868394639756944
 10
15.24955919053819
 20
1.868394639756944
 10
15.24955919053819
 20
1.842400444878472
 10
15.24955919053819
 20
1.842400444878472
 10
15.24955919053819
 20
1.842400444878472
 10
15.24108208550347
 20
1.842400444878472
 10
15.24108208550347
 20
1.842400444878472
 10
15.24108208550347
 20
1.842400444878472
 10
15.24108208550347
 20
1.903632269965278
 10
15.24108208550347
 20
1.903632269965278
 97
        0
 75
     2
 76
     1
 98
        0
  0
SPLINE
  5
56
330
44
100
AcDbEntity
  8
Immeasurable Beauty
370
     0
100
AcDbSpline
210
0.0
220
0.0
230
1.0
 70
    11
 71
     3
 72
    59
 73
    55
 74
     0
 42
0.0000000001
 43
0.0000000001
 40
0.0
 40
0.0
 40
0.0
 40
0.0
 40
1.0
 40
1.0
 40
1.0
 40
2.0
 40
2.0
 40
2.0
 40
3.0
 40
3.0
 40
3.0
 40
4.0
 40
4.0
 40
4.0
 40
5.0
 40
5.0
 40
5.0
 40
6.0
 40
6.0
 40
6.0
 40
7.0
 40
7.0
 40
7.0
 40
8.0
 40
8.0
 40
8.0
 40
9.0
 40
9.0
 40
9.0
 40
10.0
 40
10.0
 40
10.0
 40
11.0
 40
11.0
 40
11.0
 40
12.0
 40
12.0
 40
12.0
 40
13.0
 40
13.0
 40
13.0
 40
14.0
 40
14.0
 40
14.0
 40
15.0
 40
15.0
 40
15.0
 40
16.0
 40
16.0
 40
16.0
 40
17.0
 40
17.0
 40
17.0
 40
18.0
 40
18.0
 40
18.0
 40
18.0
 10
15.29365370008681
 20
1.860887315538194
 30
0.0
 10
15.29365370008681
 20
1.857381184895833
 30
0.0
 10
15.29463704427083
 20
1.854722764756944
 30
0.0
 10
15.29659016927083
 20
1.852898491753472
 30
0.0
 10
15.29840766059028
 20
1.851053873697917
 30
0.0
 10
15.30078803168403
 20
1.850118001302083
 30
0.0
 10
15.30375162760417
 20
1.850118001302083
 30
0.0
 10
15.30719672309028
 20
1.850118001302083
 30
0.0
 10
15.31028238932292
 20
1.851542154947917
 30
0.0
 10
15.31299506293403
 20
1.8543701171875
 30
0.0
 10
15.31299506293403
 20
1.8543701171875
 30
0.0
 10
15.31913926866319
 20
1.848951551649305
 30
0.0
 10
15.31913926866319
 20
1.848951551649305
 30
0.0
 10
15.31482611762153
 20
1.844190809461805
 30
0.0
 10
15.30976019965278
 20
1.841844346788194
 30
0.0
 10
15.30393473307292
 20
1.841898600260417
 30
0.0
 10
15.30171034071181
 20
1.841898600260417
 30
0.0
 10
15.29954020182292
 20
1.842237684461805
 30
0.0
 10
15.29742431640625
 20
1.842902289496528
 30
0.0
 10
15.29635959201389
 20
1.843268500434028
 30
0.0
 10
15.29533555772569
 20
1.843756781684028
 30
0.0
 10
15.29433186848958
 20
1.844373914930555
 30
0.0
 10
15.29326714409722
 20
1.84490966796875
 30
0.0
 10
15.29228379991319
 20
1.845567491319444
 30
0.0
 10
15.29136149088542
 20
1.846347384982639
 30
0.0
 10
15.28957112630208
 20
1.847968207465278
 30
0.0
 10
15.28811984592014
 20
1.850240071614583
 30
0.0
 10
15.28700764973958
 20
1.853156195746528
 30
0.0
 10
15.28578694661458
 20
1.85595703125
 30
0.0
 10
15.28517659505208
 20
1.859592013888889
 30
0.0
 10
15.28517659505208
 20
1.86407470703125
 30
0.0
 10
15.28517659505208
 20
1.868387858072917
 30
0.0
 10
15.28570556640625
 20
1.871968587239583
 30
0.0
 10
15.28677029079861
 20
1.874830457899305
 30
0.0
 10
15.28782145182292
 20
1.877739800347222
 30
0.0
 10
15.28917778862847
 20
1.880038791232639
 30
0.0
 10
15.29083251953125
 20
1.8817138671875
 30
0.0
 10
15.29251437717014
 20
1.8834228515625
 30
0.0
 10
15.29439968532986
 20
1.884657118055555
 30
0.0
 10
15.29648844401042
 20
1.885409884982639
 30
0.0
 10
15.29855007595486
 20
1.88616943359375
 30
0.0
 10
15.30058458116319
 20
1.886542426215278
 30
0.0
 10
15.30258517795139
 20
1.886542426215278
 30
0.0
 10
15.30741373697917
 20
1.886488172743055
 30
0.0
 10
15.31148952907986
 20
1.884847005208333
 30
0.0
 10
15.31482611762153
 20
1.881632486979167
 30
0.0
 10
15.31821695963542
 20
1.87835693359375
 30
0.0
 10
15.31993950737847
 20
1.873847113715278
 30
0.0
 10
15.31999376085069
 20
1.868096245659722
 30
0.0
 10
15.31999376085069
 20
1.868096245659722
 30
0.0
 10
15.31999376085069
 20
1.860887315538194
 30
0.0
 10
15.31999376085069
 20
1.860887315538194
 30
0.0
 10
15.31999376085069
 20
1.860887315538194
 30
0.0
 10
15.29365370008681
 20
1.860887315538194
 30
0.0
 10
15.29365370008681
 20
1.860887315538194
 30
0.0
  0
SPLINE
  5
57
330
44
100
AcDbEntity
  8
Immeasurable Beauty
370
     0
100
AcDbSpline
210
0.0
220
0.0
230
1.0
 70
    11
 71
     3
 72
    20
 73
    16
 74
     0
 42
0.0000000001
 43
0.0000000001
 40
0.0
 40
0.0
 40
0.0
 40
0.0
 40
1.0
 40
1.0
 40
1.0
 40
2.0
 40
2.0
 40
2.0
 40
3.0
 40
3.0
 40
3.0
 40
4.0
 40
4.0
 40
4.0
 40
5.0
 40
5.0
 40
5.0
 40
5.0
 10
15.31151665581597
 20
1.868096245659722
 30
0.0
 10
15.31140814887153
 20
1.871507432725694
 30
0.0
 10
15.31052652994792
 20
1.874091254340278
 30
0.0
 10
15.30885823567708
 20
1.875827365451389
 30
0.0
 10
15.30723741319444
 20
1.877488878038194
 30
0.0
 10
15.30513509114583
 20
1.878316243489583
 30
0.0
 10
15.30258517795139
 20
1.878316243489583
 30
0.0
 10
15.30002848307292
 20
1.878316243489583
 30
0.0
 10
15.29793972439236
 20
1.877488878038194
 30
0.0
 10
15.29631212022569
 20
1.875827365451389
 30
0.0
 10
15.29469807942708
 20
1.874091254340278
 30
0.0
 10
15.29381646050347
 20
1.871507432725694
 30
0.0
 10
15.29365370008681
 20
1.868096245659722
 30
0.0
 10
15.29365370008681
 20
1.868096245659722
 30
0.0
 10
15.31151665581597
 20
1.868096245659722
 30
0.0
 10
15.31151665581597
 20
1.868096245659722
 30
0.0
  0
HATCH
  5
58
330
44
100
AcDbEntity
  8
Immeasurable Beauty
 62
   179
420
  2301728
100
AcDbHatch
 10
0.0
 20
0.0
 30
0.0
210
0.0
220
0.0
230
1.0
  2
SOLID
 70
     1
 71
     0
 91
        2
 92
        1
 93
        1
 72
     4
 94
        3
 73
     0
 74
     1
 95
       59
 96
       55
 40
0.0
 40
0.0
 40
0.0
 40
0.0
 40
1.0
 40
1.0
 40
1.0
 40
2.0
 40
2.0
 40
2.0
 40
3.0
 40
3.0
 40
3.0
 40
4.0
 40
4.0
 40
4.0
 40
5.0
 40
5.0
 40
5.0
 40
6.0
 40
6.0
 40
6.0
 40
7.0
 40
7.0
 40
7.0
 40
8.0
 40
8.0
 40
8.0
 40
9.0
 40
9.0
 40
9.0
 40
10.0
 40
10.0
 40
10.0
 40
11.0
 40
11.0
 40
11.0
 40
12.0
 40
12.0
 40
12.0
 40
13.0
 40
13.0
 40
13.0
 40
14.0
 40
14.0
 40
14.0
 40
15.0
 40
15.0
 40
15.0
 40
16.0
 40
16.0
 40
16.0
 40
17.0
 40
17.0
 40
17.0
 40
18.0
 40
18.0
 40
18.0
 40
18.0
 10
15.29365370008681
 20
1.860887315538194
 10
15.29365370008681
 20
1.857381184895833
 10
15.29463704427083
 20
1.854722764756944
 10
15.29659016927083
 20
1.852898491753472
 10
15.29840766059028
 20
1.851053873697917
 10
15.30078803168403
 20
1.850118001302083
 10
15.30375162760417
 20
1.850118001302083
 10
15.30719672309028
 20
1.850118001302083
 10
15.31028238932292
 20
1.851542154947917
 10
15.31299506293403
 20
1.8543701171875
 10
15.31299506293403
 20
1.8543701171875
 10
15.31913926866319
 20
1.848951551649305
 10
15.31913926866319
 20
1.848951551649305
 10
15.31482611762153
 20
1.844190809461805
 10
15.30976019965278
 20
1.841844346788194
 10
15.30393473307292
 20
1.841898600260417
 10
15.30171034071181
 20
1.841898600260417
 10
15.29954020182292
 20
1.842237684461805
 10
15.29742431640625
 20
1.842902289496528
 10
15.29635959201389
 20
1.843268500434028
 10
15.29533555772569
 20
1.843756781684028
 10
15.29433186848958
 20
1.844373914930555
 10
15.29326714409722
 20
1.84490966796875
 10
15.29228379991319
 20
1.845567491319444
 10
15.29136149088542
 20
1.846347384982639
 10
15.28957112630208
 20
1.847968207465278
 10
15.28811984592014
 20
1.850240071614583
 10
15.28700764973958
 20
1.853156195746528
 10
15.28578694661458
 20
1.85595703125
 10
15.28517659505208
 20
1.859592013888889
 10
15.28517659505208
 20
1.86407470703125
 10
15.28517659505208
 20
1.868387858072917
 10
15.28570556640625
 20
1.871968587239583
 10
15.28677029079861
 20
1.874830457899305
 10
15.28782145182292
 20
1.877739800347222
 10
15.28917778862847
 20
1.880038791232639
 10
15.29083251953125
 20
1.8817138671875
 10
15.29251437717014
 20
1.8834228515625
 10
15.29439968532986
 20
1.884657118055555
 10
15.29648844401042
 20
1.885409884982639
 10
15.29855007595486
 20
1.88616943359375
 10
15.30058458116319
 20
1.886542426215278
 10
15.30258517795139
 20
1.886542426215278
 10
15.30741373697917
 20
1.886488172743055
 10
15.31148952907986
 20
1.884847005208333
 10
15.31482611762153
 20
1.881632486979167
 10
15.31821695963542
 20
1.87835693359375
 10
15.31993950737847
 20
1.873847113715278
 10
15.31999376085069
 20
1.868096245659722
 10
15.31999376085069
 20
1.868096245659722
 10
15.31999376085069
 20
1.860887315538194
 10
15.31999376085069
 20
1.860887315538194
 10
15.31999376085069
 20
1.860887315538194
 10
15.29365370008681
 20
1.860887315538194
 10
15.29365370008681
 20
1.860887315538194
 97
        0
 92
        1
 93
        1
 72
     4
 94
        3
 73
     0
 74
     1
 95
       20
 96
       16
 40
0.0
 40
0.0
 40
0.0
 40
0.0
 40
1.0
 40
1.0
 40
1.0
 40
2.0
 40
2.0
 40
2.0
 40
3.0
 40
3.0
 40
3.0
 40
4.0
 40
4.0
 40
4.0
 40
5.0
 40
5.0
 40
5.0
 40
5.0
 10
15.31151665581597
 20
1.868096245659722
 10
15.31140814887153
 20
1.871507432725694
 10
15.31052652994792
 20
1.874091254340278
 10
15.30885823567708
 20
1.875827365451389
 10
15.30723741319444
 20
1.877488878038194
 10
15.30513509114583
 20
1.878316243489583
 10
15.30258517795139
 20
1.878316243489583
 10
15.30002848307292
 20
1.878316243489583
 10
15.29793972439236
 20
1.877488878038194
 10
15.29631212022569
 20
1.875827365451389
 10
15.29469807942708
 20
1.874091254340278
 10
15.29381646050347
 20
1.871507432725694
 10
15.29365370008681
 20
1.868096245659722
 10
15.29365370008681
 20
1.868096245659722
 10
15.31151665581597
 20
1.868096245659722
 10
15.31151665581597
 20
1.868096245659722
 97
        0
 75
     2
 76
     1
 98
        0
  0
SPLINE
  5
59
330
44
100
AcDbEntity
  8
Immeasurable Beauty
370
     0
100
AcDbSpline
210
0.0
220
0.0
230
1.0
 70
    11
 71
     3
 72
    86
 73
    82
 74
     0
 42
0.0000000001
 43
0.0000000001
 40
0.0
 40
0.0
 40
0.0
 40
0.0
 40
1.0
 40
1.0
 40
1.0
 40
2.0
 40
2.0
 40
2.0
 40
3.0
 40
3.0
 40
3.0
 40
4.0
 40
4.0
 40
4.0
 40
5.0
 40
5.0
 40
5.0
 40
6.0
 40
6.0
 40
6.0
 40
7.0
 40
7.0
 40
7.0
 40
8.0
 40
8.0
 40
8.0
 40
9.0
 40
9.0
 40
9.0
 40
10.0
 40
10.0
 40
10.0
 40
11.0
 40
11.0
 40
11.0
 40
12.0
 40
12.0
 40
12.0
 40
13.0
 40
13.0
 40
13.0
 40
14.0
 40
14.0
 40
14.0
 40
15.0
 40
15.0
 40
15.0
 40
16.0
 40
16.0
 40
16.0
 40
17.0
 40
17.0
 40
17.0
 40
18.0
 40
18.0
 40
18.0
 40
19.0
 40
19.0
 40
19.0
 40
20.0
 40
20.0
 40
20.0
 40
21.0
 40
21.0
 40
21.0
 40
22.0
 40
22.0
 40
22.0
 40
23.0
 40
23.0
 40
23.0
 40
24.0
 40
24.0
 40
24.0
 40
25.0
 40
25.0
 40
25.0
 40
26.0
 40
26.0
 40
26.0
 40
27.0
 40
27.0
 40
27.0
 40
27.0
 10
15.33152262369792
 20
1.855712890625
 30
0.0
 10
15.33497450086806
 20
1.851996527777778
 30
0.0
 10
15.33943684895833
 20
1.850118001302083
 30
0.0
 10
15.34489610460069
 20
1.850118001302083
 30
0.0
 10
15.34734429253472
 20
1.850118001302083
 30
0.0
 10
15.34934488932292
 20
1.850613064236111
 30
0.0
 10
15.35089789496528
 20
1.851596408420139
 30
0.0
 10
15.35244411892361
 20
1.852572970920139
 30
0.0
 10
15.35322401258681
 20
1.85394287109375
 30
0.0
 10
15.35322401258681
 20
1.855712890625
 30
0.0
 10
15.35322401258681
 20
1.857286241319444
 30
0.0
 10
15.35276285807292
 20
1.858378092447917
 30
0.0
 10
15.35184054904514
 20
1.858988444010417
 30
0.0
 10
15.35088433159722
 20
1.859639485677083
 30
0.0
 10
15.34961615668403
 20
1.8599853515625
 30
0.0
 10
15.34804280598958
 20
1.860039605034722
 30
0.0
 10
15.34804280598958
 20
1.860039605034722
 30
0.0
 10
15.34054226345486
 20
1.8607177734375
 30
0.0
 10
15.34054226345486
 20
1.8607177734375
 30
0.0
 10
15.33698187934028
 20
1.861050075954861
 30
0.0
 10
15.33409288194444
 20
1.862284342447917
 30
0.0
 10
15.33186170789931
 20
1.864413791232639
 30
0.0
 10
15.32958306206597
 20
1.866482204861111
 30
0.0
 10
15.32840304904514
 20
1.869384765625
 30
0.0
 10
15.32835557725694
 20
1.87310791015625
 30
0.0
 10
15.32840304904514
 20
1.877590603298611
 30
0.0
 10
15.32994249131944
 20
1.880947536892361
 30
0.0
 10
15.33296034071181
 20
1.883192274305555
 30
0.0
 10
15.33589002821181
 20
1.885423448350694
 30
0.0
 10
15.33960639105903
 20
1.886542426215278
 30
0.0
 10
15.3441162109375
 20
1.886542426215278
 30
0.0
 10
15.34606255425347
 20
1.886542426215278
 30
0.0
 10
15.34781222873264
 20
1.88641357421875
 30
0.0
 10
15.34935845269097
 20
1.88616943359375
 30
0.0
 10
15.35090467664931
 20
1.885891384548611
 30
0.0
 10
15.35235595703125
 20
1.885491265190972
 30
0.0
 10
15.35372585720486
 20
1.884989420572917
 30
0.0
 10
15.35633002387153
 20
1.883897569444444
 30
0.0
 10
15.35866292317708
 20
1.882425944010417
 30
0.0
 10
15.36072455512153
 20
1.880581325954861
 30
0.0
 10
15.36072455512153
 20
1.880581325954861
 30
0.0
 10
15.35546196831597
 20
1.874247233072917
 30
0.0
 10
15.35546196831597
 20
1.874247233072917
 30
0.0
 10
15.35383436414931
 20
1.875467936197917
 30
0.0
 10
15.35210503472222
 20
1.876458062065972
 30
0.0
 10
15.35028754340278
 20
1.87725830078125
 30
0.0
 10
15.34849039713542
 20
1.877963595920139
 30
0.0
 10
15.34642876519097
 20
1.878316243489583
 30
0.0
 10
15.34409586588542
 20
1.878316243489583
 30
0.0
 10
15.34142388237847
 20
1.878316243489583
 30
0.0
 10
15.33955891927083
 20
1.877821180555555
 30
0.0
 10
15.33850775824653
 20
1.876837836371528
 30
0.0
 10
15.33739556206597
 20
1.875868055555555
 30
0.0
 10
15.33683946397569
 20
1.874599880642361
 30
0.0
 10
15.33683946397569
 20
1.873067220052083
 30
0.0
 10
15.33677842881944
 20
1.872077094184028
 30
0.0
 10
15.33719889322917
 20
1.871222601996528
 30
0.0
 10
15.33810085720486
 20
1.870496961805555
 30
0.0
 10
15.33891465928819
 20
1.869683159722222
 30
0.0
 10
15.34035237630208
 20
1.869167751736111
 30
0.0
 10
15.34241400824653
 20
1.868937174479167
 30
0.0
 10
15.34241400824653
 20
1.868937174479167
 30
0.0
 10
15.34942626953125
 20
1.868394639756944
 30
0.0
 10
15.34942626953125
 20
1.868394639756944
 30
0.0
 10
15.35382758246528
 20
1.868062337239583
 30
0.0
 10
15.35700819227431
 20
1.866678873697917
 30
0.0
 10
15.35896809895833
 20
1.864264594184028
 30
0.0
 10
15.36079237196181
 20
1.861918131510417
 30
0.0
 10
15.36170111762153
 20
1.858927408854167
 30
0.0
 10
15.36170111762153
 20
1.855312771267361
 30
0.0
 10
15.36164686414931
 20
1.851081000434028
 30
0.0
 10
15.35997856987847
 20
1.847812228732639
 30
0.0
 10
15.356689453125
 20
1.845513237847222
 30
0.0
 10
15.35344102647569
 20
1.843159993489583
 30
0.0
 10
15.34927029079861
 20
1.841952853732639
 30
0.0
 10
15.34419759114583
 20
1.841898600260417
 30
0.0
 10
15.33730061848958
 20
1.841898600260417
 30
0.0
 10
15.33110215928819
 20
1.844495985243055
 30
0.0
 10
15.32559543185764
 20
1.849704318576389
 30
0.0
 10
15.32559543185764
 20
1.849704318576389
 30
0.0
 10
15.33152262369792
 20
1.855712890625
 30
0.0
 10
15.33152262369792
 20
1.855712890625
 30
0.0
  0
HATCH
  5
5A
330
44
100
AcDbEntity
  8
Immeasurable Beauty
 62
   179
420
  2301728
100
AcDbHatch
 10
0.0
 20
0.0
 30
0.0
210
0.0
220
0.0
230
1.0
  2
SOLID
 70
     1
 71
     0
 91
        1
 92
        1
 93
        1
 72
     4
 94
        3
 73
     0
 74
     1
 95
       86
 96
       82
 40
0.0
 40
0.0
 40
0.0
 40
0.0
 40
1.0
 40
1.0
 40
1.0
 40
2.0
 40
2.0
 40
2.0
 40
3.0
 40
3.0
 40
3.0
 40
4.0
 40
4.0
 40
4.0
 40
5.0
 40
5.0
 40
5.0
 40
6.0
 40
6.0
 40
6.0
 40
7.0
 40
7.0
 40
7.0
 40
8.0
 40
8.0
 40
8.0
 40
9.0
 40
9.0
 40
9.0
 40
10.0
 40
10.0
 40
10.0
 40
11.0
 40
11.0
 40
11.0
 40
12.0
 40
12.0
 40
12.0
 40
13.0
 40
13.0
 40
13.0
 40
14.0
 40
14.0
 40
14.0
 40
15.0
 40
15.0
 40
15.0
 40
16.0
 40
16.0
 40
16.0
 40
17.0
 40
17.0
 40
17.0
 40
18.0
 40
18.0
 40
18.0
 40
19.0
 40
19.0
 40
19.0
 40
20.0
 40
20.0
 40
20.0
 40
21.0
 40
21.0
 40
21.0
 40
22.0
 40
22.0
 40
22.0
 40
23.0
 40
23.0
 40
23.0
 40
24.0
 40
24.0
 40
24.0
 40
25.0
 40
25.0
 40
25.0
 40
26.0
 40
26.0
 40
26.0
 40
27.0
 40
27.0
 40
27.0
 40
27.0
 10
15.33152262369792
 20
1.855712890625
 10
15.33497450086806
 20
1.851996527777778
 10
15.33943684895833
 20
1.850118001302083
 10
15.34489610460069
 20
1.850118001302083
 10
15.34734429253472
 20
1.850118001302083
 10
15.34934488932292
 20
1.850613064236111
 10
15.35089789496528
 20
1.851596408420139
 10
15.35244411892361
 20
1.852572970920139
 10
15.35322401258681
 20
1.85394287109375
 10
15.35322401258681
 20
1.855712890625
 10
15.35322401258681
 20
1.857286241319444
 10
15.35276285807292
 20
1.858378092447917
 10
15.35184054904514
 20
1.858988444010417
 10
15.35088433159722
 20
1.859639485677083
 10
15.34961615668403
 20
1.8599853515625
 10
15.34804280598958
 20
1.860039605034722
 10
15.34804280598958
 20
1.860039605034722
 10
15.34054226345486
 20
1.8607177734375
 10
15.34054226345486
 20
1.8607177734375
 10
15.33698187934028
 20
1.861050075954861
 10
15.33409288194444
 20
1.862284342447917
 10
15.33186170789931
 20
1.864413791232639
 10
15.32958306206597
 20
1.866482204861111
 10
15.32840304904514
 20
1.869384765625
 10
15.32835557725694
 20
1.87310791015625
 10
15.32840304904514
 20
1.877590603298611
 10
15.32994249131944
 20
1.880947536892361
 10
15.33296034071181
 20
1.883192274305555
 10
15.33589002821181
 20
1.885423448350694
 10
15.33960639105903
 20
1.886542426215278
 10
15.3441162109375
 20
1.886542426215278
 10
15.34606255425347
 20
1.886542426215278
 10
15.34781222873264
 20
1.88641357421875
 10
15.34935845269097
 20
1.88616943359375
 10
15.35090467664931
 20
1.885891384548611
 10
15.35235595703125
 20
1.885491265190972
 10
15.35372585720486
 20
1.884989420572917
 10
15.35633002387153
 20
1.883897569444444
 10
15.35866292317708
 20
1.882425944010417
 10
15.36072455512153
 20
1.880581325954861
 10
15.36072455512153
 20
1.880581325954861
 10
15.35546196831597
 20
1.874247233072917
 10
15.35546196831597
 20
1.874247233072917
 10
15.35383436414931
 20
1.875467936197917
 10
15.35210503472222
 20
1.876458062065972
 10
15.35028754340278
 20
1.87725830078125
 10
15.34849039713542
 20
1.877963595920139
 10
15.34642876519097
 20
1.878316243489583
 10
15.34409586588542
 20
1.878316243489583
 10
15.34142388237847
 20
1.878316243489583
 10
15.33955891927083
 20
1.877821180555555
 10
15.33850775824653
 20
1.876837836371528
 10
15.33739556206597
 20
1.875868055555555
 10
15.33683946397569
 20
1.874599880642361
 10
15.33683946397569
 20
1.873067220052083
 10
15.33677842881944
 20
1.872077094184028
 10
15.33719889322917
 20
1.871222601996528
 10
15.33810085720486
 20
1.870496961805555
 10
15.33891465928819
 20
1.869683159722222
 10
15.34035237630208
 20
1.869167751736111
 10
15.34241400824653
 20
1.868937174479167
 10
15.34241400824653
 20
1.868937174479167
 10
15.34942626953125
 20
1.868394639756944
 10
15.34942626953125
 20
1.868394639756944
 10
15.35382758246528
 20
1.868062337239583
 10
15.35700819227431
 20
1.866678873697917
 10
15.35896809895833
 20
1.864264594184028
 10
15.36079237196181
 20
1.861918131510417
 10
15.36170111762153
 20
1.858927408854167
 10
15.36170111762153
 20
1.855312771267361
 10
15.36164686414931
 20
1.851081000434028
 10
15.35997856987847
 20
1.847812228732639
 10
15.356689453125
 20
1.845513237847222
 10
15.35344102647569
 20
1.843159993489583
 10
15.34927029079861
 20
1.841952853732639
 10
15.34419759114583
 20
1.841898600260417
 10
15.33730061848958
 20
1.841898600260417
 10
15.33110215928819
 20
1.844495985243055
 10
15.32559543185764
 20
1.849704318576389
 10
15.32559543185764
 20
1.849704318576389
 10
15.33152262369792
 20
1.855712890625
 10
15.33152262369792
 20
1.855712890625
 97
        0
 75
     2
 76
     1
 98
        0
  0
ENDBLK
  5
47
330
44
100
AcDbEntity
  8
0
100
AcDbBlockEnd
  0
BLOCK
  5
5D
330
5B
100
AcDbEntity
  8
0
100
AcDbBlockBegin
  2
block 4
 70
     0
 71
     0
 10
0.0
 20
0.0
 30
0.0
  3
block 4
  1

  0
POLYLINE
  5
5F
330
5B
100
AcDbEntity
  8
Immeasurable Beauty
370
     0
100
AcDb2dPolyline
 66
     1
 10
0.0
 20
0.0
 30
0.0
  0
VERTEX
  5
60
330
5F
100
AcDbEntity
  8
Immeasurable Beauty
370
     0
100
AcDbVertex
100
AcDb2dVertex
 10
16.10083685980903
 20
1.920308430989583
 30
0.0
  0
VERTEX
  5
61
330
5F
100
AcDbEntity
  8
Immeasurable Beauty
370
     0
100
AcDbVertex
100
AcDb2dVertex
 10
16.08824327256944
 20
1.910780164930555
 30
0.0
  0
VERTEX
  5
62
330
5F
100
AcDbEntity
  8
Immeasurable Beauty
370
     0
100
AcDbVertex
100
AcDb2dVertex
 10
16.08824327256944
 20
1.924723307291667
 30
0.0
  0
VERTEX
  5
63
330
5F
100
AcDbEntity
  8
Immeasurable Beauty
370
     0
100
AcDbVertex
100
AcDb2dVertex
 10
16.10083685980903
 20
1.934122721354167
 30
0.0
  0
VERTEX
  5
64
330
5F
100
AcDbEntity
  8
Immeasurable Beauty
370
     0
100
AcDbVertex
100
AcDb2dVertex
 10
16.1134779188368
 20
1.934122721354167
 30
0.0
  0
VERTEX
  5
65
330
5F
100
AcDbEntity
  8
Immeasurable Beauty
370
     0
100
AcDbVertex
100
AcDb2dVertex
 10
16.1134779188368
 20
1.842759874131944
 30
0.0
  0
VERTEX
  5
66
330
5F
100
AcDbEntity
  8
Immeasurable Beauty
370
     0
100
AcDbVertex
100
AcDb2dVertex
 10
16.10083685980903
 20
1.842759874131944
 30
0.0
  0
VERTEX
  5
67
330
5F
100
AcDbEntity
  8
Immeasurable Beauty
370
     0
100
AcDbVertex
100
AcDb2dVertex
 10
16.10083685980903
 20
1.920308430989583
 30
0.0
  0
SEQEND
  5
68
330
5F
100
AcDbEntity
  8
Immeasurable Beauty
370
     0
  0
HATCH
  5
69
330
5B
100
AcDbEntity
  8
Immeasurable Beauty
 62
   179
420
  2301728
100
AcDbHatch
 10
0.0
 20
0.0
 30
0.0
210
0.0
220
0.0
230
1.0
  2
SOLID
 70
     1
 71
     0
 91
        1
 92
        1
 93
        7
 72
     1
 10
16.10083685980903
 20
1.920308430989583
 11
16.08824327256944
 21
1.910780164930555
 72
     1
 10
16.08824327256944
 20
1.910780164930555
 11
16.08824327256944
 21
1.924723307291667
 72
     1
 10
16.08824327256944
 20
1.924723307291667
 11
16.10083685980903
 21
1.934122721354167
 72
     1
 10
16.10083685980903
 20
1.934122721354167
 11
16.1134779188368
 21
1.934122721354167
 72
     1
 10
16.1134779188368
 20
1.934122721354167
 11
16.1134779188368
 21
1.842759874131944
 72
     1
 10
16.1134779188368
 20
1.842759874131944
 11
16.10083685980903
 21
1.842759874131944
 72
     1
 10
16.10083685980903
 20
1.842759874131944
 11
16.10083685980903
 21
1.920308430989583
 97
        0
 75
     2
 76
     1
 98
        0
  0
POLYLINE
  5
6A
330
5B
100
AcDbEntity
  8
Immeasurable Beauty
370
     0
100
AcDb2dPolyline
 66
     1
 10
0.0
 20
0.0
 30
0.0
  0
VERTEX
  5
6B
330
6A
100
AcDbEntity
  8
Immeasurable Beauty
370
     0
100
AcDbVertex
100
AcDb2dVertex
 10
16.14300537109375
 20
1.934122721354167
 30
0.0
  0
VERTEX
  5
6C
330
6A
100
AcDbEntity
  8
Immeasurable Beauty
370
     0
100
AcDbVertex
100
AcDb2dVertex
 10
16.15565321180555
 20
1.934122721354167
 30
0.0
  0
VERTEX
  5
6D
330
6A
100
AcDbEntity
  8
Immeasurable Beauty
370
     0
100
AcDbVertex
100
AcDb2dVertex
 10
16.15565321180555
 20
1.921027289496528
 30
0.0
  0
VERTEX
  5
6E
330
6A
100
AcDbEntity
  8
Immeasurable Beauty
370
     0
100
AcDbVertex
100
AcDb2dVertex
 10
16.14300537109375
 20
1.911573621961805
 30
0.0
  0
VERTEX
  5
6F
330
6A
100
AcDbEntity
  8
Immeasurable Beauty
370
     0
100
AcDbVertex
100
AcDb2dVertex
 10
16.14300537109375
 20
1.934122721354167
 30
0.0
  0
SEQEND
  5
70
330
6A
100
AcDbEntity
  8
Immeasurable Beauty
370
     0
  0
POLYLINE
  5
71
330
5B
100
AcDbEntity
  8
Immeasurable Beauty
370
     0
100
AcDb2dPolyline
 66
     1
 10
0.0
 20
0.0
 30
0.0
  0
VERTEX
  5
72
330
71
100
AcDbEntity
  8
Immeasurable Beauty
370
     0
100
AcDbVertex
100
AcDb2dVertex
 10
16.16286892361111
 20
1.934122721354167
 30
0.0
  0
VERTEX
  5
73
330
71
100
AcDbEntity
  8
Immeasurable Beauty
370
     0
100
AcDbVertex
100
AcDb2dVertex
 10
16.17553032769097
 20
1.934122721354167
 30
0.0
  0
VERTEX
  5
74
330
71
100
AcDbEntity
  8
Immeasurable Beauty
370
     0
100
AcDbVertex
100
AcDb2dVertex
 10
16.17553032769097
 20
1.921027289496528
 30
0.0
  0
VERTEX
  5
75
330
71
100
AcDbEntity
  8
Immeasurable Beauty
370
     0
100
AcDbVertex
100
AcDb2dVertex
 10
16.16286892361111
 20
1.911573621961805
 30
0.0
  0
VERTEX
  5
76
330
71
100
AcDbEntity
  8
Immeasurable Beauty
370
     0
100
AcDbVertex
100
AcDb2dVertex
 10
16.16286892361111
 20
1.934122721354167
 30
0.0
  0
SEQEND
  5
77
330
71
100
AcDbEntity
  8
Immeasurable Beauty
370
     0
  0
HATCH
  5
78
330
5B
100
AcDbEntity
  8
Immeasurable Beauty
 62
   179
420
  2301728
100
AcDbHatch
 10
0.0
 20
0.0
 30
0.0
210
0.0
220
0.0
230
1.0
  2
SOLID
 70
     1
 71
     0
 91
        2
 92
        1
 93
        4
 72
     1
 10
16.14300537109375
 20
1.934122721354167
 11
16.15565321180555
 21
1.934122721354167
 72
     1
 10
16.15565321180555
 20
1.934122721354167
 11
16.15565321180555
 21
1.921027289496528
 72
     1
 10
16.15565321180555
 20
1.921027289496528
 11
16.14300537109375
 21
1.911573621961805
 72
     1
 10
16.14300537109375
 20
1.911573621961805
 11
16.14300537109375
 21
1.934122721354167
 97
        0
 92
        1
 93
        4
 72
     1
 10
16.16286892361111
 20
1.934122721354167
 11
16.17553032769097
 21
1.934122721354167
 72
     1
 10
16.17553032769097
 20
1.934122721354167
 11
16.17553032769097
 21
1.921027289496528
 72
     1
 10
16.17553032769097
 20
1.921027289496528
 11
16.16286892361111
 21
1.911573621961805
 72
     1
 10
16.16286892361111
 20
1.911573621961805
 11
16.16286892361111
 21
1.934122721354167
 97
        0
 75
     2
 76
     1
 98
        0
  0
ENDBLK
  5
5E
330
5B
100
AcDbEntity
  8
0
100
AcDbBlockEnd
  0
BLOCK
  5
7B
330
79
100
AcDbEntity
  8
0
100
AcDbBlockBegin
  2
block 5
 70
     0
 71
     0
 10
0.0
 20
0.0
 30
0.0
  3
block 5
  1

  0
SPLINE
  5
7D
330
79
100
AcDbEntity
  8
Immeasurable Beauty
370
     0
100
AcDbSpline
210
0.0
220
0.0
230
1.0
 70
    11
 71
     3
 72
    59
 73
    55
 74
     0
 42
0.0000000001
 43
0.0000000001
 40
0.0
 40
0.0
 40
0.0
 40
0.0
 40
1.0
 40
1.0
 40
1.0
 40
2.0
 40
2.0
 40
2.0
 40
3.0
 40
3.0
 40
3.0
 40
4.0
 40
4.0
 40
4.0
 40
5.0
 40
5.0
 40
5.0
 40
6.0
 40
6.0
 40
6.0
 40
7.0
 40
7.0
 40
7.0
 40
8.0
 40
8.0
 40
8.0
 40
9.0
 40
9.0
 40
9.0
 40
10.0
 40
10.0
 40
10.0
 40
11.0
 40
11.0
 40
11.0
 40
12.0
 40
12.0
 40
12.0
 40
13.0
 40
13.0
 40
13.0
 40
14.0
 40
14.0
 40
14.0
 40
15.0
 40
15.0
 40
15.0
 40
16.0
 40
16.0
 40
16.0
 40
17.0
 40
17.0
 40
17.0
 40
18.0
 40
18.0
 40
18.0
 40
18.0
 10
17.07952202690972
 20
1.855156792534722
 30
0.0
 10
17.07952202690972
 20
1.855156792534722
 30
0.0
 10
17.11414930555555
 20
1.899854871961805
 30
0.0
 10
17.11414930555555
 20
1.899854871961805
 30
0.0
 10
17.11548529730903
 20
1.901658799913194
 30
0.0
 10
17.11640082465278
 20
1.903333875868055
 30
0.0
 10
17.11688232421875
 20
1.904880099826389
 30
0.0
 10
17.11720784505208
 20
1.906351725260417
 30
0.0
 10
17.11737060546875
 20
1.907728407118055
 30
0.0
 10
17.11737060546875
 20
1.909023708767361
 30
0.0
 10
17.11737060546875
 20
1.912462022569444
 30
0.0
 10
17.11633978949653
 20
1.915445963541667
 30
0.0
 10
17.11427137586805
 20
1.918002658420139
 30
0.0
 10
17.11212158203125
 20
1.920552571614583
 30
0.0
 10
17.10907660590278
 20
1.921868218315972
 30
0.0
 10
17.10513644748264
 20
1.921963161892361
 30
0.0
 10
17.10165066189236
 20
1.921963161892361
 30
0.0
 10
17.09874810112847
 20
1.920803493923611
 30
0.0
 10
17.09642876519097
 20
1.918504503038194
 30
0.0
 10
17.09403483072916
 20
1.91619873046875
 30
0.0
 10
17.09261745876736
 20
1.9129638671875
 30
0.0
 10
17.09216986762153
 20
1.908772786458333
 30
0.0
 10
17.09216986762153
 20
1.908772786458333
 30
0.0
 10
17.07952202690972
 20
1.908772786458333
 30
0.0
 10
17.07952202690972
 20
1.908772786458333
 30
0.0
 10
17.07984754774305
 20
1.916368272569444
 30
0.0
 10
17.08231608072916
 20
1.922641330295139
 30
0.0
 10
17.08693440755208
 20
1.927605523003472
 30
0.0
 10
17.09160020616319
 20
1.932440863715278
 30
0.0
 10
17.09732394748264
 20
1.934902615017361
 30
0.0
 10
17.10413275824653
 20
1.934983995225694
 30
0.0
 10
17.11174858940972
 20
1.934902615017361
 30
0.0
 10
17.11792670355903
 20
1.932393391927083
 30
0.0
 10
17.12266710069444
 20
1.927456325954861
 30
0.0
 10
17.12748887803819
 20
1.922566731770833
 30
0.0
 10
17.12993706597222
 20
1.916354709201389
 30
0.0
 10
17.13001844618055
 20
1.908833821614583
 30
0.0
 10
17.13001844618055
 20
1.902811686197917
 30
0.0
 10
17.12823486328125
 20
1.8974609375
 30
0.0
 10
17.12467447916666
 20
1.892781575520833
 30
0.0
 10
17.12467447916666
 20
1.892781575520833
 30
0.0
 10
17.09618462456597
 20
1.85589599609375
 30
0.0
 10
17.09618462456597
 20
1.85589599609375
 30
0.0
 10
17.09618462456597
 20
1.85589599609375
 30
0.0
 10
17.13001844618055
 20
1.85589599609375
 30
0.0
 10
17.13001844618055
 20
1.85589599609375
 30
0.0
 10
17.13001844618055
 20
1.85589599609375
 30
0.0
 10
17.13001844618055
 20
1.842875162760417
 30
0.0
 10
17.13001844618055
 20
1.842875162760417
 30
0.0
 10
17.13001844618055
 20
1.842875162760417
 30
0.0
 10
17.07952202690972
 20
1.842875162760417
 30
0.0
 10
17.07952202690972
 20
1.842875162760417
 30
0.0
 10
17.07952202690972
 20
1.842875162760417
 30
0.0
 10
17.07952202690972
 20
1.855156792534722
 30
0.0
 10
17.07952202690972
 20
1.855156792534722
 30
0.0
  0
HATCH
  5
7E
330
79
100
AcDbEntity
  8
Immeasurable Beauty
 62
   179
420
  2301728
100
AcDbHatch
 10
0.0
 20
0.0
 30
0.0
210
0.0
220
0.0
230
1.0
  2
SOLID
 70
     1
 71
     0
 91
        1
 92
        1
 93
        1
 72
     4
 94
        3
 73
     0
 74
     1
 95
       59
 96
       55
 40
0.0
 40
0.0
 40
0.0
 40
0.0
 40
1.0
 40
1.0
 40
1.0
 40
2.0
 40
2.0
 40
2.0
 40
3.0
 40
3.0
 40
3.0
 40
4.0
 40
4.0
 40
4.0
 40
5.0
 40
5.0
 40
5.0
 40
6.0
 40
6.0
 40
6.0
 40
7.0
 40
7.0
 40
7.0
 40
8.0
 40
8.0
 40
8.0
 40
9.0
 40
9.0
 40
9.0
 40
10.0
 40
10.0
 40
10.0
 40
11.0
 40
11.0
 40
11.0
 40
12.0
 40
12.0
 40
12.0
 40
13.0
 40
13.0
 40
13.0
 40
14.0
 40
14.0
 40
14.0
 40
15.0
 40
15.0
 40
15.0
 40
16.0
 40
16.0
 40
16.0
 40
17.0
 40
17.0
 40
17.0
 40
18.0
 40
18.0
 40
18.0
 40
18.0
 10
17.07952202690972
 20
1.855156792534722
 10
17.07952202690972
 20
1.855156792534722
 10
17.11414930555555
 20
1.899854871961805
 10
17.11414930555555
 20
1.899854871961805
 10
17.11548529730903
 20
1.901658799913194
 10
17.11640082465278
 20
1.903333875868055
 10
17.11688232421875
 20
1.904880099826389
 10
17.11720784505208
 20
1.906351725260417
 10
17.11737060546875
 20
1.907728407118055
 10
17.11737060546875
 20
1.909023708767361
 10
17.11737060546875
 20
1.912462022569444
 10
17.11633978949653
 20
1.915445963541667
 10
17.11427137586805
 20
1.918002658420139
 10
17.11212158203125
 20
1.920552571614583
 10
17.10907660590278
 20
1.921868218315972
 10
17.10513644748264
 20
1.921963161892361
 10
17.10165066189236
 20
1.921963161892361
 10
17.09874810112847
 20
1.920803493923611
 10
17.09642876519097
 20
1.918504503038194
 10
17.09403483072916
 20
1.91619873046875
 10
17.09261745876736
 20
1.9129638671875
 10
17.09216986762153
 20
1.908772786458333
 10
17.09216986762153
 20
1.908772786458333
 10
17.07952202690972
 20
1.908772786458333
 10
17.07952202690972
 20
1.908772786458333
 10
17.07984754774305
 20
1.916368272569444
 10
17.08231608072916
 20
1.922641330295139
 10
17.08693440755208
 20
1.927605523003472
 10
17.09160020616319
 20
1.932440863715278
 10
17.09732394748264
 20
1.934902615017361
 10
17.10413275824653
 20
1.934983995225694
 10
17.11174858940972
 20
1.934902615017361
 10
17.11792670355903
 20
1.932393391927083
 10
17.12266710069444
 20
1.927456325954861
 10
17.12748887803819
 20
1.922566731770833
 10
17.12993706597222
 20
1.916354709201389
 10
17.13001844618055
 20
1.908833821614583
 10
17.13001844618055
 20
1.902811686197917
 10
17.12823486328125
 20
1.8974609375
 10
17.12467447916666
 20
1.892781575520833
 10
17.12467447916666
 20
1.892781575520833
 10
17.09618462456597
 20
1.85589599609375
 10
17.09618462456597
 20
1.85589599609375
 10
17.09618462456597
 20
1.85589599609375
 10
17.13001844618055
 20
1.85589599609375
 10
17.13001844618055
 20
1.85589599609375
 10
17.13001844618055
 20
1.85589599609375
 10
17.13001844618055
 20
1.842875162760417
 10
17.13001844618055
 20
1.842875162760417
 10
17.13001844618055
 20
1.842875162760417
 10
17.07952202690972
 20
1.842875162760417
 10
17.07952202690972
 20
1.842875162760417
 10
17.07952202690972
 20
1.842875162760417
 10
17.07952202690972
 20
1.855156792534722
 10
17.07952202690972
 20
1.855156792534722
 97
        0
 75
     2
 76
     1
 98
        0
  0
POLYLINE
  5
7F
330
79
100
AcDbEntity
  8
Immeasurable Beauty
370
     0
100
AcDb2dPolyline
 66
     1
 10
0.0
 20
0.0
 30
0.0
  0
VERTEX
  5
80
330
7F
100
AcDbEntity
  8
Immeasurable Beauty
370
     0
100
AcDbVertex
100
AcDb2dVertex
 10
17.14187282986111
 20
1.934238009982639
 30
0.0
  0
VERTEX
  5
81
330
7F
100
AcDbEntity
  8
Immeasurable Beauty
370
     0
100
AcDbVertex
100
AcDb2dVertex
 10
17.15452067057291
 20
1.934238009982639
 30
0.0
  0
VERTEX
  5
82
330
7F
100
AcDbEntity
  8
Immeasurable Beauty
370
     0
100
AcDbVertex
100
AcDb2dVertex
 10
17.15452067057291
 20
1.921135796440972
 30
0.0
  0
VERTEX
  5
83
330
7F
100
AcDbEntity
  8
Immeasurable Beauty
370
     0
100
AcDbVertex
100
AcDb2dVertex
 10
17.14187282986111
 20
1.911688910590278
 30
0.0
  0
VERTEX
  5
84
330
7F
100
AcDbEntity
  8
Immeasurable Beauty
370
     0
100
AcDbVertex
100
AcDb2dVertex
 10
17.14187282986111
 20
1.934238009982639
 30
0.0
  0
SEQEND
  5
85
330
7F
100
AcDbEntity
  8
Immeasurable Beauty
370
     0
  0
POLYLINE
  5
86
330
79
100
AcDbEntity
  8
Immeasurable Beauty
370
     0
100
AcDb2dPolyline
 66
     1
 10
0.0
 20
0.0
 30
0.0
  0
VERTEX
  5
87
330
86
100
AcDbEntity
  8
Immeasurable Beauty
370
     0
100
AcDbVertex
100
AcDb2dVertex
 10
17.16173638237847
 20
1.934238009982639
 30
0.0
  0
VERTEX
  5
88
330
86
100
AcDbEntity
  8
Immeasurable Beauty
370
     0
100
AcDbVertex
100
AcDb2dVertex
 10
17.1743910047743
 20
1.934238009982639
 30
0.0
  0
VERTEX
  5
89
330
86
100
AcDbEntity
  8
Immeasurable Beauty
370
     0
100
AcDbVertex
100
AcDb2dVertex
 10
17.1743910047743
 20
1.921135796440972
 30
0.0
  0
VERTEX
  5
8A
330
86
100
AcDbEntity
  8
Immeasurable Beauty
370
     0
100
AcDbVertex
100
AcDb2dVertex
 10
17.16173638237847
 20
1.911688910590278
 30
0.0
  0
VERTEX
  5
8B
330
86
100
AcDbEntity
  8
Immeasurable Beauty
370
     0
100
AcDbVertex
100
AcDb2dVertex
 10
17.16173638237847
 20
1.934238009982639
 30
0.0
  0
SEQEND
  5
8C
330
86
100
AcDbEntity
  8
Immeasurable Beauty
370
     0
  0
HATCH
  5
8D
330
79
100
AcDbEntity
  8
Immeasurable Beauty
 62
   179
420
  2301728
100
AcDbHatch
 10
0.0
 20
0.0
 30
0.0
210
0.0
220
0.0
230
1.0
  2
SOLID
 70
     1
 71
     0
 91
        2
 92
        1
 93
        4
 72
     1
 10
17.14187282986111
 20
1.934238009982639
 11
17.15452067057291
 21
1.934238009982639
 72
     1
 10
17.15452067057291
 20
1.934238009982639
 11
17.15452067057291
 21
1.921135796440972
 72
     1
 10
17.15452067057291
 20
1.921135796440972
 11
17.14187282986111
 21
1.911688910590278
 72
     1
 10
17.14187282986111
 20
1.911688910590278
 11
17.14187282986111
 21
1.934238009982639
 97
        0
 92
        1
 93
        4
 72
     1
 10
17.16173638237847
 20
1.934238009982639
 11
17.1743910047743
 21
1.934238009982639
 72
     1
 10
17.1743910047743
 20
1.934238009982639
 11
17.1743910047743
 21
1.921135796440972
 72
     1
 10
17.1743910047743
 20
1.921135796440972
 11
17.16173638237847
 21
1.911688910590278
 72
     1
 10
17.16173638237847
 20
1.911688910590278
 11
17.16173638237847
 21
1.934238009982639
 97
        0
 75
     2
 76
     1
 98
        0
  0
ENDBLK
  5
7C
330
79
100
AcDbEntity
  8
0
100
AcDbBlockEnd
  0
BLOCK
  5
90
330
8E
100
AcDbEntity
  8
0
100
AcDbBlockBegin
  2
block 6
 70
     0
 71
     0
 10
0.0
 20
0.0
 30
0.0
  3
block 6
  1

  0
SPLINE
  5
92
330
8E
100
AcDbEntity
  8
Immeasurable Beauty
370
     0
100
AcDbSpline
210
0.0
220
0.0
230
1.0
 70
    11
 71
     3
 72
    92
 73
    88
 74
     0
 42
0.0000000001
 43
0.0000000001
 40
0.0
 40
0.0
 40
0.0
 40
0.0
 40
1.0
 40
1.0
 40
1.0
 40
2.0
 40
2.0
 40
2.0
 40
3.0
 40
3.0
 40
3.0
 40
4.0
 40
4.0
 40
4.0
 40
5.0
 40
5.0
 40
5.0
 40
6.0
 40
6.0
 40
6.0
 40
7.0
 40
7.0
 40
7.0
 40
8.0
 40
8.0
 40
8.0
 40
9.0
 40
9.0
 40
9.0
 40
10.0
 40
10.0
 40
10.0
 40
11.0
 40
11.0
 40
11.0
 40
12.0
 40
12.0
 40
12.0
 40
13.0
 40
13.0
 40
13.0
 40
14.0
 40
14.0
 40
14.0
 40
15.0
 40
15.0
 40
15.0
 40
16.0
 40
16.0
 40
16.0
 40
17.0
 40
17.0
 40
17.0
 40
18.0
 40
18.0
 40
18.0
 40
19.0
 40
19.0
 40
19.0
 40
20.0
 40
20.0
 40
20.0
 40
21.0
 40
21.0
 40
21.0
 40
22.0
 40
22.0
 40
22.0
 40
23.0
 40
23.0
 40
23.0
 40
24.0
 40
24.0
 40
24.0
 40
25.0
 40
25.0
 40
25.0
 40
26.0
 40
26.0
 40
26.0
 40
27.0
 40
27.0
 40
27.0
 40
28.0
 40
28.0
 40
28.0
 40
29.0
 40
29.0
 40
29.0
 40
29.0
 10
18.09701877170139
 20
1.895575629340278
 30
0.0
 10
18.09701877170139
 20
1.895575629340278
 30
0.0
 10
18.10139973958333
 20
1.895575629340278
 30
0.0
 10
18.10139973958333
 20
1.895575629340278
 30
0.0
 10
18.10574001736111
 20
1.895575629340278
 30
0.0
 10
18.10910373263889
 20
1.896816677517361
 30
0.0
 10
18.11149088541666
 20
1.8992919921875
 30
0.0
 10
18.1138916015625
 20
1.901685926649305
 30
0.0
 10
18.11508517795139
 20
1.904798719618055
 30
0.0
 10
18.11508517795139
 20
1.908616807725694
 30
0.0
 10
18.114990234375
 20
1.912482367621528
 30
0.0
 10
18.11376953125
 20
1.9156494140625
 30
0.0
 10
18.11136881510416
 20
1.918131510416667
 30
0.0
 10
18.10898166232639
 20
1.920525444878472
 30
0.0
 10
18.10591634114583
 20
1.921759711371528
 30
0.0
 10
18.10214572482639
 20
1.921847873263889
 30
0.0
 10
18.09941948784722
 20
1.921847873263889
 30
0.0
 10
18.09695095486111
 20
1.920939127604167
 30
0.0
 10
18.0947265625
 20
1.919135199652778
 30
0.0
 10
18.09238009982639
 20
1.917331271701389
 30
0.0
 10
18.09079318576389
 20
1.914537217881944
 30
0.0
 10
18.08999294704861
 20
1.910759819878472
 30
0.0
 10
18.08999294704861
 20
1.910759819878472
 30
0.0
 10
18.07729763454861
 20
1.910759819878472
 30
0.0
 10
18.07729763454861
 20
1.910759819878472
 30
0.0
 10
18.07793511284722
 20
1.917527940538194
 30
0.0
 10
18.08057996961805
 20
1.9232177734375
 30
0.0
 10
18.08524576822916
 20
1.9278564453125
 30
0.0
 10
18.08981662326389
 20
1.932454427083333
 30
0.0
 10
18.09528266059028
 20
1.934794108072917
 30
0.0
 10
18.10163031684028
 20
1.93487548828125
 30
0.0
 10
18.10968695746528
 20
1.934794108072917
 30
0.0
 10
18.1160888671875
 20
1.932135687934028
 30
0.0
 10
18.12082248263889
 20
1.926913791232639
 30
0.0
 10
18.12535264756944
 20
1.921820746527778
 30
0.0
 10
18.12765842013889
 20
1.915805392795139
 30
0.0
 10
18.12773980034722
 20
1.908867730034722
 30
0.0
 10
18.12773980034722
 20
1.905361599392361
 30
0.0
 10
18.12711588541666
 20
1.9019775390625
 30
0.0
 10
18.1258544921875
 20
1.898715549045139
 30
0.0
 10
18.12440321180555
 20
1.895460340711805
 30
0.0
 10
18.12178548177083
 20
1.892557779947917
 30
0.0
 10
18.11802842881944
 20
1.890007866753472
 30
0.0
 10
18.12186686197916
 20
1.887498643663194
 30
0.0
 10
18.12464735243055
 20
1.884494357638889
 30
0.0
 10
18.12635633680555
 20
1.8809814453125
 30
0.0
 10
18.12798394097222
 20
1.877475314670139
 30
0.0
 10
18.12879774305555
 20
1.873799641927083
 30
0.0
 10
18.12879774305555
 20
1.869954427083333
 30
0.0
 10
18.12871636284722
 20
1.86138916015625
 30
0.0
 10
18.12615288628472
 20
1.854648166232639
 30
0.0
 10
18.12109375
 20
1.849717881944444
 30
0.0
 10
18.11612955729166
 20
1.844658745659722
 30
0.0
 10
18.10972764756944
 20
1.842088487413194
 30
0.0
 10
18.1019287109375
 20
1.842007107204861
 30
0.0
 10
18.09590657552083
 20
1.842007107204861
 30
0.0
 10
18.09056260850694
 20
1.844014485677083
 30
0.0
 10
18.08592393663194
 20
1.848015679253472
 30
0.0
 10
18.08127170138889
 20
1.852010091145833
 30
0.0
 10
18.07826063368055
 20
1.857808430989583
 30
0.0
 10
18.07687717013889
 20
1.865403917100694
 30
0.0
 10
18.07687717013889
 20
1.865403917100694
 30
0.0
 10
18.08957248263889
 20
1.865403917100694
 30
0.0
 10
18.08957248263889
 20
1.865403917100694
 30
0.0
 10
18.09071180555555
 20
1.862345377604167
 30
0.0
 10
18.09228515625
 20
1.859876844618055
 30
0.0
 10
18.0943603515625
 20
1.857984754774305
 30
0.0
 10
18.09646267361111
 20
1.856024848090278
 30
0.0
 10
18.09925672743055
 20
1.855034722222222
 30
0.0
 10
18.10272894965278
 20
1.855034722222222
 30
0.0
 10
18.10647243923611
 20
1.855034722222222
 30
0.0
 10
18.10959201388889
 20
1.856357150607639
 30
0.0
 10
18.11215549045139
 20
1.858988444010417
 30
0.0
 10
18.11474609375
 20
1.861463758680555
 30
0.0
 10
18.1160888671875
 20
1.864983452690972
 30
0.0
 10
18.11615668402778
 20
1.869547526041667
 30
0.0
 10
18.1160888671875
 20
1.874192979600694
 30
0.0
 10
18.11474609375
 20
1.877800835503472
 30
0.0
 10
18.11215549045139
 20
1.880357530381944
 30
0.0
 10
18.10960557725694
 20
1.882819281684028
 30
0.0
 10
18.10636393229166
 20
1.884067111545139
 30
0.0
 10
18.10244411892361
 20
1.884067111545139
 30
0.0
 10
18.10244411892361
 20
1.884067111545139
 30
0.0
 10
18.09701877170139
 20
1.884067111545139
 30
0.0
 10
18.09701877170139
 20
1.884067111545139
 30
0.0
 10
18.09701877170139
 20
1.884067111545139
 30
0.0
 10
18.09701877170139
 20
1.895575629340278
 30
0.0
 10
18.09701877170139
 20
1.895575629340278
 30
0.0
  0
HATCH
  5
93
330
8E
100
AcDbEntity
  8
Immeasurable Beauty
 62
   179
420
  2301728
100
AcDbHatch
 10
0.0
 20
0.0
 30
0.0
210
0.0
220
0.0
230
1.0
  2
SOLID
 70
     1
 71
     0
 91
        1
 92
        1
 93
        1
 72
     4
 94
        3
 73
     0
 74
     1
 95
       92
 96
       88
 40
0.0
 40
0.0
 40
0.0
 40
0.0
 40
1.0
 40
1.0
 40
1.0
 40
2.0
 40
2.0
 40
2.0
 40
3.0
 40
3.0
 40
3.0
 40
4.0
 40
4.0
 40
4.0
 40
5.0
 40
5.0
 40
5.0
 40
6.0
 40
6.0
 40
6.0
 40
7.0
 40
7.0
 40
7.0
 40
8.0
 40
8.0
 40
8.0
 40
9.0
 40
9.0
 40
9.0
 40
10.0
 40
10.0
 40
10.0
 40
11.0
 40
11.0
 40
11.0
 40
12.0
 40
12.0
 40
12.0
 40
13.0
 40
13.0
 40
13.0
 40
14.0
 40
14.0
 40
14.0
 40
15.0
 40
15.0
 40
15.0
 40
16.0
 40
16.0
 40
16.0
 40
17.0
 40
17.0
 40
17.0
 40
18.0
 40
18.0
 40
18.0
 40
19.0
 40
19.0
 40
19.0
 40
20.0
 40
20.0
 40
20.0
 40
21.0
 40
21.0
 40
21.0
 40
22.0
 40
22.0
 40
22.0
 40
23.0
 40
23.0
 40
23.0
 40
24.0
 40
24.0
 40
24.0
 40
25.0
 40
25.0
 40
25.0
 40
26.0
 40
26.0
 40
26.0
 40
27.0
 40
27.0
 40
27.0
 40
28.0
 40
28.0
 40
28.0
 40
29.0
 40
29.0
 40
29.0
 40
29.0
 10
18.09701877170139
 20
1.895575629340278
 10
18.09701877170139
 20
1.895575629340278
 10
18.10139973958333
 20
1.895575629340278
 10
18.10139973958333
 20
1.895575629340278
 10
18.10574001736111
 20
1.895575629340278
 10
18.10910373263889
 20
1.896816677517361
 10
18.11149088541666
 20
1.8992919921875
 10
18.1138916015625
 20
1.901685926649305
 10
18.11508517795139
 20
1.904798719618055
 10
18.11508517795139
 20
1.908616807725694
 10
18.114990234375
 20
1.912482367621528
 10
18.11376953125
 20
1.9156494140625
 10
18.11136881510416
 20
1.918131510416667
 10
18.10898166232639
 20
1.920525444878472
 10
18.10591634114583
 20
1.921759711371528
 10
18.10214572482639
 20
1.921847873263889
 10
18.09941948784722
 20
1.921847873263889
 10
18.09695095486111
 20
1.920939127604167
 10
18.0947265625
 20
1.919135199652778
 10
18.09238009982639
 20
1.917331271701389
 10
18.09079318576389
 20
1.914537217881944
 10
18.08999294704861
 20
1.910759819878472
 10
18.08999294704861
 20
1.910759819878472
 10
18.07729763454861
 20
1.910759819878472
 10
18.07729763454861
 20
1.910759819878472
 10
18.07793511284722
 20
1.917527940538194
 10
18.08057996961805
 20
1.9232177734375
 10
18.08524576822916
 20
1.9278564453125
 10
18.08981662326389
 20
1.932454427083333
 10
18.09528266059028
 20
1.934794108072917
 10
18.10163031684028
 20
1.93487548828125
 10
18.10968695746528
 20
1.934794108072917
 10
18.1160888671875
 20
1.932135687934028
 10
18.12082248263889
 20
1.926913791232639
 10
18.12535264756944
 20
1.921820746527778
 10
18.12765842013889
 20
1.915805392795139
 10
18.12773980034722
 20
1.908867730034722
 10
18.12773980034722
 20
1.905361599392361
 10
18.12711588541666
 20
1.9019775390625
 10
18.1258544921875
 20
1.898715549045139
 10
18.12440321180555
 20
1.895460340711805
 10
18.12178548177083
 20
1.892557779947917
 10
18.11802842881944
 20
1.890007866753472
 10
18.12186686197916
 20
1.887498643663194
 10
18.12464735243055
 20
1.884494357638889
 10
18.12635633680555
 20
1.8809814453125
 10
18.12798394097222
 20
1.877475314670139
 10
18.12879774305555
 20
1.873799641927083
 10
18.12879774305555
 20
1.869954427083333
 10
18.12871636284722
 20
1.86138916015625
 10
18.12615288628472
 20
1.854648166232639
 10
18.12109375
 20
1.849717881944444
 10
18.11612955729166
 20
1.844658745659722
 10
18.10972764756944
 20
1.842088487413194
 10
18.1019287109375
 20
1.842007107204861
 10
18.09590657552083
 20
1.842007107204861
 10
18.09056260850694
 20
1.844014485677083
 10
18.08592393663194
 20
1.848015679253472
 10
18.08127170138889
 20
1.852010091145833
 10
18.07826063368055
 20
1.857808430989583
 10
18.07687717013889
 20
1.865403917100694
 10
18.07687717013889
 20
1.865403917100694
 10
18.08957248263889
 20
1.865403917100694
 10
18.08957248263889
 20
1.865403917100694
 10
18.09071180555555
 20
1.862345377604167
 10
18.09228515625
 20
1.859876844618055
 10
18.0943603515625
 20
1.857984754774305
 10
18.09646267361111
 20
1.856024848090278
 10
18.09925672743055
 20
1.855034722222222
 10
18.10272894965278
 20
1.855034722222222
 10
18.10647243923611
 20
1.855034722222222
 10
18.10959201388889
 20
1.856357150607639
 10
18.11215549045139
 20
1.858988444010417
 10
18.11474609375
 20
1.861463758680555
 10
18.1160888671875
 20
1.864983452690972
 10
18.11615668402778
 20
1.869547526041667
 10
18.1160888671875
 20
1.874192979600694
 10
18.11474609375
 20
1.877800835503472
 10
18.11215549045139
 20
1.880357530381944
 10
18.10960557725694
 20
1.882819281684028
 10
18.10636393229166
 20
1.884067111545139
 10
18.10244411892361
 20
1.884067111545139
 10
18.10244411892361
 20
1.884067111545139
 10
18.09701877170139
 20
1.884067111545139
 10
18.09701877170139
 20
1.884067111545139
 10
18.09701877170139
 20
1.884067111545139
 10
18.09701877170139
 20
1.895575629340278
 10
18.09701877170139
 20
1.895575629340278
 97
        0
 75
     2
 76
     1
 98
        0
  0
POLYLINE
  5
94
330
8E
100
AcDbEntity
  8
Immeasurable Beauty
370
     0
100
AcDb2dPolyline
 66
     1
 10
0.0
 20
0.0
 30
0.0
  0
VERTEX
  5
95
330
94
100
AcDbEntity
  8
Immeasurable Beauty
370
     0
100
AcDbVertex
100
AcDb2dVertex
 10
18.14153374565972
 20
1.934122721354167
 30
0.0
  0
VERTEX
  5
96
330
94
100
AcDbEntity
  8
Immeasurable Beauty
370
     0
100
AcDbVertex
100
AcDb2dVertex
 10
18.15418836805555
 20
1.934122721354167
 30
0.0
  0
VERTEX
  5
97
330
94
100
AcDbEntity
  8
Immeasurable Beauty
370
     0
100
AcDbVertex
100
AcDb2dVertex
 10
18.15418836805555
 20
1.921027289496528
 30
0.0
  0
VERTEX
  5
98
330
94
100
AcDbEntity
  8
Immeasurable Beauty
370
     0
100
AcDbVertex
100
AcDb2dVertex
 10
18.14153374565972
 20
1.911573621961805
 30
0.0
  0
VERTEX
  5
99
330
94
100
AcDbEntity
  8
Immeasurable Beauty
370
     0
100
AcDbVertex
100
AcDb2dVertex
 10
18.14153374565972
 20
1.934122721354167
 30
0.0
  0
SEQEND
  5
9A
330
94
100
AcDbEntity
  8
Immeasurable Beauty
370
     0
  0
POLYLINE
  5
9B
330
8E
100
AcDbEntity
  8
Immeasurable Beauty
370
     0
100
AcDb2dPolyline
 66
     1
 10
0.0
 20
0.0
 30
0.0
  0
VERTEX
  5
9C
330
9B
100
AcDbEntity
  8
Immeasurable Beauty
370
     0
100
AcDbVertex
100
AcDb2dVertex
 10
18.16140407986111
 20
1.934122721354167
 30
0.0
  0
VERTEX
  5
9D
330
9B
100
AcDbEntity
  8
Immeasurable Beauty
370
     0
100
AcDbVertex
100
AcDb2dVertex
 10
18.17405870225694
 20
1.934122721354167
 30
0.0
  0
VERTEX
  5
9E
330
9B
100
AcDbEntity
  8
Immeasurable Beauty
370
     0
100
AcDbVertex
100
AcDb2dVertex
 10
18.17405870225694
 20
1.921027289496528
 30
0.0
  0
VERTEX
  5
9F
330
9B
100
AcDbEntity
  8
Immeasurable Beauty
370
     0
100
AcDbVertex
100
AcDb2dVertex
 10
18.16140407986111
 20
1.911573621961805
 30
0.0
  0
VERTEX
  5
A0
330
9B
100
AcDbEntity
  8
Immeasurable Beauty
370
     0
100
AcDbVertex
100
AcDb2dVertex
 10
18.16140407986111
 20
1.934122721354167
 30
0.0
  0
SEQEND
  5
A1
330
9B
100
AcDbEntity
  8
Immeasurable Beauty
370
     0
  0
HATCH
  5
A2
330
8E
100
AcDbEntity
  8
Immeasurable Beauty
 62
   179
420
  2301728
100
AcDbHatch
 10
0.0
 20
0.0
 30
0.0
210
0.0
220
0.0
230
1.0
  2
SOLID
 70
     1
 71
     0
 91
        2
 92
        1
 93
        4
 72
     1
 10
18.14153374565972
 20
1.934122721354167
 11
18.15418836805555
 21
1.934122721354167
 72
     1
 10
18.15418836805555
 20
1.934122721354167
 11
18.15418836805555
 21
1.921027289496528
 72
     1
 10
18.15418836805555
 20
1.921027289496528
 11
18.14153374565972
 21
1.911573621961805
 72
     1
 10
18.14153374565972
 20
1.911573621961805
 11
18.14153374565972
 21
1.934122721354167
 97
        0
 92
        1
 93
        4
 72
     1
 10
18.16140407986111
 20
1.934122721354167
 11
18.17405870225694
 21
1.934122721354167
 72
     1
 10
18.17405870225694
 20
1.934122721354167
 11
18.17405870225694
 21
1.921027289496528
 72
     1
 10
18.17405870225694
 20
1.921027289496528
 11
18.16140407986111
 21
1.911573621961805
 72
     1
 10
18.16140407986111
 20
1.911573621961805
 11
18.16140407986111
 21
1.934122721354167
 97
        0
 75
     2
 76
     1
 98
        0
  0
ENDBLK
  5
91
330
8E
100
AcDbEntity
  8
0
100
AcDbBlockEnd
  0
BLOCK
  5
A5
330
A3
100
AcDbEntity
  8
0
100
AcDbBlockBegin
  2
block 7
 70
     0
 71
     0
 10
0.0
 20
0.0
 30
0.0
  3
block 7
  1

  0
POLYLINE
  5
A7
330
A3
100
AcDbEntity
  8
Immeasurable Beauty
370
     0
100
AcDb2dPolyline
 66
     1
 10
0.0
 20
0.0
 30
0.0
  0
VERTEX
  5
A8
330
A7
100
AcDbEntity
  8
Immeasurable Beauty
370
     0
100
AcDbVertex
100
AcDb2dVertex
 10
19.07674153645833
 20
1.868631998697917
 30
0.0
  0
VERTEX
  5
A9
330
A7
100
AcDbEntity
  8
Immeasurable Beauty
370
     0
100
AcDbVertex
100
AcDb2dVertex
 10
19.10630967881944
 20
1.934122721354167
 30
0.0
  0
VERTEX
  5
AA
330
A7
100
AcDbEntity
  8
Immeasurable Beauty
370
     0
100
AcDbVertex
100
AcDb2dVertex
 10
19.12041558159722
 20
1.934122721354167
 30
0.0
  0
VERTEX
  5
AB
330
A7
100
AcDbEntity
  8
Immeasurable Beauty
370
     0
100
AcDbVertex
100
AcDb2dVertex
 10
19.09052191840278
 20
1.868631998697917
 30
0.0
  0
VERTEX
  5
AC
330
A7
100
AcDbEntity
  8
Immeasurable Beauty
370
     0
100
AcDbVertex
100
AcDb2dVertex
 10
19.11363389756944
 20
1.868631998697917
 30
0.0
  0
VERTEX
  5
AD
330
A7
100
AcDbEntity
  8
Immeasurable Beauty
370
     0
100
AcDbVertex
100
AcDb2dVertex
 10
19.11363389756944
 20
1.894944932725694
 30
0.0
  0
VERTEX
  5
AE
330
A7
100
AcDbEntity
  8
Immeasurable Beauty
370
     0
100
AcDbVertex
100
AcDb2dVertex
 10
19.12627495659722
 20
1.894944932725694
 30
0.0
  0
VERTEX
  5
AF
330
A7
100
AcDbEntity
  8
Immeasurable Beauty
370
     0
100
AcDbVertex
100
AcDb2dVertex
 10
19.12627495659722
 20
1.868631998697917
 30
0.0
  0
VERTEX
  5
B0
330
A7
100
AcDbEntity
  8
Immeasurable Beauty
370
     0
100
AcDbVertex
100
AcDb2dVertex
 10
19.13338216145833
 20
1.868631998697917
 30
0.0
  0
VERTEX
  5
B1
330
A7
100
AcDbEntity
  8
Immeasurable Beauty
370
     0
100
AcDbVertex
100
AcDb2dVertex
 10
19.13338216145833
 20
1.856370713975694
 30
0.0
  0
VERTEX
  5
B2
330
A7
100
AcDbEntity
  8
Immeasurable Beauty
370
     0
100
AcDbVertex
100
AcDb2dVertex
 10
19.12627495659722
 20
1.856370713975694
 30
0.0
  0
VERTEX
  5
B3
330
A7
100
AcDbEntity
  8
Immeasurable Beauty
370
     0
100
AcDbVertex
100
AcDb2dVertex
 10
19.12627495659722
 20
1.842759874131944
 30
0.0
  0
VERTEX
  5
B4
330
A7
100
AcDbEntity
  8
Immeasurable Beauty
370
     0
100
AcDbVertex
100
AcDb2dVertex
 10
19.11363389756944
 20
1.842759874131944
 30
0.0
  0
VERTEX
  5
B5
330
A7
100
AcDbEntity
  8
Immeasurable Beauty
370
     0
100
AcDbVertex
100
AcDb2dVertex
 10
19.11363389756944
 20
1.856357150607639
 30
0.0
  0
VERTEX
  5
B6
330
A7
100
AcDbEntity
  8
Immeasurable Beauty
370
     0
100
AcDbVertex
100
AcDb2dVertex
 10
19.07674153645833
 20
1.856370713975694
 30
0.0
  0
VERTEX
  5
B7
330
A7
100
AcDbEntity
  8
Immeasurable Beauty
370
     0
100
AcDbVertex
100
AcDb2dVertex
 10
19.07674153645833
 20
1.868631998697917
 30
0.0
  0
SEQEND
  5
B8
330
A7
100
AcDbEntity
  8
Immeasurable Beauty
370
     0
  0
HATCH
  5
B9
330
A3
100
AcDbEntity
  8
Immeasurable Beauty
 62
   179
420
  2301728
100
AcDbHatch
 10
0.0
 20
0.0
 30
0.0
210
0.0
220
0.0
230
1.0
  2
SOLID
 70
     1
 71
     0
 91
        1
 92
        1
 93
       15
 72
     1
 10
19.07674153645833
 20
1.868631998697917
 11
19.10630967881944
 21
1.934122721354167
 72
     1
 10
19.10630967881944
 20
1.934122721354167
 11
19.12041558159722
 21
1.934122721354167
 72
     1
 10
19.12041558159722
 20
1.934122721354167
 11
19.09052191840278
 21
1.868631998697917
 72
     1
 10
19.09052191840278
 20
1.868631998697917
 11
19.11363389756944
 21
1.868631998697917
 72
     1
 10
19.11363389756944
 20
1.868631998697917
 11
19.11363389756944
 21
1.894944932725694
 72
     1
 10
19.11363389756944
 20
1.894944932725694
 11
19.12627495659722
 21
1.894944932725694
 72
     1
 10
19.12627495659722
 20
1.894944932725694
 11
19.12627495659722
 21
1.868631998697917
 72
     1
 10
19.12627495659722
 20
1.868631998697917
 11
19.13338216145833
 21
1.868631998697917
 72
     1
 10
19.13338216145833
 20
1.868631998697917
 11
19.13338216145833
 21
1.856370713975694
 72
     1
 10
19.13338216145833
 20
1.856370713975694
 11
19.12627495659722
 21
1.856370713975694
 72
     1
 10
19.12627495659722
 20
1.856370713975694
 11
19.12627495659722
 21
1.842759874131944
 72
     1
 10
19.12627495659722
 20
1.842759874131944
 11
19.11363389756944
 21
1.842759874131944
 72
     1
 10
19.11363389756944
 20
1.842759874131944
 11
19.11363389756944
 21
1.856357150607639
 72
     1
 10
19.11363389756944
 20
1.856357150607639
 11
19.07674153645833
 21
1.856370713975694
 72
     1
 10
19.07674153645833
 20
1.856370713975694
 11
19.07674153645833
 21
1.868631998697917
 97
        0
 75
     2
 76
     1
 98
        0
  0
POLYLINE
  5
BA
330
A3
100
AcDbEntity
  8
Immeasurable Beauty
370
     0
100
AcDb2dPolyline
 66
     1
 10
0.0
 20
0.0
 30
0.0
  0
VERTEX
  5
BB
330
BA
100
AcDbEntity
  8
Immeasurable Beauty
370
     0
100
AcDbVertex
100
AcDb2dVertex
 10
19.14152018229166
 20
1.934122721354167
 30
0.0
  0
VERTEX
  5
BC
330
BA
100
AcDbEntity
  8
Immeasurable Beauty
370
     0
100
AcDbVertex
100
AcDb2dVertex
 10
19.15416124131944
 20
1.934122721354167
 30
0.0
  0
VERTEX
  5
BD
330
BA
100
AcDbEntity
  8
Immeasurable Beauty
370
     0
100
AcDbVertex
100
AcDb2dVertex
 10
19.15416124131944
 20
1.921027289496528
 30
0.0
  0
VERTEX
  5
BE
330
BA
100
AcDbEntity
  8
Immeasurable Beauty
370
     0
100
AcDbVertex
100
AcDb2dVertex
 10
19.14152018229166
 20
1.911573621961805
 30
0.0
  0
VERTEX
  5
BF
330
BA
100
AcDbEntity
  8
Immeasurable Beauty
370
     0
100
AcDbVertex
100
AcDb2dVertex
 10
19.14152018229166
 20
1.934122721354167
 30
0.0
  0
SEQEND
  5
C0
330
BA
100
AcDbEntity
  8
Immeasurable Beauty
370
     0
  0
POLYLINE
  5
C1
330
A3
100
AcDbEntity
  8
Immeasurable Beauty
370
     0
100
AcDb2dPolyline
 66
     1
 10
0.0
 20
0.0
 30
0.0
  0
VERTEX
  5
C2
330
C1
100
AcDbEntity
  8
Immeasurable Beauty
370
     0
100
AcDbVertex
100
AcDb2dVertex
 10
19.161376953125
 20
1.934122721354167
 30
0.0
  0
VERTEX
  5
C3
330
C1
100
AcDbEntity
  8
Immeasurable Beauty
370
     0
100
AcDbVertex
100
AcDb2dVertex
 10
19.17404513888889
 20
1.934122721354167
 30
0.0
  0
VERTEX
  5
C4
330
C1
100
AcDbEntity
  8
Immeasurable Beauty
370
     0
100
AcDbVertex
100
AcDb2dVertex
 10
19.17404513888889
 20
1.921027289496528
 30
0.0
  0
VERTEX
  5
C5
330
C1
100
AcDbEntity
  8
Immeasurable Beauty
370
     0
100
AcDbVertex
100
AcDb2dVertex
 10
19.161376953125
 20
1.911573621961805
 30
0.0
  0
VERTEX
  5
C6
330
C1
100
AcDbEntity
  8
Immeasurable Beauty
370
     0
100
AcDbVertex
100
AcDb2dVertex
 10
19.161376953125
 20
1.934122721354167
 30
0.0
  0
SEQEND
  5
C7
330
C1
100
AcDbEntity
  8
Immeasurable Beauty
370
     0
  0
HATCH
  5
C8
330
A3
100
AcDbEntity
  8
Immeasurable Beauty
 62
   179
420
  2301728
100
AcDbHatch
 10
0.0
 20
0.0
 30
0.0
210
0.0
220
0.0
230
1.0
  2
SOLID
 70
     1
 71
     0
 91
        2
 92
        1
 93
        4
 72
     1
 10
19.14152018229166
 20
1.934122721354167
 11
19.15416124131944
 21
1.934122721354167
 72
     1
 10
19.15416124131944
 20
1.934122721354167
 11
19.15416124131944
 21
1.921027289496528
 72
     1
 10
19.15416124131944
 20
1.921027289496528
 11
19.14152018229166
 21
1.911573621961805
 72
     1
 10
19.14152018229166
 20
1.911573621961805
 11
19.14152018229166
 21
1.934122721354167
 97
        0
 92
        1
 93
        4
 72
     1
 10
19.161376953125
 20
1.934122721354167
 11
19.17404513888889
 21
1.934122721354167
 72
     1
 10
19.17404513888889
 20
1.934122721354167
 11
19.17404513888889
 21
1.921027289496528
 72
     1
 10
19.17404513888889
 20
1.921027289496528
 11
19.161376953125
 21
1.911573621961805
 72
     1
 10
19.161376953125
 20
1.911573621961805
 11
19.161376953125
 21
1.934122721354167
 97
        0
 75
     2
 76
     1
 98
        0
  0
ENDBLK
  5
A6
330
A3
100
AcDbEntity
  8
0
100
AcDbBlockEnd
  0
BLOCK
  5
CB
330
C9
100
AcDbEntity
  8
0
100
AcDbBlockBegin
  2
block 8
 70
     0
 71
     0
 10
0.0
 20
0.0
 30
0.0
  3
block 8
  1

  0
SPLINE
  5
CD
330
C9
100
AcDbEntity
  8
Immeasurable Beauty
370
     0
100
AcDbSpline
210
0.0
220
0.0
230
1.0
 70
    11
 71
     3
 72
    92
 73
    88
 74
     0
 42
0.0000000001
 43
0.0000000001
 40
0.0
 40
0.0
 40
0.0
 40
0.0
 40
1.0
 40
1.0
 40
1.0
 40
2.0
 40
2.0
 40
2.0
 40
3.0
 40
3.0
 40
3.0
 40
4.0
 40
4.0
 40
4.0
 40
5.0
 40
5.0
 40
5.0
 40
6.0
 40
6.0
 40
6.0
 40
7.0
 40
7.0
 40
7.0
 40
8.0
 40
8.0
 40
8.0
 40
9.0
 40
9.0
 40
9.0
 40
10.0
 40
10.0
 40
10.0
 40
11.0
 40
11.0
 40
11.0
 40
12.0
 40
12.0
 40
12.0
 40
13.0
 40
13.0
 40
13.0
 40
14.0
 40
14.0
 40
14.0
 40
15.0
 40
15.0
 40
15.0
 40
16.0
 40
16.0
 40
16.0
 40
17.0
 40
17.0
 40
17.0
 40
18.0
 40
18.0
 40
18.0
 40
19.0
 40
19.0
 40
19.0
 40
20.0
 40
20.0
 40
20.0
 40
21.0
 40
21.0
 40
21.0
 40
22.0
 40
22.0
 40
22.0
 40
23.0
 40
23.0
 40
23.0
 40
24.0
 40
24.0
 40
24.0
 40
25.0
 40
25.0
 40
25.0
 40
26.0
 40
26.0
 40
26.0
 40
27.0
 40
27.0
 40
27.0
 40
28.0
 40
28.0
 40
28.0
 40
29.0
 40
29.0
 40
29.0
 40
29.0
 10
20.06187608506944
 20
1.934007432725694
 30
0.0
 10
20.06187608506944
 20
1.934007432725694
 30
0.0
 10
20.10904947916666
 20
1.934007432725694
 30
0.0
 10
20.10904947916666
 20
1.934007432725694
 30
0.0
 10
20.10904947916666
 20
1.934007432725694
 30
0.0
 10
20.10904947916666
 20
1.920986599392361
 30
0.0
 10
20.10904947916666
 20
1.920986599392361
 30
0.0
 10
20.10904947916666
 20
1.920986599392361
 30
0.0
 10
20.07378472222222
 20
1.920986599392361
 30
0.0
 10
20.07378472222222
 20
1.920986599392361
 30
0.0
 10
20.07378472222222
 20
1.920986599392361
 30
0.0
 10
20.07378472222222
 20
1.900160047743055
 30
0.0
 10
20.07378472222222
 20
1.900160047743055
 30
0.0
 10
20.07792154947916
 20
1.90350341796875
 30
0.0
 10
20.0826416015625
 20
1.905171712239583
 30
0.0
 10
20.08797200520833
 20
1.905171712239583
 30
0.0
 10
20.09137641059028
 20
1.90509033203125
 30
0.0
 10
20.09449598524305
 20
1.904466417100694
 30
0.0
 10
20.09733072916666
 20
1.903306749131944
 30
0.0
 10
20.10001627604166
 20
1.902011447482639
 30
0.0
 10
20.10219997829861
 20
1.900424533420139
 30
0.0
 10
20.10385470920139
 20
1.898546006944444
 30
0.0
 10
20.10630967881944
 20
1.896036783854167
 30
0.0
 10
20.10808648003472
 20
1.893134223090278
 30
0.0
 10
20.10918511284722
 20
1.88983154296875
 30
0.0
 10
20.1097412109375
 20
1.888034396701389
 30
0.0
 10
20.11014811197916
 20
1.885843912760417
 30
0.0
 10
20.11037868923611
 20
1.883253309461805
 30
0.0
 10
20.11063639322916
 20
1.880622016059028
 30
0.0
 10
20.11075846354166
 20
1.877387152777778
 30
0.0
 10
20.11075846354166
 20
1.873541937934028
 30
0.0
 10
20.11075846354166
 20
1.867621527777778
 30
0.0
 10
20.11033799913194
 20
1.863064236111111
 30
0.0
 10
20.10953776041666
 20
1.859890407986111
 30
0.0
 10
20.10869683159722
 20
1.856757269965278
 30
0.0
 10
20.10727267795139
 20
1.853976779513889
 30
0.0
 10
20.10527886284722
 20
1.851555718315972
 30
0.0
 10
20.10355631510416
 20
1.849188910590278
 30
0.0
 10
20.10101996527778
 20
1.847025553385417
 30
0.0
 10
20.09771050347222
 20
1.845072428385417
 30
0.0
 10
20.09446885850694
 20
1.843031141493055
 30
0.0
 10
20.09061686197916
 20
1.84197998046875
 30
0.0
 10
20.08616807725694
 20
1.841898600260417
 30
0.0
 10
20.08017306857639
 20
1.841898600260417
 30
0.0
 10
20.07467990451389
 20
1.843736436631944
 30
0.0
 10
20.06971571180555
 20
1.847398546006944
 30
0.0
 10
20.06464301215278
 20
1.851148817274305
 30
0.0
 10
20.06150987413194
 20
1.857218424479167
 30
0.0
 10
20.06028917100694
 20
1.8656005859375
 30
0.0
 10
20.06028917100694
 20
1.8656005859375
 30
0.0
 10
20.072998046875
 20
1.8656005859375
 30
0.0
 10
20.072998046875
 20
1.8656005859375
 30
0.0
 10
20.07436794704861
 20
1.858561197916667
 30
0.0
 10
20.07861328125
 20
1.855000813802083
 30
0.0
 10
20.08570692274305
 20
1.85491943359375
 30
0.0
 10
20.0887451171875
 20
1.85491943359375
 30
0.0
 10
20.09117296006944
 20
1.855556911892361
 30
0.0
 10
20.09300401475694
 20
1.8568115234375
 30
0.0
 10
20.09474012586805
 20
1.858018663194444
 30
0.0
 10
20.09596082899305
 20
1.859605577256944
 30
0.0
 10
20.09665256076389
 20
1.861585828993055
 30
0.0
 10
20.09737141927083
 20
1.863545735677083
 30
0.0
 10
20.09783257378472
 20
1.865675184461805
 30
0.0
 10
20.09798177083333
 20
1.867987738715278
 30
0.0
 10
20.09806315104166
 20
1.8702392578125
 30
0.0
 10
20.09810384114583
 20
1.872443305121528
 30
0.0
 10
20.09810384114583
 20
1.87457275390625
 30
0.0
 10
20.09818522135416
 20
1.879808213975694
 30
0.0
 10
20.09738498263889
 20
1.884060329861111
 30
0.0
 10
20.09573025173611
 20
1.8873291015625
 30
0.0
 10
20.09483506944444
 20
1.888875325520833
 30
0.0
 10
20.09351942274305
 20
1.890102810329861
 30
0.0
 10
20.09176974826389
 20
1.891025119357639
 30
0.0
 10
20.09002007378472
 20
1.891777886284722
 30
0.0
 10
20.08784993489583
 20
1.892164442274305
 30
0.0
 10
20.08524576822916
 20
1.892164442274305
 30
0.0
 10
20.08292643229166
 20
1.892164442274305
 30
0.0
 10
20.080810546875
 20
1.891608344184028
 30
0.0
 10
20.07891167534722
 20
1.890523274739583
 30
0.0
 10
20.07698567708333
 20
1.889397515190972
 30
0.0
 10
20.07529025607639
 20
1.887430826822917
 30
0.0
 10
20.07378472222222
 20
1.884623209635417
 30
0.0
 10
20.07378472222222
 20
1.884623209635417
 30
0.0
 10
20.06187608506944
 20
1.884623209635417
 30
0.0
 10
20.06187608506944
 20
1.884623209635417
 30
0.0
 10
20.06187608506944
 20
1.884623209635417
 30
0.0
 10
20.06187608506944
 20
1.934007432725694
 30
0.0
 10
20.06187608506944
 20
1.934007432725694
 30
0.0
  0
HATCH
  5
CE
330
C9
100
AcDbEntity
  8
Immeasurable Beauty
 62
   179
420
  2301728
100
AcDbHatch
 10
0.0
 20
0.0
 30
0.0
210
0.0
220
0.0
230
1.0
  2
SOLID
 70
     1
 71
     0
 91
        1
 92
        1
 93
        1
 72
     4
 94
        3
 73
     0
 74
     1
 95
       92
 96
       88
 40
0.0
 40
0.0
 40
0.0
 40
0.0
 40
1.0
 40
1.0
 40
1.0
 40
2.0
 40
2.0
 40
2.0
 40
3.0
 40
3.0
 40
3.0
 40
4.0
 40
4.0
 40
4.0
 40
5.0
 40
5.0
 40
5.0
 40
6.0
 40
6.0
 40
6.0
 40
7.0
 40
7.0
 40
7.0
 40
8.0
 40
8.0
 40
8.0
 40
9.0
 40
9.0
 40
9.0
 40
10.0
 40
10.0
 40
10.0
 40
11.0
 40
11.0
 40
11.0
 40
12.0
 40
12.0
 40
12.0
 40
13.0
 40
13.0
 40
13.0
 40
14.0
 40
14.0
 40
14.0
 40
15.0
 40
15.0
 40
15.0
 40
16.0
 40
16.0
 40
16.0
 40
17.0
 40
17.0
 40
17.0
 40
18.0
 40
18.0
 40
18.0
 40
19.0
 40
19.0
 40
19.0
 40
20.0
 40
20.0
 40
20.0
 40
21.0
 40
21.0
 40
21.0
 40
22.0
 40
22.0
 40
22.0
 40
23.0
 40
23.0
 40
23.0
 40
24.0
 40
24.0
 40
24.0
 40
25.0
 40
25.0
 40
25.0
 40
26.0
 40
26.0
 40
26.0
 40
27.0
 40
27.0
 40
27.0
 40
28.0
 40
28.0
 40
28.0
 40
29.0
 40
29.0
 40
29.0
 40
29.0
 10
20.06187608506944
 20
1.934007432725694
 10
20.06187608506944
 20
1.934007432725694
 10
20.10904947916666
 20
1.934007432725694
 10
20.10904947916666
 20
1.934007432725694
 10
20.10904947916666
 20
1.934007432725694
 10
20.10904947916666
 20
1.920986599392361
 10
20.10904947916666
 20
1.920986599392361
 10
20.10904947916666
 20
1.920986599392361
 10
20.07378472222222
 20
1.920986599392361
 10
20.07378472222222
 20
1.920986599392361
 10
20.07378472222222
 20
1.920986599392361
 10
20.07378472222222
 20
1.900160047743055
 10
20.07378472222222
 20
1.900160047743055
 10
20.07792154947916
 20
1.90350341796875
 10
20.0826416015625
 20
1.905171712239583
 10
20.08797200520833
 20
1.905171712239583
 10
20.09137641059028
 20
1.90509033203125
 10
20.09449598524305
 20
1.904466417100694
 10
20.09733072916666
 20
1.903306749131944
 10
20.10001627604166
 20
1.902011447482639
 10
20.10219997829861
 20
1.900424533420139
 10
20.10385470920139
 20
1.898546006944444
 10
20.10630967881944
 20
1.896036783854167
 10
20.10808648003472
 20
1.893134223090278
 10
20.10918511284722
 20
1.88983154296875
 10
20.1097412109375
 20
1.888034396701389
 10
20.11014811197916
 20
1.885843912760417
 10
20.11037868923611
 20
1.883253309461805
 10
20.11063639322916
 20
1.880622016059028
 10
20.11075846354166
 20
1.877387152777778
 10
20.11075846354166
 20
1.873541937934028
 10
20.11075846354166
 20
1.867621527777778
 10
20.11033799913194
 20
1.863064236111111
 10
20.10953776041666
 20
1.859890407986111
 10
20.10869683159722
 20
1.856757269965278
 10
20.10727267795139
 20
1.853976779513889
 10
20.10527886284722
 20
1.851555718315972
 10
20.10355631510416
 20
1.849188910590278
 10
20.10101996527778
 20
1.847025553385417
 10
20.09771050347222
 20
1.845072428385417
 10
20.09446885850694
 20
1.843031141493055
 10
20.09061686197916
 20
1.84197998046875
 10
20.08616807725694
 20
1.841898600260417
 10
20.08017306857639
 20
1.841898600260417
 10
20.07467990451389
 20
1.843736436631944
 10
20.06971571180555
 20
1.847398546006944
 10
20.06464301215278
 20
1.851148817274305
 10
20.06150987413194
 20
1.857218424479167
 10
20.06028917100694
 20
1.8656005859375
 10
20.06028917100694
 20
1.8656005859375
 10
20.072998046875
 20
1.8656005859375
 10
20.072998046875
 20
1.8656005859375
 10
20.07436794704861
 20
1.858561197916667
 10
20.07861328125
 20
1.855000813802083
 10
20.08570692274305
 20
1.85491943359375
 10
20.0887451171875
 20
1.85491943359375
 10
20.09117296006944
 20
1.855556911892361
 10
20.09300401475694
 20
1.8568115234375
 10
20.09474012586805
 20
1.858018663194444
 10
20.09596082899305
 20
1.859605577256944
 10
20.09665256076389
 20
1.861585828993055
 10
20.09737141927083
 20
1.863545735677083
 10
20.09783257378472
 20
1.865675184461805
 10
20.09798177083333
 20
1.867987738715278
 10
20.09806315104166
 20
1.8702392578125
 10
20.09810384114583
 20
1.872443305121528
 10
20.09810384114583
 20
1.87457275390625
 10
20.09818522135416
 20
1.879808213975694
 10
20.09738498263889
 20
1.884060329861111
 10
20.09573025173611
 20
1.8873291015625
 10
20.09483506944444
 20
1.888875325520833
 10
20.09351942274305
 20
1.890102810329861
 10
20.09176974826389
 20
1.891025119357639
 10
20.09002007378472
 20
1.891777886284722
 10
20.08784993489583
 20
1.892164442274305
 10
20.08524576822916
 20
1.892164442274305
 10
20.08292643229166
 20
1.892164442274305
 10
20.080810546875
 20
1.891608344184028
 10
20.07891167534722
 20
1.890523274739583
 10
20.07698567708333
 20
1.889397515190972
 10
20.07529025607639
 20
1.887430826822917
 10
20.07378472222222
 20
1.884623209635417
 10
20.07378472222222
 20
1.884623209635417
 10
20.06187608506944
 20
1.884623209635417
 10
20.06187608506944
 20
1.884623209635417
 10
20.06187608506944
 20
1.884623209635417
 10
20.06187608506944
 20
1.934007432725694
 10
20.06187608506944
 20
1.934007432725694
 97
        0
 75
     2
 76
     1
 98
        0
  0
POLYLINE
  5
CF
330
C9
100
AcDbEntity
  8
Immeasurable Beauty
370
     0
100
AcDb2dPolyline
 66
     1
 10
0.0
 20
0.0
 30
0.0
  0
VERTEX
  5
D0
330
CF
100
AcDbEntity
  8
Immeasurable Beauty
370
     0
100
AcDbVertex
100
AcDb2dVertex
 10
20.12197536892361
 20
1.934007432725694
 30
0.0
  0
VERTEX
  5
D1
330
CF
100
AcDbEntity
  8
Immeasurable Beauty
370
     0
100
AcDbVertex
100
AcDb2dVertex
 10
20.13462999131944
 20
1.934007432725694
 30
0.0
  0
VERTEX
  5
D2
330
CF
100
AcDbEntity
  8
Immeasurable Beauty
370
     0
100
AcDbVertex
100
AcDb2dVertex
 10
20.13462999131944
 20
1.920912000868055
 30
0.0
  0
VERTEX
  5
D3
330
CF
100
AcDbEntity
  8
Immeasurable Beauty
370
     0
100
AcDbVertex
100
AcDb2dVertex
 10
20.12197536892361
 20
1.911465115017361
 30
0.0
  0
VERTEX
  5
D4
330
CF
100
AcDbEntity
  8
Immeasurable Beauty
370
     0
100
AcDbVertex
100
AcDb2dVertex
 10
20.12197536892361
 20
1.934007432725694
 30
0.0
  0
SEQEND
  5
D5
330
CF
100
AcDbEntity
  8
Immeasurable Beauty
370
     0
  0
POLYLINE
  5
D6
330
C9
100
AcDbEntity
  8
Immeasurable Beauty
370
     0
100
AcDb2dPolyline
 66
     1
 10
0.0
 20
0.0
 30
0.0
  0
VERTEX
  5
D7
330
D6
100
AcDbEntity
  8
Immeasurable Beauty
370
     0
100
AcDbVertex
100
AcDb2dVertex
 10
20.141845703125
 20
1.934007432725694
 30
0.0
  0
VERTEX
  5
D8
330
D6
100
AcDbEntity
  8
Immeasurable Beauty
370
     0
100
AcDbVertex
100
AcDb2dVertex
 10
20.15450032552083
 20
1.934007432725694
 30
0.0
  0
VERTEX
  5
D9
330
D6
100
AcDbEntity
  8
Immeasurable Beauty
370
     0
100
AcDbVertex
100
AcDb2dVertex
 10
20.15450032552083
 20
1.920912000868055
 30
0.0
  0
VERTEX
  5
DA
330
D6
100
AcDbEntity
  8
Immeasurable Beauty
370
     0
100
AcDbVertex
100
AcDb2dVertex
 10
20.141845703125
 20
1.911465115017361
 30
0.0
  0
VERTEX
  5
DB
330
D6
100
AcDbEntity
  8
Immeasurable Beauty
370
     0
100
AcDbVertex
100
AcDb2dVertex
 10
20.141845703125
 20
1.934007432725694
 30
0.0
  0
SEQEND
  5
DC
330
D6
100
AcDbEntity
  8
Immeasurable Beauty
370
     0
  0
HATCH
  5
DD
330
C9
100
AcDbEntity
  8
Immeasurable Beauty
 62
   179
420
  2301728
100
AcDbHatch
 10
0.0
 20
0.0
 30
0.0
210
0.0
220
0.0
230
1.0
  2
SOLID
 70
     1
 71
     0
 91
        2
 92
        1
 93
        4
 72
     1
 10
20.12197536892361
 20
1.934007432725694
 11
20.13462999131944
 21
1.934007432725694
 72
     1
 10
20.13462999131944
 20
1.934007432725694
 11
20.13462999131944
 21
1.920912000868055
 72
     1
 10
20.13462999131944
 20
1.920912000868055
 11
20.12197536892361
 21
1.911465115017361
 72
     1
 10
20.12197536892361
 20
1.911465115017361
 11
20.12197536892361
 21
1.934007432725694
 97
        0
 92
        1
 93
        4
 72
     1
 10
20.141845703125
 20
1.934007432725694
 11
20.15450032552083
 21
1.934007432725694
 72
     1
 10
20.15450032552083
 20
1.934007432725694
 11
20.15450032552083
 21
1.920912000868055
 72
     1
 10
20.15450032552083
 20
1.920912000868055
 11
20.141845703125
 21
1.911465115017361
 72
     1
 10
20.141845703125
 20
1.911465115017361
 11
20.141845703125
 21
1.934007432725694
 97
        0
 75
     2
 76
     1
 98
        0
  0
ENDBLK
  5
CC
330
C9
100
AcDbEntity
  8
0
100
AcDbBlockEnd
  0
BLOCK
  5
E0
330
DE
100
AcDbEntity
  8
0
100
AcDbBlockBegin
  2
block 9
 70
     0
 71
     0
 10
0.0
 20
0.0
 30
0.0
  3
block 9
  1

  0
SPLINE
  5
E2
330
DE
100
AcDbEntity
  8
Immeasurable Beauty
370
     0
100
AcDbSpline
210
0.0
220
0.0
230
1.0
 70
    11
 71
     3
 72
    29
 73
    25
 74
     0
 42
0.0000000001
 43
0.0000000001
 40
0.0
 40
0.0
 40
0.0
 40
0.0
 40
1.0
 40
1.0
 40
1.0
 40
2.0
 40
2.0
 40
2.0
 40
3.0
 40
3.0
 40
3.0
 40
4.0
 40
4.0
 40
4.0
 40
5.0
 40
5.0
 40
5.0
 40
6.0
 40
6.0
 40
6.0
 40
7.0
 40
7.0
 40
7.0
 40
8.0
 40
8.0
 40
8.0
 40
8.0
 10
15.45877414279514
 20
2.248867458767361
 30
0.0
 10
15.42076958550347
 20
2.248867458767361
 30
0.0
 10
15.37887912326389
 20
2.219950358072917
 30
0.0
 10
15.37887912326389
 20
2.189643012152778
 30
0.0
 10
15.37887912326389
 20
2.173305935329861
 30
0.0
 10
15.38753255208333
 20
2.1676025390625
 30
0.0
 10
15.40324571397569
 20
2.1676025390625
 30
0.0
 10
15.40301513671875
 20
2.169603135850694
 30
0.0
 10
15.40001763237847
 20
2.171454535590278
 30
0.0
 10
15.40001763237847
 20
2.183057996961805
 30
0.0
 10
15.40001763237847
 20
2.2073974609375
 30
0.0
 10
15.41211615668403
 20
2.224473741319444
 30
0.0
 10
15.43189832899306
 20
2.232686360677083
 30
0.0
 10
15.43189832899306
 20
2.232686360677083
 30
0.0
 10
15.39891899956597
 20
2.078138563368055
 30
0.0
 10
15.39891899956597
 20
2.078138563368055
 30
0.0
 10
15.39891899956597
 20
2.078138563368055
 30
0.0
 10
15.43168131510417
 20
2.078138563368055
 30
0.0
 10
15.43168131510417
 20
2.078138563368055
 30
0.0
 10
15.43168131510417
 20
2.078138563368055
 30
0.0
 10
15.46787516276042
 20
2.248358832465278
 30
0.0
 10
15.46787516276042
 20
2.248358832465278
 30
0.0
 10
15.46491834852431
 20
2.248643663194444
 30
0.0
 10
15.46196153428819
 20
2.248867458767361
 30
0.0
 10
15.45877414279514
 20
2.248867458767361
 30
0.0
  0
HATCH
  5
E3
330
DE
100
AcDbEntity
  8
Immeasurable Beauty
 62
   179
420
  2301728
100
AcDbHatch
 10
0.0
 20
0.0
 30
0.0
210
0.0
220
0.0
230
1.0
  2
SOLID
 70
     1
 71
     0
 91
        1
 92
        1
 93
        1
 72
     4
 94
        3
 73
     0
 74
     1
 95
       29
 96
       25
 40
0.0
 40
0.0
 40
0.0
 40
0.0
 40
1.0
 40
1.0
 40
1.0
 40
2.0
 40
2.0
 40
2.0
 40
3.0
 40
3.0
 40
3.0
 40
4.0
 40
4.0
 40
4.0
 40
5.0
 40
5.0
 40
5.0
 40
6.0
 40
6.0
 40
6.0
 40
7.0
 40
7.0
 40
7.0
 40
8.0
 40
8.0
 40
8.0
 40
8.0
 10
15.45877414279514
 20
2.248867458767361
 10
15.42076958550347
 20
2.248867458767361
 10
15.37887912326389
 20
2.219950358072917
 10
15.37887912326389
 20
2.189643012152778
 10
15.37887912326389
 20
2.173305935329861
 10
15.38753255208333
 20
2.1676025390625
 10
15.40324571397569
 20
2.1676025390625
 10
15.40301513671875
 20
2.169603135850694
 10
15.40001763237847
 20
2.171454535590278
 10
15.40001763237847
 20
2.183057996961805
 10
15.40001763237847
 20
2.2073974609375
 10
15.41211615668403
 20
2.224473741319444
 10
15.43189832899306
 20
2.232686360677083
 10
15.43189832899306
 20
2.232686360677083
 10
15.39891899956597
 20
2.078138563368055
 10
15.39891899956597
 20
2.078138563368055
 10
15.39891899956597
 20
2.078138563368055
 10
15.43168131510417
 20
2.078138563368055
 10
15.43168131510417
 20
2.078138563368055
 10
15.43168131510417
 20
2.078138563368055
 10
15.46787516276042
 20
2.248358832465278
 10
15.46787516276042
 20
2.248358832465278
 10
15.46491834852431
 20
2.248643663194444
 10
15.46196153428819
 20
2.248867458767361
 10
15.45877414279514
 20
2.248867458767361
 97
        0
 75
     2
 76
     1
 98
        0
  0
SPLINE
  5
E4
330
DE
100
AcDbEntity
  8
Immeasurable Beauty
370
     0
100
AcDbSpline
210
0.0
220
0.0
230
1.0
 70
    11
 71
     3
 72
   374
 73
   370
 74
     0
 42
0.0000000001
 43
0.0000000001
 40
0.0
 40
0.0
 40
0.0
 40
0.0
 40
1.0
 40
1.0
 40
1.0
 40
2.0
 40
2.0
 40
2.0
 40
3.0
 40
3.0
 40
3.0
 40
4.0
 40
4.0
 40
4.0
 40
5.0
 40
5.0
 40
5.0
 40
6.0
 40
6.0
 40
6.0
 40
7.0
 40
7.0
 40
7.0
 40
8.0
 40
8.0
 40
8.0
 40
9.0
 40
9.0
 40
9.0
 40
10.0
 40
10.0
 40
10.0
 40
11.0
 40
11.0
 40
11.0
 40
12.0
 40
12.0
 40
12.0
 40
13.0
 40
13.0
 40
13.0
 40
14.0
 40
14.0
 40
14.0
 40
15.0
 40
15.0
 40
15.0
 40
16.0
 40
16.0
 40
16.0
 40
17.0
 40
17.0
 40
17.0
 40
18.0
 40
18.0
 40
18.0
 40
19.0
 40
19.0
 40
19.0
 40
20.0
 40
20.0
 40
20.0
 40
21.0
 40
21.0
 40
21.0
 40
22.0
 40
22.0
 40
22.0
 40
23.0
 40
23.0
 40
23.0
 40
24.0
 40
24.0
 40
24.0
 40
25.0
 40
25.0
 40
25.0
 40
26.0
 40
26.0
 40
26.0
 40
27.0
 40
27.0
 40
27.0
 40
28.0
 40
28.0
 40
28.0
 40
29.0
 40
29.0
 40
29.0
 40
30.0
 40
30.0
 40
30.0
 40
31.0
 40
31.0
 40
31.0
 40
32.0
 40
32.0
 40
32.0
 40
33.0
 40
33.0
 40
33.0
 40
34.0
 40
34.0
 40
34.0
 40
35.0
 40
35.0
 40
35.0
 40
36.0
 40
36.0
 40
36.0
 40
37.0
 40
37.0
 40
37.0
 40
38.0
 40
38.0
 40
38.0
 40
39.0
 40
39.0
 40
39.0
 40
40.0
 40
40.0
 40
40.0
 40
41.0
 40
41.0
 40
41.0
 40
42.0
 40
42.0
 40
42.0
 40
43.0
 40
43.0
 40
43.0
 40
44.0
 40
44.0
 40
44.0
 40
45.0
 40
45.0
 40
45.0
 40
46.0
 40
46.0
 40
46.0
 40
47.0
 40
47.0
 40
47.0
 40
48.0
 40
48.0
 40
48.0
 40
49.0
 40
49.0
 40
49.0
 40
50.0
 40
50.0
 40
50.0
 40
51.0
 40
51.0
 40
51.0
 40
52.0
 40
52.0
 40
52.0
 40
53.0
 40
53.0
 40
53.0
 40
54.0
 40
54.0
 40
54.0
 40
55.0
 40
55.0
 40
55.0
 40
56.0
 40
56.0
 40
56.0
 40
57.0
 40
57.0
 40
57.0
 40
58.0
 40
58.0
 40
58.0
 40
59.0
 40
59.0
 40
59.0
 40
60.0
 40
60.0
 40
60.0
 40
61.0
 40
61.0
 40
61.0
 40
62.0
 40
62.0
 40
62.0
 40
63.0
 40
63.0
 40
63.0
 40
64.0
 40
64.0
 40
64.0
 40
65.0
 40
65.0
 40
65.0
 40
66.0
 40
66.0
 40
66.0
 40
67.0
 40
67.0
 40
67.0
 40
68.0
 40
68.0
 40
68.0
 40
69.0
 40
69.0
 40
69.0
 40
70.0
 40
70.0
 40
70.0
 40
71.0
 40
71.0
 40
71.0
 40
72.0
 40
72.0
 40
72.0
 40
73.0
 40
73.0
 40
73.0
 40
74.0
 40
74.0
 40
74.0
 40
75.0
 40
75.0
 40
75.0
 40
76.0
 40
76.0
 40
76.0
 40
77.0
 40
77.0
 40
77.0
 40
78.0
 40
78.0
 40
78.0
 40
79.0
 40
79.0
 40
79.0
 40
80.0
 40
80.0
 40
80.0
 40
81.0
 40
81.0
 40
81.0
 40
82.0
 40
82.0
 40
82.0
 40
83.0
 40
83.0
 40
83.0
 40
84.0
 40
84.0
 40
84.0
 40
85.0
 40
85.0
 40
85.0
 40
86.0
 40
86.0
 40
86.0
 40
87.0
 40
87.0
 40
87.0
 40
88.0
 40
88.0
 40
88.0
 40
89.0
 40
89.0
 40
89.0
 40
90.0
 40
90.0
 40
90.0
 40
91.0
 40
91.0
 40
91.0
 40
92.0
 40
92.0
 40
92.0
 40
93.0
 40
93.0
 40
93.0
 40
94.0
 40
94.0
 40
94.0
 40
95.0
 40
95.0
 40
95.0
 40
96.0
 40
96.0
 40
96.0
 40
97.0
 40
97.0
 40
97.0
 40
98.0
 40
98.0
 40
98.0
 40
99.0
 40
99.0
 40
99.0
 40
100.0
 40
100.0
 40
100.0
 40
101.0
 40
101.0
 40
101.0
 40
102.0
 40
102.0
 40
102.0
 40
103.0
 40
103.0
 40
103.0
 40
104.0
 40
104.0
 40
104.0
 40
105.0
 40
105.0
 40
105.0
 40
106.0
 40
106.0
 40
106.0
 40
107.0
 40
107.0
 40
107.0
 40
108.0
 40
108.0
 40
108.0
 40
109.0
 40
109.0
 40
109.0
 40
110.0
 40
110.0
 40
110.0
 40
111.0
 40
111.0
 40
111.0
 40
112.0
 40
112.0
 40
112.0
 40
113.0
 40
113.0
 40
113.0
 40
114.0
 40
114.0
 40
114.0
 40
115.0
 40
115.0
 40
115.0
 40
116.0
 40
116.0
 40
116.0
 40
117.0
 40
117.0
 40
117.0
 40
118.0
 40
118.0
 40
118.0
 40
119.0
 40
119.0
 40
119.0
 40
120.0
 40
120.0
 40
120.0
 40
121.0
 40
121.0
 40
121.0
 40
122.0
 40
122.0
 40
122.0
 40
123.0
 40
123.0
 40
123.0
 40
123.0
 10
16.32803683810764
 20
2.1773681640625
 30
0.0
 10
16.32803683810764
 20
2.186014811197917
 30
0.0
 10
16.32189263237847
 20
2.191935221354167
 30
0.0
 10
16.3116455078125
 20
2.191935221354167
 30
0.0
 10
16.30206976996528
 20
2.191935221354167
 30
0.0
 10
16.29297553168403
 20
2.186909993489583
 30
0.0
 10
16.28476969401041
 20
2.1805419921875
 30
0.0
 10
16.28476969401041
 20
2.1805419921875
 30
0.0
 10
16.28728569878472
 20
2.191935221354167
 30
0.0
 10
16.28728569878472
 20
2.191935221354167
 30
0.0
 10
16.28728569878472
 20
2.191935221354167
 30
0.0
 10
16.25452338324653
 20
2.191935221354167
 30
0.0
 10
16.25452338324653
 20
2.191935221354167
 30
0.0
 10
16.25452338324653
 20
2.191935221354167
 30
0.0
 10
16.23748779296875
 20
2.111551920572917
 30
0.0
 10
16.23748779296875
 20
2.111551920572917
 30
0.0
 10
16.23023817274305
 20
2.105204264322917
 30
0.0
 10
16.22243923611111
 20
2.098836263020833
 30
0.0
 10
16.21599663628472
 20
2.098836263020833
 30
0.0
 10
16.2069091796875
 20
2.098836263020833
 30
0.0
 10
16.20461018880208
 20
2.102471245659722
 30
0.0
 10
16.20461018880208
 20
2.107489691840278
 30
0.0
 10
16.20461018880208
 20
2.109564887152778
 30
0.0
 10
16.20509847005208
 20
2.112074110243055
 30
0.0
 10
16.20554606119791
 20
2.114515516493055
 30
0.0
 10
16.20554606119791
 20
2.114515516493055
 30
0.0
 10
16.22191704644097
 20
2.191935221354167
 30
0.0
 10
16.22191704644097
 20
2.191935221354167
 30
0.0
 10
16.22191704644097
 20
2.191935221354167
 30
0.0
 10
16.18916829427083
 20
2.191935221354167
 30
0.0
 10
16.18916829427083
 20
2.191935221354167
 30
0.0
 10
16.18916829427083
 20
2.191935221354167
 30
0.0
 10
16.17274983723958
 20
2.114515516493055
 30
0.0
 10
16.17274983723958
 20
2.114515516493055
 30
0.0
 10
16.1720716688368
 20
2.111857096354167
 30
0.0
 10
16.171630859375
 20
2.109341091579861
 30
0.0
 10
16.17141384548611
 20
2.1070556640625
 30
0.0
 10
16.1657240125868
 20
2.102471245659722
 30
0.0
 10
16.16002739800347
 20
2.098836263020833
 30
0.0
 10
16.15521240234375
 20
2.098836263020833
 30
0.0
 10
16.14612494574653
 20
2.098836263020833
 30
0.0
 10
16.14386664496528
 20
2.102471245659722
 30
0.0
 10
16.14386664496528
 20
2.107489691840278
 30
0.0
 10
16.14386664496528
 20
2.109564887152778
 30
0.0
 10
16.14432101779514
 20
2.112074110243055
 30
0.0
 10
16.14476182725694
 20
2.114515516493055
 30
0.0
 10
16.14476182725694
 20
2.114515516493055
 30
0.0
 10
16.16118028428819
 20
2.191935221354167
 30
0.0
 10
16.16118028428819
 20
2.191935221354167
 30
0.0
 10
16.16118028428819
 20
2.191935221354167
 30
0.0
 10
16.12837727864583
 20
2.191935221354167
 30
0.0
 10
16.12837727864583
 20
2.191935221354167
 30
0.0
 10
16.12837727864583
 20
2.191935221354167
 30
0.0
 10
16.1138916015625
 20
2.123392740885417
 30
0.0
 10
16.1138916015625
 20
2.123392740885417
 30
0.0
 10
16.1138916015625
 20
2.123392740885417
 30
0.0
 10
16.11052110460069
 20
2.12774658203125
 30
0.0
 10
16.11052110460069
 20
2.12774658203125
 30
0.0
 10
16.10782199435764
 20
2.124579535590278
 30
0.0
 10
16.10213216145833
 20
2.118659125434028
 30
0.0
 10
16.09573703342014
 20
2.112955729166667
 30
0.0
 10
16.09573703342014
 20
2.112955729166667
 30
0.0
 10
16.095947265625
 20
2.117763943142361
 30
0.0
 10
16.095947265625
 20
2.117763943142361
 30
0.0
 10
16.09573703342014
 20
2.144388834635417
 30
0.0
 10
16.08050537109375
 20
2.155782063802083
 30
0.0
 10
16.08050537109375
 20
2.193345811631944
 30
0.0
 10
16.08050537109375
 20
2.193345811631944
 30
0.0
 10
16.08050537109375
 20
2.196519639756944
 30
0.0
 10
16.08050537109375
 20
2.196519639756944
 30
0.0
 10
16.08050537109375
 20
2.196519639756944
 30
0.0
 10
16.0474853515625
 20
2.189643012152778
 30
0.0
 10
16.0474853515625
 20
2.189643012152778
 30
0.0
 10
16.04359944661458
 20
2.172336154513889
 30
0.0
 10
16.03838433159722
 20
2.152079264322917
 30
0.0
 10
16.03018527560764
 20
2.137288411458333
 30
0.0
 10
16.02109103732639
 20
2.136617024739583
 30
0.0
 10
16.01288519965278
 20
2.126112196180555
 30
0.0
 10
16.01288519965278
 20
2.107272677951389
 30
0.0
 10
16.00925699869791
 20
2.102016872829861
 30
0.0
 10
16.005859375
 20
2.098836263020833
 30
0.0
 10
16.00335015190972
 20
2.098836263020833
 30
0.0
 10
15.99808756510417
 20
2.098836263020833
 30
0.0
 10
15.99628363715278
 20
2.101352267795139
 30
0.0
 10
15.99628363715278
 20
2.106160481770833
 30
0.0
 10
15.99628363715278
 20
2.108371310763889
 30
0.0
 10
15.99672444661458
 20
2.111117892795139
 30
0.0
 10
15.99742296006944
 20
2.114515516493055
 30
0.0
 10
15.99742296006944
 20
2.114515516493055
 30
0.0
 10
16.01357693142361
 20
2.191935221354167
 30
0.0
 10
16.01357693142361
 20
2.191935221354167
 30
0.0
 10
16.01357693142361
 20
2.191935221354167
 30
0.0
 10
15.98105197482639
 20
2.191935221354167
 30
0.0
 10
15.98105197482639
 20
2.191935221354167
 30
0.0
 10
15.98105197482639
 20
2.191935221354167
 30
0.0
 10
15.97967529296875
 20
2.186014811197917
 30
0.0
 10
15.97967529296875
 20
2.186014811197917
 30
0.0
 10
15.97557915581597
 20
2.189432779947917
 30
0.0
 10
15.96988254123264
 20
2.191718207465278
 30
0.0
 10
15.96441650390625
 20
2.191718207465278
 30
0.0
 10
15.92609998914931
 20
2.191718207465278
 30
0.0
 10
15.91016981336806
 20
2.158440483940972
 30
0.0
 10
15.90607367621528
 20
2.124579535590278
 30
0.0
 10
15.90607367621528
 20
2.124579535590278
 30
0.0
 10
15.89881727430556
 20
2.124579535590278
 30
0.0
 10
15.89881727430556
 20
2.124579535590278
 30
0.0
 10
15.890869140625
 20
2.107706705729167
 30
0.0
 10
15.87175157335069
 20
2.094550238715278
 30
0.0
 10
15.86058213975694
 20
2.094550238715278
 30
0.0
 10
15.85170491536458
 20
2.094550238715278
 30
0.0
 10
15.8419189453125
 20
2.099066840277778
 30
0.0
 10
15.8419189453125
 20
2.11407470703125
 30
0.0
 10
15.8419189453125
 20
2.116807725694444
 30
0.0
 10
15.84214274088542
 20
2.120212131076389
 30
0.0
 10
15.84261745876736
 20
2.123908148871528
 30
0.0
 10
15.86423746744792
 20
2.126641167534722
 30
0.0
 10
15.89403618706597
 20
2.142537434895833
 30
0.0
 10
15.89403618706597
 20
2.170342339409722
 30
0.0
 10
15.89403618706597
 20
2.186238606770833
 30
0.0
 10
15.88358561197917
 20
2.194017198350694
 30
0.0
 10
15.86491563585069
 20
2.194017198350694
 30
0.0
 10
15.82349989149306
 20
2.194017198350694
 30
0.0
 10
15.81119113498264
 20
2.143208821614583
 30
0.0
 10
15.81119113498264
 20
2.114298502604167
 30
0.0
 10
15.81119113498264
 20
2.112440321180555
 30
0.0
 10
15.81181504991319
 20
2.110812717013889
 30
0.0
 10
15.81201171875
 20
2.109042697482639
 30
0.0
 10
15.80705430772569
 20
2.102471245659722
 30
0.0
 10
15.80114067925347
 20
2.096767849392361
 30
0.0
 10
15.79530164930556
 20
2.096767849392361
 30
0.0
 10
15.78801133897569
 20
2.096767849392361
 30
0.0
 10
15.78598361545139
 20
2.100911458333333
 30
0.0
 10
15.78598361545139
 20
2.106160481770833
 30
0.0
 10
15.78598361545139
 20
2.108893500434028
 30
0.0
 10
15.78642442491319
 20
2.111857096354167
 30
0.0
 10
15.78708902994792
 20
2.114515516493055
 30
0.0
 10
15.78708902994792
 20
2.114515516493055
 30
0.0
 10
15.79644775390625
 20
2.157999674479167
 30
0.0
 10
15.79644775390625
 20
2.157999674479167
 30
0.0
 10
15.79666476779514
 20
2.159830729166667
 30
0.0
 10
15.79689534505208
 20
2.161465115017361
 30
0.0
 10
15.79689534505208
 20
2.163248697916667
 30
0.0
 10
15.79689534505208
 20
2.178778754340278
 30
0.0
 10
15.78323703342014
 20
2.191935221354167
 30
0.0
 10
15.77070448133681
 20
2.191935221354167
 30
0.0
 10
15.75954182942708
 20
2.191935221354167
 30
0.0
 10
15.74748399522569
 20
2.184909396701389
 30
0.0
 10
15.73747422960069
 20
2.176920572916667
 30
0.0
 10
15.73246934678819
 20
2.185804578993055
 30
0.0
 10
15.72339545355903
 20
2.191935221354167
 30
0.0
 10
15.71495225694444
 20
2.191935221354167
 30
0.0
 10
15.70515950520833
 20
2.191935221354167
 30
0.0
 10
15.69469536675347
 20
2.186455620659722
 30
0.0
 10
15.68558756510417
 20
2.17987060546875
 30
0.0
 10
15.68558756510417
 20
2.17987060546875
 30
0.0
 10
15.68807644314236
 20
2.191935221354167
 30
0.0
 10
15.68807644314236
 20
2.191935221354167
 30
0.0
 10
15.68807644314236
 20
2.191935221354167
 30
0.0
 10
15.65532090928819
 20
2.191935221354167
 30
0.0
 10
15.65532090928819
 20
2.191935221354167
 30
0.0
 10
15.65532090928819
 20
2.191935221354167
 30
0.0
 10
15.63772243923611
 20
2.108968098958333
 30
0.0
 10
15.63772243923611
 20
2.108968098958333
 30
0.0
 10
15.63276502821181
 20
2.102471245659722
 30
0.0
 10
15.62685139973958
 20
2.096767849392361
 30
0.0
 10
15.62100558810764
 20
2.096767849392361
 30
0.0
 10
15.61371527777778
 20
2.096767849392361
 30
0.0
 10
15.61168755425347
 20
2.100911458333333
 30
0.0
 10
15.61168755425347
 20
2.106160481770833
 30
0.0
 10
15.61168755425347
 20
2.108893500434028
 30
0.0
 10
15.61213514539931
 20
2.111857096354167
 30
0.0
 10
15.61278618706597
 20
2.114515516493055
 30
0.0
 10
15.61278618706597
 20
2.114515516493055
 30
0.0
 10
15.62215169270833
 20
2.157999674479167
 30
0.0
 10
15.62215169270833
 20
2.157999674479167
 30
0.0
 10
15.62238226996528
 20
2.159830729166667
 30
0.0
 10
15.62260606553819
 20
2.161465115017361
 30
0.0
 10
15.62260606553819
 20
2.163248697916667
 30
0.0
 10
15.62260606553819
 20
2.178778754340278
 30
0.0
 10
15.60894775390625
 20
2.191935221354167
 30
0.0
 10
15.59641520182292
 20
2.191935221354167
 30
0.0
 10
15.58526611328125
 20
2.191935221354167
 30
0.0
 10
15.57320827907986
 20
2.184909396701389
 30
0.0
 10
15.56318495008681
 20
2.176920572916667
 30
0.0
 10
15.55819363064236
 20
2.185804578993055
 30
0.0
 10
15.54910617404514
 20
2.191935221354167
 30
0.0
 10
15.54067654079861
 20
2.191935221354167
 30
0.0
 10
15.53087022569444
 20
2.191935221354167
 30
0.0
 10
15.52039930555556
 20
2.186455620659722
 30
0.0
 10
15.51131863064236
 20
2.17987060546875
 30
0.0
 10
15.51131863064236
 20
2.17987060546875
 30
0.0
 10
15.51380072699653
 20
2.191935221354167
 30
0.0
 10
15.51380072699653
 20
2.191935221354167
 30
0.0
 10
15.51380072699653
 20
2.191935221354167
 30
0.0
 10
15.48103162977431
 20
2.191935221354167
 30
0.0
 10
15.48103162977431
 20
2.191935221354167
 30
0.0
 10
15.48103162977431
 20
2.191935221354167
 30
0.0
 10
15.45689561631944
 20
2.078138563368055
 30
0.0
 10
15.45689561631944
 20
2.078138563368055
 30
0.0
 10
15.45689561631944
 20
2.078138563368055
 30
0.0
 10
15.48968505859375
 20
2.078138563368055
 30
0.0
 10
15.48968505859375
 20
2.078138563368055
 30
0.0
 10
15.48968505859375
 20
2.078138563368055
 30
0.0
 10
15.50925021701389
 20
2.170118543836805
 30
0.0
 10
15.50925021701389
 20
2.170118543836805
 30
0.0
 10
15.51380072699653
 20
2.173305935329861
 30
0.0
 10
15.51767985026042
 20
2.174852159288194
 30
0.0
 10
15.52314588758681
 20
2.174852159288194
 30
0.0
 10
15.52927652994792
 20
2.174852159288194
 30
0.0
 10
15.53360324435764
 20
2.169603135850694
 30
0.0
 10
15.53360324435764
 20
2.161465115017361
 30
0.0
 10
15.53360324435764
 20
2.159620496961805
 30
0.0
 10
15.53337266710069
 20
2.157552083333333
 30
0.0
 10
15.53290473090278
 20
2.155558268229167
 30
0.0
 10
15.53290473090278
 20
2.155558268229167
 30
0.0
 10
15.51652696397569
 20
2.078138563368055
 30
0.0
 10
15.51652696397569
 20
2.078138563368055
 30
0.0
 10
15.51652696397569
 20
2.078138563368055
 30
0.0
 10
15.54954698350694
 20
2.078138563368055
 30
0.0
 10
15.54954698350694
 20
2.078138563368055
 30
0.0
 10
15.54954698350694
 20
2.078138563368055
 30
0.0
 10
15.56635199652778
 20
2.157999674479167
 30
0.0
 10
15.56635199652778
 20
2.157999674479167
 30
0.0
 10
15.56661648220486
 20
2.159620496961805
 30
0.0
 10
15.56683349609375
 20
2.161241319444444
 30
0.0
 10
15.56683349609375
 20
2.162801106770833
 30
0.0
 10
15.56683349609375
 20
2.165534125434028
 30
0.0
 10
15.56635199652778
 20
2.168056911892361
 30
0.0
 10
15.56570095486111
 20
2.170789930555555
 30
0.0
 10
15.57002088758681
 20
2.17352294921875
 30
0.0
 10
15.57391357421875
 20
2.174852159288194
 30
0.0
 10
15.57889811197917
 20
2.174852159288194
 30
0.0
 10
15.58504231770833
 20
2.174852159288194
 30
0.0
 10
15.58936225043403
 20
2.169603135850694
 30
0.0
 10
15.58936225043403
 20
2.161465115017361
 30
0.0
 10
15.58936225043403
 20
2.159620496961805
 30
0.0
 10
15.58914523654514
 20
2.157552083333333
 30
0.0
 10
15.58869764539931
 20
2.155558268229167
 30
0.0
 10
15.58869764539931
 20
2.155558268229167
 30
0.0
 10
15.58004421657986
 20
2.114515516493055
 30
0.0
 10
15.58004421657986
 20
2.114515516493055
 30
0.0
 10
15.57912868923611
 20
2.1102294921875
 30
0.0
 10
15.57867431640625
 20
2.106601291232639
 30
0.0
 10
15.57867431640625
 20
2.102979871961805
 30
0.0
 10
15.57867431640625
 20
2.085910373263889
 30
0.0
 10
15.58914523654514
 20
2.078138563368055
 30
0.0
 10
15.60687255859375
 20
2.078138563368055
 30
0.0
 10
15.6160888671875
 20
2.078138563368055
 30
0.0
 10
15.62596299913194
 20
2.086127387152778
 30
0.0
 10
15.63484022352431
 20
2.095438639322917
 30
0.0
 10
15.63484022352431
 20
2.095438639322917
 30
0.0
 10
15.63117133246528
 20
2.078138563368055
 30
0.0
 10
15.63117133246528
 20
2.078138563368055
 30
0.0
 10
15.63117133246528
 20
2.078138563368055
 30
0.0
 10
15.66397433810764
 20
2.078138563368055
 30
0.0
 10
15.66397433810764
 20
2.078138563368055
 30
0.0
 10
15.66397433810764
 20
2.078138563368055
 30
0.0
 10
15.68352593315972
 20
2.170118543836805
 30
0.0
 10
15.68352593315972
 20
2.170118543836805
 30
0.0
 10
15.68807644314236
 20
2.173305935329861
 30
0.0
 10
15.69195556640625
 20
2.174852159288194
 30
0.0
 10
15.69743516710069
 20
2.174852159288194
 30
0.0
 10
15.70356580946181
 20
2.174852159288194
 30
0.0
 10
15.70789252387153
 20
2.169603135850694
 30
0.0
 10
15.70789252387153
 20
2.161465115017361
 30
0.0
 10
15.70789252387153
 20
2.159620496961805
 30
0.0
 10
15.70767550998264
 20
2.157552083333333
 30
0.0
 10
15.70719401041667
 20
2.155558268229167
 30
0.0
 10
15.70719401041667
 20
2.155558268229167
 30
0.0
 10
15.69080268012153
 20
2.078138563368055
 30
0.0
 10
15.69080268012153
 20
2.078138563368055
 30
0.0
 10
15.69080268012153
 20
2.078138563368055
 30
0.0
 10
15.72382269965278
 20
2.078138563368055
 30
0.0
 10
15.72382269965278
 20
2.078138563368055
 30
0.0
 10
15.72382269965278
 20
2.078138563368055
 30
0.0
 10
15.74065483940972
 20
2.157999674479167
 30
0.0
 10
15.74065483940972
 20
2.157999674479167
 30
0.0
 10
15.74089898003472
 20
2.159620496961805
 30
0.0
 10
15.74112277560764
 20
2.161241319444444
 30
0.0
 10
15.74112277560764
 20
2.162801106770833
 30
0.0
 10
15.74112277560764
 20
2.165534125434028
 30
0.0
 10
15.74065483940972
 20
2.168056911892361
 30
0.0
 10
15.73998345269097
 20
2.170789930555555
 30
0.0
 10
15.74431694878472
 20
2.17352294921875
 30
0.0
 10
15.74820285373264
 20
2.174852159288194
 30
0.0
 10
15.75318739149306
 20
2.174852159288194
 30
0.0
 10
15.75931803385417
 20
2.174852159288194
 30
0.0
 10
15.76365152994792
 20
2.169603135850694
 30
0.0
 10
15.76365152994792
 20
2.161465115017361
 30
0.0
 10
15.76365152994792
 20
2.159620496961805
 30
0.0
 10
15.76342095269097
 20
2.157552083333333
 30
0.0
 10
15.76298692491319
 20
2.155558268229167
 30
0.0
 10
15.76298692491319
 20
2.155558268229167
 30
0.0
 10
15.75433349609375
 20
2.114515516493055
 30
0.0
 10
15.75433349609375
 20
2.114515516493055
 30
0.0
 10
15.75340440538194
 20
2.1102294921875
 30
0.0
 10
15.75296359592014
 20
2.106601291232639
 30
0.0
 10
15.75296359592014
 20
2.102979871961805
 30
0.0
 10
15.75296359592014
 20
2.085910373263889
 30
0.0
 10
15.76342095269097
 20
2.078138563368055
 30
0.0
 10
15.78117540147569
 20
2.078138563368055
 30
0.0
 10
15.79193793402778
 20
2.078138563368055
 30
0.0
 10
15.80347357855903
 20
2.089077419704861
 30
0.0
 10
15.81340874565972
 20
2.100321451822917
 30
0.0
 10
15.81776936848958
 20
2.087443033854167
 30
0.0
 10
15.82851155598958
 20
2.078138563368055
 30
0.0
 10
15.84486897786458
 20
2.078138563368055
 30
0.0
 10
15.87186008029514
 20
2.078138563368055
 30
0.0
 10
15.89216444227431
 20
2.097724066840278
 30
0.0
 10
15.9053955078125
 20
2.119025336371528
 30
0.0
 10
15.905029296875
 20
2.114515516493055
 30
0.0
 10
15.90477159288194
 20
2.110005696614583
 30
0.0
 10
15.90477159288194
 20
2.105645073784722
 30
0.0
 10
15.90477159288194
 20
2.092251247829861
 30
0.0
 10
15.91115993923611
 20
2.076809353298611
 30
0.0
 10
15.93301730685764
 20
2.076809353298611
 30
0.0
 10
15.94710286458333
 20
2.076809353298611
 30
0.0
 10
15.95734998914931
 20
2.086351182725694
 30
0.0
 10
15.96419270833333
 20
2.095879448784722
 30
0.0
 10
15.96693250868056
 20
2.084933810763889
 30
0.0
 10
15.97557915581597
 20
2.078138563368055
 30
0.0
 10
15.99150254991319
 20
2.078138563368055
 30
0.0
 10
15.99808756510417
 20
2.078138563368055
 30
0.0
 10
16.00630696614583
 20
2.085679796006944
 30
0.0
 10
16.01447211371528
 20
2.096096462673611
 30
0.0
 10
16.01857503255208
 20
2.082939995659722
 30
0.0
 10
16.0308837890625
 20
2.078138563368055
 30
0.0
 10
16.05181206597222
 20
2.078138563368055
 30
0.0
 10
16.07299126519097
 20
2.078138563368055
 30
0.0
 10
16.08597140842014
 20
2.086785210503472
 30
0.0
 10
16.09189181857639
 20
2.099283854166667
 30
0.0
 10
16.099365234375
 20
2.105645073784722
 30
0.0
 10
16.10649278428819
 20
2.111857096354167
 30
0.0
 10
16.11245388454861
 20
2.116733127170139
 30
0.0
 10
16.11245388454861
 20
2.116733127170139
 30
0.0
 10
16.11201985677083
 20
2.114515516493055
 30
0.0
 10
16.11201985677083
 20
2.114515516493055
 30
0.0
 10
16.111083984375
 20
2.1102294921875
 30
0.0
 10
16.11064317491319
 20
2.106377495659722
 30
0.0
 10
16.11064317491319
 20
2.102979871961805
 30
0.0
 10
16.11064317491319
 20
2.085910373263889
 30
0.0
 10
16.12154812282986
 20
2.078138563368055
 30
0.0
 10
16.13905164930555
 20
2.078138563368055
 30
0.0
 10
16.14886474609375
 20
2.078138563368055
 30
0.0
 10
16.16118028428819
 20
2.087226019965278
 30
0.0
 10
16.17186143663194
 20
2.097283257378472
 30
0.0
 10
16.17389594184028
 20
2.084052191840278
 30
0.0
 10
16.18435329861111
 20
2.078138563368055
 30
0.0
 10
16.19984266493055
 20
2.078138563368055
 30
0.0
 10
16.21046278211805
 20
2.078138563368055
 30
0.0
 10
16.22365993923611
 20
2.08892822265625
 30
0.0
 10
16.23499891493055
 20
2.099873860677083
 30
0.0
 10
16.23499891493055
 20
2.099873860677083
 30
0.0
 10
16.23038058810764
 20
2.078138563368055
 30
0.0
 10
16.23038058810764
 20
2.078138563368055
 30
0.0
 10
16.23038058810764
 20
2.078138563368055
 30
0.0
 10
16.26314290364583
 20
2.078138563368055
 30
0.0
 10
16.26314290364583
 20
2.078138563368055
 30
0.0
 10
16.26314290364583
 20
2.078138563368055
 30
0.0
 10
16.28204345703125
 20
2.167385525173611
 30
0.0
 10
16.28204345703125
 20
2.167385525173611
 30
0.0
 10
16.28728569878472
 20
2.172119140625
 30
0.0
 10
16.29094780815972
 20
2.17462158203125
 30
0.0
 10
16.29774983723958
 20
2.17462158203125
 30
0.0
 10
16.30457899305555
 20
2.17462158203125
 30
0.0
 10
16.29823133680555
 20
2.159620496961805
 30
0.0
 10
16.31095377604166
 20
2.159620496961805
 30
0.0
 10
16.32211642795139
 20
2.159620496961805
 30
0.0
 10
16.32803683810764
 20
2.16937255859375
 30
0.0
 10
16.32803683810764
 20
2.1773681640625
 30
0.0
  0
SPLINE
  5
E5
330
DE
100
AcDbEntity
  8
Immeasurable Beauty
370
     0
100
AcDbSpline
210
0.0
220
0.0
230
1.0
 70
    11
 71
     3
 72
    14
 73
    10
 74
     0
 42
0.0000000001
 43
0.0000000001
 40
0.0
 40
0.0
 40
0.0
 40
0.0
 40
1.0
 40
1.0
 40
1.0
 40
2.0
 40
2.0
 40
2.0
 40
3.0
 40
3.0
 40
3.0
 40
3.0
 10
15.87242974175347
 20
2.18194580078125
 30
0.0
 10
15.87925211588542
 20
2.18194580078125
 30
0.0
 10
15.88039822048611
 20
2.173977322048611
 30
0.0
 10
15.88039822048611
 20
2.169155544704861
 30
0.0
 10
15.88019476996528
 20
2.153042263454861
 30
0.0
 10
15.8653564453125
 20
2.13507080078125
 30
0.0
 10
15.84442816840278
 20
2.134772406684028
 30
0.0
 10
15.84918891059028
 20
2.156222873263889
 30
0.0
 10
15.85966661241319
 20
2.18194580078125
 30
0.0
 10
15.87242974175347
 20
2.18194580078125
 30
0.0
  0
SPLINE
  5
E6
330
DE
100
AcDbEntity
  8
Immeasurable Beauty
370
     0
100
AcDbSpline
210
0.0
220
0.0
230
1.0
 70
    11
 71
     3
 72
    23
 73
    19
 74
     0
 42
0.0000000001
 43
0.0000000001
 40
0.0
 40
0.0
 40
0.0
 40
0.0
 40
1.0
 40
1.0
 40
1.0
 40
2.0
 40
2.0
 40
2.0
 40
3.0
 40
3.0
 40
3.0
 40
4.0
 40
4.0
 40
4.0
 40
5.0
 40
5.0
 40
5.0
 40
6.0
 40
6.0
 40
6.0
 40
6.0
 10
15.96463351779514
 20
2.114515516493055
 30
0.0
 10
15.96397569444444
 20
2.112074110243055
 30
0.0
 10
15.96352132161458
 20
2.109564887152778
 30
0.0
 10
15.96352132161458
 20
2.107272677951389
 30
0.0
 10
15.95893690321181
 20
2.100911458333333
 30
0.0
 10
15.95393880208333
 20
2.095655653211805
 30
0.0
 10
15.94870334201389
 20
2.095655653211805
 30
0.0
 10
15.94299994574653
 20
2.095655653211805
 30
0.0
 10
15.93549262152778
 20
2.098171657986111
 30
0.0
 10
15.93549262152778
 20
2.111857096354167
 30
0.0
 10
15.93549262152778
 20
2.14276123046875
 30
0.0
 10
15.94917805989583
 20
2.178988986545139
 30
0.0
 10
15.96621365017361
 20
2.178988986545139
 30
0.0
 10
15.96944173177083
 20
2.178988986545139
 30
0.0
 10
15.97376844618056
 20
2.17803955078125
 30
0.0
 10
15.97738986545139
 20
2.174852159288194
 30
0.0
 10
15.97738986545139
 20
2.174852159288194
 30
0.0
 10
15.96463351779514
 20
2.114515516493055
 30
0.0
 10
15.96463351779514
 20
2.114515516493055
 30
0.0
  0
SPLINE
  5
E7
330
DE
100
AcDbEntity
  8
Immeasurable Beauty
370
     0
100
AcDbSpline
210
0.0
220
0.0
230
1.0
 70
    11
 71
     3
 72
    29
 73
    25
 74
     0
 42
0.0000000001
 43
0.0000000001
 40
0.0
 40
0.0
 40
0.0
 40
0.0
 40
1.0
 40
1.0
 40
1.0
 40
2.0
 40
2.0
 40
2.0
 40
3.0
 40
3.0
 40
3.0
 40
4.0
 40
4.0
 40
4.0
 40
5.0
 40
5.0
 40
5.0
 40
6.0
 40
6.0
 40
6.0
 40
7.0
 40
7.0
 40
7.0
 40
8.0
 40
8.0
 40
8.0
 40
8.0
 10
16.04386393229166
 20
2.091600206163194
 30
0.0
 10
16.0349867078993
 20
2.091600206163194
 30
0.0
 10
16.02427164713541
 20
2.097283257378472
 30
0.0
 10
16.02427164713541
 20
2.1070556640625
 30
0.0
 10
16.02427164713541
 20
2.108154296875
 30
0.0
 10
16.02448187934028
 20
2.109564887152778
 30
0.0
 10
16.02473958333333
 20
2.110663519965278
 30
0.0
 10
16.02743869357639
 20
2.109564887152778
 30
0.0
 10
16.02995469835069
 20
2.108893500434028
 30
0.0
 10
16.03268771701389
 20
2.108893500434028
 30
0.0
 10
16.0406494140625
 20
2.108893500434028
 30
0.0
 10
16.04771592881944
 20
2.114813910590278
 30
0.0
 10
16.04771592881944
 20
2.123453776041667
 30
0.0
 10
16.04771592881944
 20
2.130269368489583
 30
0.0
 10
16.04568142361111
 20
2.134331597222222
 30
0.0
 10
16.04020182291666
 20
2.136182996961805
 30
0.0
 10
16.04522026909722
 20
2.147562662760417
 30
0.0
 10
16.04840766059028
 20
2.162129720052083
 30
0.0
 10
16.05204264322916
 20
2.173305935329861
 30
0.0
 10
16.05251736111111
 20
2.14483642578125
 30
0.0
 10
16.06275770399305
 20
2.132785373263889
 30
0.0
 10
16.06275770399305
 20
2.118659125434028
 30
0.0
 10
16.06275770399305
 20
2.101128472222222
 30
0.0
 10
16.05160183376736
 20
2.091600206163194
 30
0.0
 10
16.04386393229166
 20
2.091600206163194
 30
0.0
  0
HATCH
  5
E8
330
DE
100
AcDbEntity
  8
Immeasurable Beauty
 62
   179
420
  2301728
100
AcDbHatch
 10
0.0
 20
0.0
 30
0.0
210
0.0
220
0.0
230
1.0
  2
SOLID
 70
     1
 71
     0
 91
        4
 92
        1
 93
        1
 72
     4
 94
        3
 73
     0
 74
     1
 95
      374
 96
      370
 40
0.0
 40
0.0
 40
0.0
 40
0.0
 40
1.0
 40
1.0
 40
1.0
 40
2.0
 40
2.0
 40
2.0
 40
3.0
 40
3.0
 40
3.0
 40
4.0
 40
4.0
 40
4.0
 40
5.0
 40
5.0
 40
5.0
 40
6.0
 40
6.0
 40
6.0
 40
7.0
 40
7.0
 40
7.0
 40
8.0
 40
8.0
 40
8.0
 40
9.0
 40
9.0
 40
9.0
 40
10.0
 40
10.0
 40
10.0
 40
11.0
 40
11.0
 40
11.0
 40
12.0
 40
12.0
 40
12.0
 40
13.0
 40
13.0
 40
13.0
 40
14.0
 40
14.0
 40
14.0
 40
15.0
 40
15.0
 40
15.0
 40
16.0
 40
16.0
 40
16.0
 40
17.0
 40
17.0
 40
17.0
 40
18.0
 40
18.0
 40
18.0
 40
19.0
 40
19.0
 40
19.0
 40
20.0
 40
20.0
 40
20.0
 40
21.0
 40
21.0
 40
21.0
 40
22.0
 40
22.0
 40
22.0
 40
23.0
 40
23.0
 40
23.0
 40
24.0
 40
24.0
 40
24.0
 40
25.0
 40
25.0
 40
25.0
 40
26.0
 40
26.0
 40
26.0
 40
27.0
 40
27.0
 40
27.0
 40
28.0
 40
28.0
 40
28.0
 40
29.0
 40
29.0
 40
29.0
 40
30.0
 40
30.0
 40
30.0
 40
31.0
 40
31.0
 40
31.0
 40
32.0
 40
32.0
 40
32.0
 40
33.0
 40
33.0
 40
33.0
 40
34.0
 40
34.0
 40
34.0
 40
35.0
 40
35.0
 40
35.0
 40
36.0
 40
36.0
 40
36.0
 40
37.0
 40
37.0
 40
37.0
 40
38.0
 40
38.0
 40
38.0
 40
39.0
 40
39.0
 40
39.0
 40
40.0
 40
40.0
 40
40.0
 40
41.0
 40
41.0
 40
41.0
 40
42.0
 40
42.0
 40
42.0
 40
43.0
 40
43.0
 40
43.0
 40
44.0
 40
44.0
 40
44.0
 40
45.0
 40
45.0
 40
45.0
 40
46.0
 40
46.0
 40
46.0
 40
47.0
 40
47.0
 40
47.0
 40
48.0
 40
48.0
 40
48.0
 40
49.0
 40
49.0
 40
49.0
 40
50.0
 40
50.0
 40
50.0
 40
51.0
 40
51.0
 40
51.0
 40
52.0
 40
52.0
 40
52.0
 40
53.0
 40
53.0
 40
53.0
 40
54.0
 40
54.0
 40
54.0
 40
55.0
 40
55.0
 40
55.0
 40
56.0
 40
56.0
 40
56.0
 40
57.0
 40
57.0
 40
57.0
 40
58.0
 40
58.0
 40
58.0
 40
59.0
 40
59.0
 40
59.0
 40
60.0
 40
60.0
 40
60.0
 40
61.0
 40
61.0
 40
61.0
 40
62.0
 40
62.0
 40
62.0
 40
63.0
 40
63.0
 40
63.0
 40
64.0
 40
64.0
 40
64.0
 40
65.0
 40
65.0
 40
65.0
 40
66.0
 40
66.0
 40
66.0
 40
67.0
 40
67.0
 40
67.0
 40
68.0
 40
68.0
 40
68.0
 40
69.0
 40
69.0
 40
69.0
 40
70.0
 40
70.0
 40
70.0
 40
71.0
 40
71.0
 40
71.0
 40
72.0
 40
72.0
 40
72.0
 40
73.0
 40
73.0
 40
73.0
 40
74.0
 40
74.0
 40
74.0
 40
75.0
 40
75.0
 40
75.0
 40
76.0
 40
76.0
 40
76.0
 40
77.0
 40
77.0
 40
77.0
 40
78.0
 40
78.0
 40
78.0
 40
79.0
 40
79.0
 40
79.0
 40
80.0
 40
80.0
 40
80.0
 40
81.0
 40
81.0
 40
81.0
 40
82.0
 40
82.0
 40
82.0
 40
83.0
 40
83.0
 40
83.0
 40
84.0
 40
84.0
 40
84.0
 40
85.0
 40
85.0
 40
85.0
 40
86.0
 40
86.0
 40
86.0
 40
87.0
 40
87.0
 40
87.0
 40
88.0
 40
88.0
 40
88.0
 40
89.0
 40
89.0
 40
89.0
 40
90.0
 40
90.0
 40
90.0
 40
91.0
 40
91.0
 40
91.0
 40
92.0
 40
92.0
 40
92.0
 40
93.0
 40
93.0
 40
93.0
 40
94.0
 40
94.0
 40
94.0
 40
95.0
 40
95.0
 40
95.0
 40
96.0
 40
96.0
 40
96.0
 40
97.0
 40
97.0
 40
97.0
 40
98.0
 40
98.0
 40
98.0
 40
99.0
 40
99.0
 40
99.0
 40
100.0
 40
100.0
 40
100.0
 40
101.0
 40
101.0
 40
101.0
 40
102.0
 40
102.0
 40
102.0
 40
103.0
 40
103.0
 40
103.0
 40
104.0
 40
104.0
 40
104.0
 40
105.0
 40
105.0
 40
105.0
 40
106.0
 40
106.0
 40
106.0
 40
107.0
 40
107.0
 40
107.0
 40
108.0
 40
108.0
 40
108.0
 40
109.0
 40
109.0
 40
109.0
 40
110.0
 40
110.0
 40
110.0
 40
111.0
 40
111.0
 40
111.0
 40
112.0
 40
112.0
 40
112.0
 40
113.0
 40
113.0
 40
113.0
 40
114.0
 40
114.0
 40
114.0
 40
115.0
 40
115.0
 40
115.0
 40
116.0
 40
116.0
 40
116.0
 40
117.0
 40
117.0
 40
117.0
 40
118.0
 40
118.0
 40
118.0
 40
119.0
 40
119.0
 40
119.0
 40
120.0
 40
120.0
 40
120.0
 40
121.0
 40
121.0
 40
121.0
 40
122.0
 40
122.0
 40
122.0
 40
123.0
 40
123.0
 40
123.0
 40
123.0
 10
16.32803683810764
 20
2.1773681640625
 10
16.32803683810764
 20
2.186014811197917
 10
16.32189263237847
 20
2.191935221354167
 10
16.3116455078125
 20
2.191935221354167
 10
16.30206976996528
 20
2.191935221354167
 10
16.29297553168403
 20
2.186909993489583
 10
16.28476969401041
 20
2.1805419921875
 10
16.28476969401041
 20
2.1805419921875
 10
16.28728569878472
 20
2.191935221354167
 10
16.28728569878472
 20
2.191935221354167
 10
16.28728569878472
 20
2.191935221354167
 10
16.25452338324653
 20
2.191935221354167
 10
16.25452338324653
 20
2.191935221354167
 10
16.25452338324653
 20
2.191935221354167
 10
16.23748779296875
 20
2.111551920572917
 10
16.23748779296875
 20
2.111551920572917
 10
16.23023817274305
 20
2.105204264322917
 10
16.22243923611111
 20
2.098836263020833
 10
16.21599663628472
 20
2.098836263020833
 10
16.2069091796875
 20
2.098836263020833
 10
16.20461018880208
 20
2.102471245659722
 10
16.20461018880208
 20
2.107489691840278
 10
16.20461018880208
 20
2.109564887152778
 10
16.20509847005208
 20
2.112074110243055
 10
16.20554606119791
 20
2.114515516493055
 10
16.20554606119791
 20
2.114515516493055
 10
16.22191704644097
 20
2.191935221354167
 10
16.22191704644097
 20
2.191935221354167
 10
16.22191704644097
 20
2.191935221354167
 10
16.18916829427083
 20
2.191935221354167
 10
16.18916829427083
 20
2.191935221354167
 10
16.18916829427083
 20
2.191935221354167
 10
16.17274983723958
 20
2.114515516493055
 10
16.17274983723958
 20
2.114515516493055
 10
16.1720716688368
 20
2.111857096354167
 10
16.171630859375
 20
2.109341091579861
 10
16.17141384548611
 20
2.1070556640625
 10
16.1657240125868
 20
2.102471245659722
 10
16.16002739800347
 20
2.098836263020833
 10
16.15521240234375
 20
2.098836263020833
 10
16.14612494574653
 20
2.098836263020833
 10
16.14386664496528
 20
2.102471245659722
 10
16.14386664496528
 20
2.107489691840278
 10
16.14386664496528
 20
2.109564887152778
 10
16.14432101779514
 20
2.112074110243055
 10
16.14476182725694
 20
2.114515516493055
 10
16.14476182725694
 20
2.114515516493055
 10
16.16118028428819
 20
2.191935221354167
 10
16.16118028428819
 20
2.191935221354167
 10
16.16118028428819
 20
2.191935221354167
 10
16.12837727864583
 20
2.191935221354167
 10
16.12837727864583
 20
2.191935221354167
 10
16.12837727864583
 20
2.191935221354167
 10
16.1138916015625
 20
2.123392740885417
 10
16.1138916015625
 20
2.123392740885417
 10
16.1138916015625
 20
2.123392740885417
 10
16.11052110460069
 20
2.12774658203125
 10
16.11052110460069
 20
2.12774658203125
 10
16.10782199435764
 20
2.124579535590278
 10
16.10213216145833
 20
2.118659125434028
 10
16.09573703342014
 20
2.112955729166667
 10
16.09573703342014
 20
2.112955729166667
 10
16.095947265625
 20
2.117763943142361
 10
16.095947265625
 20
2.117763943142361
 10
16.09573703342014
 20
2.144388834635417
 10
16.08050537109375
 20
2.155782063802083
 10
16.08050537109375
 20
2.193345811631944
 10
16.08050537109375
 20
2.193345811631944
 10
16.08050537109375
 20
2.196519639756944
 10
16.08050537109375
 20
2.196519639756944
 10
16.08050537109375
 20
2.196519639756944
 10
16.0474853515625
 20
2.189643012152778
 10
16.0474853515625
 20
2.189643012152778
 10
16.04359944661458
 20
2.172336154513889
 10
16.03838433159722
 20
2.152079264322917
 10
16.03018527560764
 20
2.137288411458333
 10
16.02109103732639
 20
2.136617024739583
 10
16.01288519965278
 20
2.126112196180555
 10
16.01288519965278
 20
2.107272677951389
 10
16.00925699869791
 20
2.102016872829861
 10
16.005859375
 20
2.098836263020833
 10
16.00335015190972
 20
2.098836263020833
 10
15.99808756510417
 20
2.098836263020833
 10
15.99628363715278
 20
2.101352267795139
 10
15.99628363715278
 20
2.106160481770833
 10
15.99628363715278
 20
2.108371310763889
 10
15.99672444661458
 20
2.111117892795139
 10
15.99742296006944
 20
2.114515516493055
 10
15.99742296006944
 20
2.114515516493055
 10
16.01357693142361
 20
2.191935221354167
 10
16.01357693142361
 20
2.191935221354167
 10
16.01357693142361
 20
2.191935221354167
 10
15.98105197482639
 20
2.191935221354167
 10
15.98105197482639
 20
2.191935221354167
 10
15.98105197482639
 20
2.191935221354167
 10
15.97967529296875
 20
2.186014811197917
 10
15.97967529296875
 20
2.186014811197917
 10
15.97557915581597
 20
2.189432779947917
 10
15.96988254123264
 20
2.191718207465278
 10
15.96441650390625
 20
2.191718207465278
 10
15.92609998914931
 20
2.191718207465278
 10
15.91016981336806
 20
2.158440483940972
 10
15.90607367621528
 20
2.124579535590278
 10
15.90607367621528
 20
2.124579535590278
 10
15.89881727430556
 20
2.124579535590278
 10
15.89881727430556
 20
2.124579535590278
 10
15.890869140625
 20
2.107706705729167
 10
15.87175157335069
 20
2.094550238715278
 10
15.86058213975694
 20
2.094550238715278
 10
15.85170491536458
 20
2.094550238715278
 10
15.8419189453125
 20
2.099066840277778
 10
15.8419189453125
 20
2.11407470703125
 10
15.8419189453125
 20
2.116807725694444
 10
15.84214274088542
 20
2.120212131076389
 10
15.84261745876736
 20
2.123908148871528
 10
15.86423746744792
 20
2.126641167534722
 10
15.89403618706597
 20
2.142537434895833
 10
15.89403618706597
 20
2.170342339409722
 10
15.89403618706597
 20
2.186238606770833
 10
15.88358561197917
 20
2.194017198350694
 10
15.86491563585069
 20
2.194017198350694
 10
15.82349989149306
 20
2.194017198350694
 10
15.81119113498264
 20
2.143208821614583
 10
15.81119113498264
 20
2.114298502604167
 10
15.81119113498264
 20
2.112440321180555
 10
15.81181504991319
 20
2.110812717013889
 10
15.81201171875
 20
2.109042697482639
 10
15.80705430772569
 20
2.102471245659722
 10
15.80114067925347
 20
2.096767849392361
 10
15.79530164930556
 20
2.096767849392361
 10
15.78801133897569
 20
2.096767849392361
 10
15.78598361545139
 20
2.100911458333333
 10
15.78598361545139
 20
2.106160481770833
 10
15.78598361545139
 20
2.108893500434028
 10
15.78642442491319
 20
2.111857096354167
 10
15.78708902994792
 20
2.114515516493055
 10
15.78708902994792
 20
2.114515516493055
 10
15.79644775390625
 20
2.157999674479167
 10
15.79644775390625
 20
2.157999674479167
 10
15.79666476779514
 20
2.159830729166667
 10
15.79689534505208
 20
2.161465115017361
 10
15.79689534505208
 20
2.163248697916667
 10
15.79689534505208
 20
2.178778754340278
 10
15.78323703342014
 20
2.191935221354167
 10
15.77070448133681
 20
2.191935221354167
 10
15.75954182942708
 20
2.191935221354167
 10
15.74748399522569
 20
2.184909396701389
 10
15.73747422960069
 20
2.176920572916667
 10
15.73246934678819
 20
2.185804578993055
 10
15.72339545355903
 20
2.191935221354167
 10
15.71495225694444
 20
2.191935221354167
 10
15.70515950520833
 20
2.191935221354167
 10
15.69469536675347
 20
2.186455620659722
 10
15.68558756510417
 20
2.17987060546875
 10
15.68558756510417
 20
2.17987060546875
 10
15.68807644314236
 20
2.191935221354167
 10
15.68807644314236
 20
2.191935221354167
 10
15.68807644314236
 20
2.191935221354167
 10
15.65532090928819
 20
2.191935221354167
 10
15.65532090928819
 20
2.191935221354167
 10
15.65532090928819
 20
2.191935221354167
 10
15.63772243923611
 20
2.108968098958333
 10
15.63772243923611
 20
2.108968098958333
 10
15.63276502821181
 20
2.102471245659722
 10
15.62685139973958
 20
2.096767849392361
 10
15.62100558810764
 20
2.096767849392361
 10
15.61371527777778
 20
2.096767849392361
 10
15.61168755425347
 20
2.100911458333333
 10
15.61168755425347
 20
2.106160481770833
 10
15.61168755425347
 20
2.108893500434028
 10
15.61213514539931
 20
2.111857096354167
 10
15.61278618706597
 20
2.114515516493055
 10
15.61278618706597
 20
2.114515516493055
 10
15.62215169270833
 20
2.157999674479167
 10
15.62215169270833
 20
2.157999674479167
 10
15.62238226996528
 20
2.159830729166667
 10
15.62260606553819
 20
2.161465115017361
 10
15.62260606553819
 20
2.163248697916667
 10
15.62260606553819
 20
2.178778754340278
 10
15.60894775390625
 20
2.191935221354167
 10
15.59641520182292
 20
2.191935221354167
 10
15.58526611328125
 20
2.191935221354167
 10
15.57320827907986
 20
2.184909396701389
 10
15.56318495008681
 20
2.176920572916667
 10
15.55819363064236
 20
2.185804578993055
 10
15.54910617404514
 20
2.191935221354167
 10
15.54067654079861
 20
2.191935221354167
 10
15.53087022569444
 20
2.191935221354167
 10
15.52039930555556
 20
2.186455620659722
 10
15.51131863064236
 20
2.17987060546875
 10
15.51131863064236
 20
2.17987060546875
 10
15.51380072699653
 20
2.191935221354167
 10
15.51380072699653
 20
2.191935221354167
 10
15.51380072699653
 20
2.191935221354167
 10
15.48103162977431
 20
2.191935221354167
 10
15.48103162977431
 20
2.191935221354167
 10
15.48103162977431
 20
2.191935221354167
 10
15.45689561631944
 20
2.078138563368055
 10
15.45689561631944
 20
2.078138563368055
 10
15.45689561631944
 20
2.078138563368055
 10
15.48968505859375
 20
2.078138563368055
 10
15.48968505859375
 20
2.078138563368055
 10
15.48968505859375
 20
2.078138563368055
 10
15.50925021701389
 20
2.170118543836805
 10
15.50925021701389
 20
2.170118543836805
 10
15.51380072699653
 20
2.173305935329861
 10
15.51767985026042
 20
2.174852159288194
 10
15.52314588758681
 20
2.174852159288194
 10
15.52927652994792
 20
2.174852159288194
 10
15.53360324435764
 20
2.169603135850694
 10
15.53360324435764
 20
2.161465115017361
 10
15.53360324435764
 20
2.159620496961805
 10
15.53337266710069
 20
2.157552083333333
 10
15.53290473090278
 20
2.155558268229167
 10
15.53290473090278
 20
2.155558268229167
 10
15.51652696397569
 20
2.078138563368055
 10
15.51652696397569
 20
2.078138563368055
 10
15.51652696397569
 20
2.078138563368055
 10
15.54954698350694
 20
2.078138563368055
 10
15.54954698350694
 20
2.078138563368055
 10
15.54954698350694
 20
2.078138563368055
 10
15.56635199652778
 20
2.157999674479167
 10
15.56635199652778
 20
2.157999674479167
 10
15.56661648220486
 20
2.159620496961805
 10
15.56683349609375
 20
2.161241319444444
 10
15.56683349609375
 20
2.162801106770833
 10
15.56683349609375
 20
2.165534125434028
 10
15.56635199652778
 20
2.168056911892361
 10
15.56570095486111
 20
2.170789930555555
 10
15.57002088758681
 20
2.17352294921875
 10
15.57391357421875
 20
2.174852159288194
 10
15.57889811197917
 20
2.174852159288194
 10
15.58504231770833
 20
2.174852159288194
 10
15.58936225043403
 20
2.169603135850694
 10
15.58936225043403
 20
2.161465115017361
 10
15.58936225043403
 20
2.159620496961805
 10
15.58914523654514
 20
2.157552083333333
 10
15.58869764539931
 20
2.155558268229167
 10
15.58869764539931
 20
2.155558268229167
 10
15.58004421657986
 20
2.114515516493055
 10
15.58004421657986
 20
2.114515516493055
 10
15.57912868923611
 20
2.1102294921875
 10
15.57867431640625
 20
2.106601291232639
 10
15.57867431640625
 20
2.102979871961805
 10
15.57867431640625
 20
2.085910373263889
 10
15.58914523654514
 20
2.078138563368055
 10
15.60687255859375
 20
2.078138563368055
 10
15.6160888671875
 20
2.078138563368055
 10
15.62596299913194
 20
2.086127387152778
 10
15.63484022352431
 20
2.095438639322917
 10
15.63484022352431
 20
2.095438639322917
 10
15.63117133246528
 20
2.078138563368055
 10
15.63117133246528
 20
2.078138563368055
 10
15.63117133246528
 20
2.078138563368055
 10
15.66397433810764
 20
2.078138563368055
 10
15.66397433810764
 20
2.078138563368055
 10
15.66397433810764
 20
2.078138563368055
 10
15.68352593315972
 20
2.170118543836805
 10
15.68352593315972
 20
2.170118543836805
 10
15.68807644314236
 20
2.173305935329861
 10
15.69195556640625
 20
2.174852159288194
 10
15.69743516710069
 20
2.174852159288194
 10
15.70356580946181
 20
2.174852159288194
 10
15.70789252387153
 20
2.169603135850694
 10
15.70789252387153
 20
2.161465115017361
 10
15.70789252387153
 20
2.159620496961805
 10
15.70767550998264
 20
2.157552083333333
 10
15.70719401041667
 20
2.155558268229167
 10
15.70719401041667
 20
2.155558268229167
 10
15.69080268012153
 20
2.078138563368055
 10
15.69080268012153
 20
2.078138563368055
 10
15.69080268012153
 20
2.078138563368055
 10
15.72382269965278
 20
2.078138563368055
 10
15.72382269965278
 20
2.078138563368055
 10
15.72382269965278
 20
2.078138563368055
 10
15.74065483940972
 20
2.157999674479167
 10
15.74065483940972
 20
2.157999674479167
 10
15.74089898003472
 20
2.159620496961805
 10
15.74112277560764
 20
2.161241319444444
 10
15.74112277560764
 20
2.162801106770833
 10
15.74112277560764
 20
2.165534125434028
 10
15.74065483940972
 20
2.168056911892361
 10
15.73998345269097
 20
2.170789930555555
 10
15.74431694878472
 20
2.17352294921875
 10
15.74820285373264
 20
2.174852159288194
 10
15.75318739149306
 20
2.174852159288194
 10
15.75931803385417
 20
2.174852159288194
 10
15.76365152994792
 20
2.169603135850694
 10
15.76365152994792
 20
2.161465115017361
 10
15.76365152994792
 20
2.159620496961805
 10
15.76342095269097
 20
2.157552083333333
 10
15.76298692491319
 20
2.155558268229167
 10
15.76298692491319
 20
2.155558268229167
 10
15.75433349609375
 20
2.114515516493055
 10
15.75433349609375
 20
2.114515516493055
 10
15.75340440538194
 20
2.1102294921875
 10
15.75296359592014
 20
2.106601291232639
 10
15.75296359592014
 20
2.102979871961805
 10
15.75296359592014
 20
2.085910373263889
 10
15.76342095269097
 20
2.078138563368055
 10
15.78117540147569
 20
2.078138563368055
 10
15.79193793402778
 20
2.078138563368055
 10
15.80347357855903
 20
2.089077419704861
 10
15.81340874565972
 20
2.100321451822917
 10
15.81776936848958
 20
2.087443033854167
 10
15.82851155598958
 20
2.078138563368055
 10
15.84486897786458
 20
2.078138563368055
 10
15.87186008029514
 20
2.078138563368055
 10
15.89216444227431
 20
2.097724066840278
 10
15.9053955078125
 20
2.119025336371528
 10
15.905029296875
 20
2.114515516493055
 10
15.90477159288194
 20
2.110005696614583
 10
15.90477159288194
 20
2.105645073784722
 10
15.90477159288194
 20
2.092251247829861
 10
15.91115993923611
 20
2.076809353298611
 10
15.93301730685764
 20
2.076809353298611
 10
15.94710286458333
 20
2.076809353298611
 10
15.95734998914931
 20
2.086351182725694
 10
15.96419270833333
 20
2.095879448784722
 10
15.96693250868056
 20
2.084933810763889
 10
15.97557915581597
 20
2.078138563368055
 10
15.99150254991319
 20
2.078138563368055
 10
15.99808756510417
 20
2.078138563368055
 10
16.00630696614583
 20
2.085679796006944
 10
16.01447211371528
 20
2.096096462673611
 10
16.01857503255208
 20
2.082939995659722
 10
16.0308837890625
 20
2.078138563368055
 10
16.05181206597222
 20
2.078138563368055
 10
16.07299126519097
 20
2.078138563368055
 10
16.08597140842014
 20
2.086785210503472
 10
16.09189181857639
 20
2.099283854166667
 10
16.099365234375
 20
2.105645073784722
 10
16.10649278428819
 20
2.111857096354167
 10
16.11245388454861
 20
2.116733127170139
 10
16.11245388454861
 20
2.116733127170139
 10
16.11201985677083
 20
2.114515516493055
 10
16.11201985677083
 20
2.114515516493055
 10
16.111083984375
 20
2.1102294921875
 10
16.11064317491319
 20
2.106377495659722
 10
16.11064317491319
 20
2.102979871961805
 10
16.11064317491319
 20
2.085910373263889
 10
16.12154812282986
 20
2.078138563368055
 10
16.13905164930555
 20
2.078138563368055
 10
16.14886474609375
 20
2.078138563368055
 10
16.16118028428819
 20
2.087226019965278
 10
16.17186143663194
 20
2.097283257378472
 10
16.17389594184028
 20
2.084052191840278
 10
16.18435329861111
 20
2.078138563368055
 10
16.19984266493055
 20
2.078138563368055
 10
16.21046278211805
 20
2.078138563368055
 10
16.22365993923611
 20
2.08892822265625
 10
16.23499891493055
 20
2.099873860677083
 10
16.23499891493055
 20
2.099873860677083
 10
16.23038058810764
 20
2.078138563368055
 10
16.23038058810764
 20
2.078138563368055
 10
16.23038058810764
 20
2.078138563368055
 10
16.26314290364583
 20
2.078138563368055
 10
16.26314290364583
 20
2.078138563368055
 10
16.26314290364583
 20
2.078138563368055
 10
16.28204345703125
 20
2.167385525173611
 10
16.28204345703125
 20
2.167385525173611
 10
16.28728569878472
 20
2.172119140625
 10
16.29094780815972
 20
2.17462158203125
 10
16.29774983723958
 20
2.17462158203125
 10
16.30457899305555
 20
2.17462158203125
 10
16.29823133680555
 20
2.159620496961805
 10
16.31095377604166
 20
2.159620496961805
 10
16.32211642795139
 20
2.159620496961805
 10
16.32803683810764
 20
2.16937255859375
 10
16.32803683810764
 20
2.1773681640625
 97
        0
 92
        1
 93
        1
 72
     4
 94
        3
 73
     0
 74
     1
 95
       14
 96
       10
 40
0.0
 40
0.0
 40
0.0
 40
0.0
 40
1.0
 40
1.0
 40
1.0
 40
2.0
 40
2.0
 40
2.0
 40
3.0
 40
3.0
 40
3.0
 40
3.0
 10
15.87242974175347
 20
2.18194580078125
 10
15.87925211588542
 20
2.18194580078125
 10
15.88039822048611
 20
2.173977322048611
 10
15.88039822048611
 20
2.169155544704861
 10
15.88019476996528
 20
2.153042263454861
 10
15.8653564453125
 20
2.13507080078125
 10
15.84442816840278
 20
2.134772406684028
 10
15.84918891059028
 20
2.156222873263889
 10
15.85966661241319
 20
2.18194580078125
 10
15.87242974175347
 20
2.18194580078125
 97
        0
 92
        1
 93
        1
 72
     4
 94
        3
 73
     0
 74
     1
 95
       23
 96
       19
 40
0.0
 40
0.0
 40
0.0
 40
0.0
 40
1.0
 40
1.0
 40
1.0
 40
2.0
 40
2.0
 40
2.0
 40
3.0
 40
3.0
 40
3.0
 40
4.0
 40
4.0
 40
4.0
 40
5.0
 40
5.0
 40
5.0
 40
6.0
 40
6.0
 40
6.0
 40
6.0
 10
15.96463351779514
 20
2.114515516493055
 10
15.96397569444444
 20
2.112074110243055
 10
15.96352132161458
 20
2.109564887152778
 10
15.96352132161458
 20
2.107272677951389
 10
15.95893690321181
 20
2.100911458333333
 10
15.95393880208333
 20
2.095655653211805
 10
15.94870334201389
 20
2.095655653211805
 10
15.94299994574653
 20
2.095655653211805
 10
15.93549262152778
 20
2.098171657986111
 10
15.93549262152778
 20
2.111857096354167
 10
15.93549262152778
 20
2.14276123046875
 10
15.94917805989583
 20
2.178988986545139
 10
15.96621365017361
 20
2.178988986545139
 10
15.96944173177083
 20
2.178988986545139
 10
15.97376844618056
 20
2.17803955078125
 10
15.97738986545139
 20
2.174852159288194
 10
15.97738986545139
 20
2.174852159288194
 10
15.96463351779514
 20
2.114515516493055
 10
15.96463351779514
 20
2.114515516493055
 97
        0
 92
        1
 93
        1
 72
     4
 94
        3
 73
     0
 74
     1
 95
       29
 96
       25
 40
0.0
 40
0.0
 40
0.0
 40
0.0
 40
1.0
 40
1.0
 40
1.0
 40
2.0
 40
2.0
 40
2.0
 40
3.0
 40
3.0
 40
3.0
 40
4.0
 40
4.0
 40
4.0
 40
5.0
 40
5.0
 40
5.0
 40
6.0
 40
6.0
 40
6.0
 40
7.0
 40
7.0
 40
7.0
 40
8.0
 40
8.0
 40
8.0
 40
8.0
 10
16.04386393229166
 20
2.091600206163194
 10
16.0349867078993
 20
2.091600206163194
 10
16.02427164713541
 20
2.097283257378472
 10
16.02427164713541
 20
2.1070556640625
 10
16.02427164713541
 20
2.108154296875
 10
16.02448187934028
 20
2.109564887152778
 10
16.02473958333333
 20
2.110663519965278
 10
16.02743869357639
 20
2.109564887152778
 10
16.02995469835069
 20
2.108893500434028
 10
16.03268771701389
 20
2.108893500434028
 10
16.0406494140625
 20
2.108893500434028
 10
16.04771592881944
 20
2.114813910590278
 10
16.04771592881944
 20
2.123453776041667
 10
16.04771592881944
 20
2.130269368489583
 10
16.04568142361111
 20
2.134331597222222
 10
16.04020182291666
 20
2.136182996961805
 10
16.04522026909722
 20
2.147562662760417
 10
16.04840766059028
 20
2.162129720052083
 10
16.05204264322916
 20
2.173305935329861
 10
16.05251736111111
 20
2.14483642578125
 10
16.06275770399305
 20
2.132785373263889
 10
16.06275770399305
 20
2.118659125434028
 10
16.06275770399305
 20
2.101128472222222
 10
16.05160183376736
 20
2.091600206163194
 10
16.04386393229166
 20
2.091600206163194
 97
        0
 75
     2
 76
     1
 98
        0
  0
SPLINE
  5
E9
330
DE
100
AcDbEntity
  8
Immeasurable Beauty
370
     0
100
AcDbSpline
210
0.0
220
0.0
230
1.0
 70
    11
 71
     3
 72
    65
 73
    61
 74
     0
 42
0.0000000001
 43
0.0000000001
 40
0.0
 40
0.0
 40
0.0
 40
0.0
 40
1.0
 40
1.0
 40
1.0
 40
2.0
 40
2.0
 40
2.0
 40
3.0
 40
3.0
 40
3.0
 40
4.0
 40
4.0
 40
4.0
 40
5.0
 40
5.0
 40
5.0
 40
6.0
 40
6.0
 40
6.0
 40
7.0
 40
7.0
 40
7.0
 40
8.0
 40
8.0
 40
8.0
 40
9.0
 40
9.0
 40
9.0
 40
10.0
 40
10.0
 40
10.0
 40
11.0
 40
11.0
 40
11.0
 40
12.0
 40
12.0
 40
12.0
 40
13.0
 40
13.0
 40
13.0
 40
14.0
 40
14.0
 40
14.0
 40
15.0
 40
15.0
 40
15.0
 40
16.0
 40
16.0
 40
16.0
 40
17.0
 40
17.0
 40
17.0
 40
18.0
 40
18.0
 40
18.0
 40
19.0
 40
19.0
 40
19.0
 40
20.0
 40
20.0
 40
20.0
 40
20.0
 10
16.50453016493055
 20
2.192376030815972
 30
0.0
 10
16.49698893229166
 20
2.192376030815972
 30
0.0
 10
16.49019368489583
 20
2.189643012152778
 30
0.0
 10
16.48493109809028
 20
2.185804578993055
 30
0.0
 10
16.48493109809028
 20
2.185804578993055
 30
0.0
 10
16.49586995442708
 20
2.237481011284722
 30
0.0
 10
16.49586995442708
 20
2.237481011284722
 30
0.0
 10
16.49586995442708
 20
2.237481011284722
 30
0.0
 10
16.462158203125
 20
2.232896592881944
 30
0.0
 10
16.462158203125
 20
2.232896592881944
 30
0.0
 10
16.462158203125
 20
2.232896592881944
 30
0.0
 10
16.43690999348958
 20
2.114515516493055
 30
0.0
 10
16.43690999348958
 20
2.114515516493055
 30
0.0
 10
16.43646918402778
 20
2.112514919704861
 30
0.0
 10
16.43646918402778
 20
2.110968695746528
 30
0.0
 10
16.43624538845486
 20
2.109178331163194
 30
0.0
 10
16.42985704210069
 20
2.103719075520833
 30
0.0
 10
16.42324490017361
 20
2.098836263020833
 30
0.0
 10
16.41760932074653
 20
2.098836263020833
 30
0.0
 10
16.4085218641493
 20
2.098836263020833
 30
0.0
 10
16.40622287326389
 20
2.102471245659722
 30
0.0
 10
16.40622287326389
 20
2.107489691840278
 30
0.0
 10
16.40622287326389
 20
2.109564887152778
 30
0.0
 10
16.40665690104166
 20
2.112074110243055
 30
0.0
 10
16.40714518229166
 20
2.114515516493055
 30
0.0
 10
16.40714518229166
 20
2.114515516493055
 30
0.0
 10
16.42352973090278
 20
2.191935221354167
 30
0.0
 10
16.42352973090278
 20
2.191935221354167
 30
0.0
 10
16.42352973090278
 20
2.191935221354167
 30
0.0
 10
16.39077419704861
 20
2.191935221354167
 30
0.0
 10
16.39077419704861
 20
2.191935221354167
 30
0.0
 10
16.39077419704861
 20
2.191935221354167
 30
0.0
 10
16.389404296875
 20
2.186014811197917
 30
0.0
 10
16.389404296875
 20
2.186014811197917
 30
0.0
 10
16.38529459635416
 20
2.189432779947917
 30
0.0
 10
16.37959798177083
 20
2.191718207465278
 30
0.0
 10
16.37413194444444
 20
2.191718207465278
 30
0.0
 10
16.32861328125
 20
2.191718207465278
 30
0.0
 10
16.31450059678819
 20
2.14483642578125
 30
0.0
 10
16.31450059678819
 20
2.105645073784722
 30
0.0
 10
16.31450059678819
 20
2.092251247829861
 30
0.0
 10
16.32089572482639
 20
2.076809353298611
 30
0.0
 10
16.34274631076389
 20
2.076809353298611
 30
0.0
 10
16.35661485460069
 20
2.076809353298611
 30
0.0
 10
16.36684841579861
 20
2.086127387152778
 30
0.0
 10
16.37368435329861
 20
2.095438639322917
 30
0.0
 10
16.37664794921875
 20
2.083604600694444
 30
0.0
 10
16.38666449652778
 20
2.078138563368055
 30
0.0
 10
16.40145534939236
 20
2.078138563368055
 30
0.0
 10
16.41199408637153
 20
2.078138563368055
 30
0.0
 10
16.42508951822916
 20
2.088792588975694
 30
0.0
 10
16.4364013671875
 20
2.099643283420139
 30
0.0
 10
16.43844265407986
 20
2.083387586805555
 30
0.0
 10
16.45231797960069
 20
2.077460394965278
 30
0.0
 10
16.47311062282986
 20
2.077460394965278
 30
0.0
 10
16.51384819878472
 20
2.077460394965278
 30
0.0
 10
16.53341335720486
 20
2.12774658203125
 30
0.0
 10
16.53341335720486
 20
2.163472493489583
 30
0.0
 10
16.53341335720486
 20
2.176920572916667
 30
0.0
 10
16.5263671875
 20
2.192376030815972
 30
0.0
 10
16.50453016493055
 20
2.192376030815972
 30
0.0
  0
SPLINE
  5
EA
330
DE
100
AcDbEntity
  8
Immeasurable Beauty
370
     0
100
AcDbSpline
210
0.0
220
0.0
230
1.0
 70
    11
 71
     3
 72
    23
 73
    19
 74
     0
 42
0.0000000001
 43
0.0000000001
 40
0.0
 40
0.0
 40
0.0
 40
0.0
 40
1.0
 40
1.0
 40
1.0
 40
2.0
 40
2.0
 40
2.0
 40
3.0
 40
3.0
 40
3.0
 40
4.0
 40
4.0
 40
4.0
 40
5.0
 40
5.0
 40
5.0
 40
6.0
 40
6.0
 40
6.0
 40
6.0
 10
16.37434895833333
 20
2.114515516493055
 30
0.0
 10
16.37368435329861
 20
2.111857096354167
 30
0.0
 10
16.37323676215278
 20
2.109341091579861
 30
0.0
 10
16.37298583984375
 20
2.1070556640625
 30
0.0
 10
16.36865234375
 20
2.100694444444444
 30
0.0
 10
16.36366780598958
 20
2.095655653211805
 30
0.0
 10
16.35841878255208
 20
2.095655653211805
 30
0.0
 10
16.3527357313368
 20
2.095655653211805
 30
0.0
 10
16.34522840711805
 20
2.098171657986111
 30
0.0
 10
16.34522840711805
 20
2.111857096354167
 30
0.0
 10
16.34522840711805
 20
2.14276123046875
 30
0.0
 10
16.35890706380208
 20
2.178988986545139
 30
0.0
 10
16.37594943576389
 20
2.178988986545139
 30
0.0
 10
16.379150390625
 20
2.178988986545139
 30
0.0
 10
16.38348388671875
 20
2.17803955078125
 30
0.0
 10
16.38710530598958
 20
2.174852159288194
 30
0.0
 10
16.38710530598958
 20
2.174852159288194
 30
0.0
 10
16.37434895833333
 20
2.114515516493055
 30
0.0
 10
16.37434895833333
 20
2.114515516493055
 30
0.0
  0
SPLINE
  5
EB
330
DE
100
AcDbEntity
  8
Immeasurable Beauty
370
     0
100
AcDbSpline
210
0.0
220
0.0
230
1.0
 70
    11
 71
     3
 72
    23
 73
    19
 74
     0
 42
0.0000000001
 43
0.0000000001
 40
0.0
 40
0.0
 40
0.0
 40
0.0
 40
1.0
 40
1.0
 40
1.0
 40
2.0
 40
2.0
 40
2.0
 40
3.0
 40
3.0
 40
3.0
 40
4.0
 40
4.0
 40
4.0
 40
5.0
 40
5.0
 40
5.0
 40
6.0
 40
6.0
 40
6.0
 40
6.0
 10
16.47787814670139
 20
2.093587239583333
 30
0.0
 10
16.47108968098958
 20
2.093587239583333
 30
0.0
 10
16.4678480360243
 20
2.095208062065972
 30
0.0
 10
16.4678480360243
 20
2.102016872829861
 30
0.0
 10
16.4678480360243
 20
2.10498046875
 30
0.0
 10
16.46856011284722
 20
2.109117296006944
 30
0.0
 10
16.46970621744791
 20
2.114515516493055
 30
0.0
 10
16.46970621744791
 20
2.114515516493055
 30
0.0
 10
16.48267957899305
 20
2.175516764322917
 30
0.0
 10
16.48267957899305
 20
2.175516764322917
 30
0.0
 10
16.48471408420139
 20
2.177144368489583
 30
0.0
 10
16.49265543619791
 20
2.178778754340278
 30
0.0
 10
16.49494086371528
 20
2.178778754340278
 30
0.0
 10
16.50065782335069
 20
2.178778754340278
 30
0.0
 10
16.50792778862847
 20
2.175516764322917
 30
0.0
 10
16.50792778862847
 20
2.161912706163194
 30
0.0
 10
16.50792778862847
 20
2.145501030815972
 30
0.0
 10
16.49654812282986
 20
2.093587239583333
 30
0.0
 10
16.47787814670139
 20
2.093587239583333
 30
0.0
  0
HATCH
  5
EC
330
DE
100
AcDbEntity
  8
Immeasurable Beauty
 62
   179
420
  2301728
100
AcDbHatch
 10
0.0
 20
0.0
 30
0.0
210
0.0
220
0.0
230
1.0
  2
SOLID
 70
     1
 71
     0
 91
        3
 92
        1
 93
        1
 72
     4
 94
        3
 73
     0
 74
     1
 95
       65
 96
       61
 40
0.0
 40
0.0
 40
0.0
 40
0.0
 40
1.0
 40
1.0
 40
1.0
 40
2.0
 40
2.0
 40
2.0
 40
3.0
 40
3.0
 40
3.0
 40
4.0
 40
4.0
 40
4.0
 40
5.0
 40
5.0
 40
5.0
 40
6.0
 40
6.0
 40
6.0
 40
7.0
 40
7.0
 40
7.0
 40
8.0
 40
8.0
 40
8.0
 40
9.0
 40
9.0
 40
9.0
 40
10.0
 40
10.0
 40
10.0
 40
11.0
 40
11.0
 40
11.0
 40
12.0
 40
12.0
 40
12.0
 40
13.0
 40
13.0
 40
13.0
 40
14.0
 40
14.0
 40
14.0
 40
15.0
 40
15.0
 40
15.0
 40
16.0
 40
16.0
 40
16.0
 40
17.0
 40
17.0
 40
17.0
 40
18.0
 40
18.0
 40
18.0
 40
19.0
 40
19.0
 40
19.0
 40
20.0
 40
20.0
 40
20.0
 40
20.0
 10
16.50453016493055
 20
2.192376030815972
 10
16.49698893229166
 20
2.192376030815972
 10
16.49019368489583
 20
2.189643012152778
 10
16.48493109809028
 20
2.185804578993055
 10
16.48493109809028
 20
2.185804578993055
 10
16.49586995442708
 20
2.237481011284722
 10
16.49586995442708
 20
2.237481011284722
 10
16.49586995442708
 20
2.237481011284722
 10
16.462158203125
 20
2.232896592881944
 10
16.462158203125
 20
2.232896592881944
 10
16.462158203125
 20
2.232896592881944
 10
16.43690999348958
 20
2.114515516493055
 10
16.43690999348958
 20
2.114515516493055
 10
16.43646918402778
 20
2.112514919704861
 10
16.43646918402778
 20
2.110968695746528
 10
16.43624538845486
 20
2.109178331163194
 10
16.42985704210069
 20
2.103719075520833
 10
16.42324490017361
 20
2.098836263020833
 10
16.41760932074653
 20
2.098836263020833
 10
16.4085218641493
 20
2.098836263020833
 10
16.40622287326389
 20
2.102471245659722
 10
16.40622287326389
 20
2.107489691840278
 10
16.40622287326389
 20
2.109564887152778
 10
16.40665690104166
 20
2.112074110243055
 10
16.40714518229166
 20
2.114515516493055
 10
16.40714518229166
 20
2.114515516493055
 10
16.42352973090278
 20
2.191935221354167
 10
16.42352973090278
 20
2.191935221354167
 10
16.42352973090278
 20
2.191935221354167
 10
16.39077419704861
 20
2.191935221354167
 10
16.39077419704861
 20
2.191935221354167
 10
16.39077419704861
 20
2.191935221354167
 10
16.389404296875
 20
2.186014811197917
 10
16.389404296875
 20
2.186014811197917
 10
16.38529459635416
 20
2.189432779947917
 10
16.37959798177083
 20
2.191718207465278
 10
16.37413194444444
 20
2.191718207465278
 10
16.32861328125
 20
2.191718207465278
 10
16.31450059678819
 20
2.14483642578125
 10
16.31450059678819
 20
2.105645073784722
 10
16.31450059678819
 20
2.092251247829861
 10
16.32089572482639
 20
2.076809353298611
 10
16.34274631076389
 20
2.076809353298611
 10
16.35661485460069
 20
2.076809353298611
 10
16.36684841579861
 20
2.086127387152778
 10
16.37368435329861
 20
2.095438639322917
 10
16.37664794921875
 20
2.083604600694444
 10
16.38666449652778
 20
2.078138563368055
 10
16.40145534939236
 20
2.078138563368055
 10
16.41199408637153
 20
2.078138563368055
 10
16.42508951822916
 20
2.088792588975694
 10
16.4364013671875
 20
2.099643283420139
 10
16.43844265407986
 20
2.083387586805555
 10
16.45231797960069
 20
2.077460394965278
 10
16.47311062282986
 20
2.077460394965278
 10
16.51384819878472
 20
2.077460394965278
 10
16.53341335720486
 20
2.12774658203125
 10
16.53341335720486
 20
2.163472493489583
 10
16.53341335720486
 20
2.176920572916667
 10
16.5263671875
 20
2.192376030815972
 10
16.50453016493055
 20
2.192376030815972
 97
        0
 92
        1
 93
        1
 72
     4
 94
        3
 73
     0
 74
     1
 95
       23
 96
       19
 40
0.0
 40
0.0
 40
0.0
 40
0.0
 40
1.0
 40
1.0
 40
1.0
 40
2.0
 40
2.0
 40
2.0
 40
3.0
 40
3.0
 40
3.0
 40
4.0
 40
4.0
 40
4.0
 40
5.0
 40
5.0
 40
5.0
 40
6.0
 40
6.0
 40
6.0
 40
6.0
 10
16.37434895833333
 20
2.114515516493055
 10
16.37368435329861
 20
2.111857096354167
 10
16.37323676215278
 20
2.109341091579861
 10
16.37298583984375
 20
2.1070556640625
 10
16.36865234375
 20
2.100694444444444
 10
16.36366780598958
 20
2.095655653211805
 10
16.35841878255208
 20
2.095655653211805
 10
16.3527357313368
 20
2.095655653211805
 10
16.34522840711805
 20
2.098171657986111
 10
16.34522840711805
 20
2.111857096354167
 10
16.34522840711805
 20
2.14276123046875
 10
16.35890706380208
 20
2.178988986545139
 10
16.37594943576389
 20
2.178988986545139
 10
16.379150390625
 20
2.178988986545139
 10
16.38348388671875
 20
2.17803955078125
 10
16.38710530598958
 20
2.174852159288194
 10
16.38710530598958
 20
2.174852159288194
 10
16.37434895833333
 20
2.114515516493055
 10
16.37434895833333
 20
2.114515516493055
 97
        0
 92
        1
 93
        1
 72
     4
 94
        3
 73
     0
 74
     1
 95
       23
 96
       19
 40
0.0
 40
0.0
 40
0.0
 40
0.0
 40
1.0
 40
1.0
 40
1.0
 40
2.0
 40
2.0
 40
2.0
 40
3.0
 40
3.0
 40
3.0
 40
4.0
 40
4.0
 40
4.0
 40
5.0
 40
5.0
 40
5.0
 40
6.0
 40
6.0
 40
6.0
 40
6.0
 10
16.47787814670139
 20
2.093587239583333
 10
16.47108968098958
 20
2.093587239583333
 10
16.4678480360243
 20
2.095208062065972
 10
16.4678480360243
 20
2.102016872829861
 10
16.4678480360243
 20
2.10498046875
 10
16.46856011284722
 20
2.109117296006944
 10
16.46970621744791
 20
2.114515516493055
 10
16.46970621744791
 20
2.114515516493055
 10
16.48267957899305
 20
2.175516764322917
 10
16.48267957899305
 20
2.175516764322917
 10
16.48471408420139
 20
2.177144368489583
 10
16.49265543619791
 20
2.178778754340278
 10
16.49494086371528
 20
2.178778754340278
 10
16.50065782335069
 20
2.178778754340278
 10
16.50792778862847
 20
2.175516764322917
 10
16.50792778862847
 20
2.161912706163194
 10
16.50792778862847
 20
2.145501030815972
 10
16.49654812282986
 20
2.093587239583333
 10
16.47787814670139
 20
2.093587239583333
 97
        0
 75
     2
 76
     1
 98
        0
  0
SPLINE
  5
ED
330
DE
100
AcDbEntity
  8
Immeasurable Beauty
370
     0
100
AcDbSpline
210
0.0
220
0.0
230
1.0
 70
    11
 71
     3
 72
    56
 73
    52
 74
     0
 42
0.0000000001
 43
0.0000000001
 40
0.0
 40
0.0
 40
0.0
 40
0.0
 40
1.0
 40
1.0
 40
1.0
 40
2.0
 40
2.0
 40
2.0
 40
3.0
 40
3.0
 40
3.0
 40
4.0
 40
4.0
 40
4.0
 40
5.0
 40
5.0
 40
5.0
 40
6.0
 40
6.0
 40
6.0
 40
7.0
 40
7.0
 40
7.0
 40
8.0
 40
8.0
 40
8.0
 40
9.0
 40
9.0
 40
9.0
 40
10.0
 40
10.0
 40
10.0
 40
11.0
 40
11.0
 40
11.0
 40
12.0
 40
12.0
 40
12.0
 40
13.0
 40
13.0
 40
13.0
 40
14.0
 40
14.0
 40
14.0
 40
15.0
 40
15.0
 40
15.0
 40
16.0
 40
16.0
 40
16.0
 40
17.0
 40
17.0
 40
17.0
 40
17.0
 10
16.69012451171875
 20
2.170342339409722
 30
0.0
 10
16.69012451171875
 20
2.186238606770833
 30
0.0
 10
16.67966037326389
 20
2.194017198350694
 30
0.0
 10
16.66100396050347
 20
2.194017198350694
 30
0.0
 10
16.62128363715278
 20
2.194017198350694
 30
0.0
 10
16.60851372612847
 20
2.147494845920139
 30
0.0
 10
16.60748291015625
 20
2.118204752604167
 30
0.0
 10
16.59849039713541
 20
2.110812717013889
 30
0.0
 10
16.58707682291666
 20
2.098836263020833
 30
0.0
 10
16.57825385199653
 20
2.098836263020833
 30
0.0
 10
16.56934950086805
 20
2.098836263020833
 30
0.0
 10
16.56685384114583
 20
2.102240668402778
 30
0.0
 10
16.56685384114583
 20
2.107272677951389
 30
0.0
 10
16.56685384114583
 20
2.109117296006944
 30
0.0
 10
16.56731499565972
 20
2.111117892795139
 30
0.0
 10
16.56801350911458
 20
2.114515516493055
 30
0.0
 10
16.56801350911458
 20
2.114515516493055
 30
0.0
 10
16.59415011935764
 20
2.237481011284722
 30
0.0
 10
16.59415011935764
 20
2.237481011284722
 30
0.0
 10
16.59415011935764
 20
2.237481011284722
 30
0.0
 10
16.56047905815972
 20
2.232896592881944
 30
0.0
 10
16.56047905815972
 20
2.232896592881944
 30
0.0
 10
16.56047905815972
 20
2.232896592881944
 30
0.0
 10
16.53521728515625
 20
2.114515516493055
 30
0.0
 10
16.53521728515625
 20
2.114515516493055
 30
0.0
 10
16.53428819444444
 20
2.1102294921875
 30
0.0
 10
16.53384060329861
 20
2.106377495659722
 30
0.0
 10
16.53384060329861
 20
2.102979871961805
 30
0.0
 10
16.53384060329861
 20
2.085910373263889
 30
0.0
 10
16.54454210069444
 20
2.078138563368055
 30
0.0
 10
16.56206597222222
 20
2.078138563368055
 30
0.0
 10
16.5763685438368
 20
2.078138563368055
 30
0.0
 10
16.59540473090278
 20
2.097283257378472
 30
0.0
 10
16.60792371961805
 20
2.110371907552083
 30
0.0
 10
16.60941569010416
 20
2.092698838975694
 30
0.0
 10
16.62062581380208
 20
2.078138563368055
 30
0.0
 10
16.64096408420139
 20
2.078138563368055
 30
0.0
 10
16.66373697916666
 20
2.078138563368055
 30
0.0
 10
16.68349880642361
 20
2.084499782986111
 30
0.0
 10
16.68349880642361
 20
2.109117296006944
 30
0.0
 10
16.67420111762153
 20
2.100694444444444
 30
0.0
 10
16.66510009765625
 20
2.094550238715278
 30
0.0
 10
16.65439181857639
 20
2.094550238715278
 30
0.0
 10
16.64551459418403
 20
2.094550238715278
 30
0.0
 10
16.63798014322916
 20
2.099066840277778
 30
0.0
 10
16.63798014322916
 20
2.11407470703125
 30
0.0
 10
16.63798014322916
 20
2.116807725694444
 30
0.0
 10
16.63821750217014
 20
2.120212131076389
 30
0.0
 10
16.63870578342014
 20
2.123908148871528
 30
0.0
 10
16.66029866536458
 20
2.126641167534722
 30
0.0
 10
16.69012451171875
 20
2.142537434895833
 30
0.0
 10
16.69012451171875
 20
2.170342339409722
 30
0.0
  0
SPLINE
  5
EE
330
DE
100
AcDbEntity
  8
Immeasurable Beauty
370
     0
100
AcDbSpline
210
0.0
220
0.0
230
1.0
 70
    11
 71
     3
 72
    14
 73
    10
 74
     0
 42
0.0000000001
 43
0.0000000001
 40
0.0
 40
0.0
 40
0.0
 40
0.0
 40
1.0
 40
1.0
 40
1.0
 40
2.0
 40
2.0
 40
2.0
 40
3.0
 40
3.0
 40
3.0
 40
3.0
 10
16.66850450303819
 20
2.18194580078125
 30
0.0
 10
16.67534722222222
 20
2.18194580078125
 30
0.0
 10
16.67645263671875
 20
2.173977322048611
 30
0.0
 10
16.67645263671875
 20
2.169155544704861
 30
0.0
 10
16.6762220594618
 20
2.153042263454861
 30
0.0
 10
16.66142442491319
 20
2.13507080078125
 30
0.0
 10
16.64050971137153
 20
2.134772406684028
 30
0.0
 10
16.64528401692708
 20
2.156222873263889
 30
0.0
 10
16.65574815538194
 20
2.18194580078125
 30
0.0
 10
16.66850450303819
 20
2.18194580078125
 30
0.0
  0
HATCH
  5
EF
330
DE
100
AcDbEntity
  8
Immeasurable Beauty
 62
   179
420
  2301728
100
AcDbHatch
 10
0.0
 20
0.0
 30
0.0
210
0.0
220
0.0
230
1.0
  2
SOLID
 70
     1
 71
     0
 91
        2
 92
        1
 93
        1
 72
     4
 94
        3
 73
     0
 74
     1
 95
       56
 96
       52
 40
0.0
 40
0.0
 40
0.0
 40
0.0
 40
1.0
 40
1.0
 40
1.0
 40
2.0
 40
2.0
 40
2.0
 40
3.0
 40
3.0
 40
3.0
 40
4.0
 40
4.0
 40
4.0
 40
5.0
 40
5.0
 40
5.0
 40
6.0
 40
6.0
 40
6.0
 40
7.0
 40
7.0
 40
7.0
 40
8.0
 40
8.0
 40
8.0
 40
9.0
 40
9.0
 40
9.0
 40
10.0
 40
10.0
 40
10.0
 40
11.0
 40
11.0
 40
11.0
 40
12.0
 40
12.0
 40
12.0
 40
13.0
 40
13.0
 40
13.0
 40
14.0
 40
14.0
 40
14.0
 40
15.0
 40
15.0
 40
15.0
 40
16.0
 40
16.0
 40
16.0
 40
17.0
 40
17.0
 40
17.0
 40
17.0
 10
16.69012451171875
 20
2.170342339409722
 10
16.69012451171875
 20
2.186238606770833
 10
16.67966037326389
 20
2.194017198350694
 10
16.66100396050347
 20
2.194017198350694
 10
16.62128363715278
 20
2.194017198350694
 10
16.60851372612847
 20
2.147494845920139
 10
16.60748291015625
 20
2.118204752604167
 10
16.59849039713541
 20
2.110812717013889
 10
16.58707682291666
 20
2.098836263020833
 10
16.57825385199653
 20
2.098836263020833
 10
16.56934950086805
 20
2.098836263020833
 10
16.56685384114583
 20
2.102240668402778
 10
16.56685384114583
 20
2.107272677951389
 10
16.56685384114583
 20
2.109117296006944
 10
16.56731499565972
 20
2.111117892795139
 10
16.56801350911458
 20
2.114515516493055
 10
16.56801350911458
 20
2.114515516493055
 10
16.59415011935764
 20
2.237481011284722
 10
16.59415011935764
 20
2.237481011284722
 10
16.59415011935764
 20
2.237481011284722
 10
16.56047905815972
 20
2.232896592881944
 10
16.56047905815972
 20
2.232896592881944
 10
16.56047905815972
 20
2.232896592881944
 10
16.53521728515625
 20
2.114515516493055
 10
16.53521728515625
 20
2.114515516493055
 10
16.53428819444444
 20
2.1102294921875
 10
16.53384060329861
 20
2.106377495659722
 10
16.53384060329861
 20
2.102979871961805
 10
16.53384060329861
 20
2.085910373263889
 10
16.54454210069444
 20
2.078138563368055
 10
16.56206597222222
 20
2.078138563368055
 10
16.5763685438368
 20
2.078138563368055
 10
16.59540473090278
 20
2.097283257378472
 10
16.60792371961805
 20
2.110371907552083
 10
16.60941569010416
 20
2.092698838975694
 10
16.62062581380208
 20
2.078138563368055
 10
16.64096408420139
 20
2.078138563368055
 10
16.66373697916666
 20
2.078138563368055
 10
16.68349880642361
 20
2.084499782986111
 10
16.68349880642361
 20
2.109117296006944
 10
16.67420111762153
 20
2.100694444444444
 10
16.66510009765625
 20
2.094550238715278
 10
16.65439181857639
 20
2.094550238715278
 10
16.64551459418403
 20
2.094550238715278
 10
16.63798014322916
 20
2.099066840277778
 10
16.63798014322916
 20
2.11407470703125
 10
16.63798014322916
 20
2.116807725694444
 10
16.63821750217014
 20
2.120212131076389
 10
16.63870578342014
 20
2.123908148871528
 10
16.66029866536458
 20
2.126641167534722
 10
16.69012451171875
 20
2.142537434895833
 10
16.69012451171875
 20
2.170342339409722
 97
        0
 92
        1
 93
        1
 72
     4
 94
        3
 73
     0
 74
     1
 95
       14
 96
       10
 40
0.0
 40
0.0
 40
0.0
 40
0.0
 40
1.0
 40
1.0
 40
1.0
 40
2.0
 40
2.0
 40
2.0
 40
3.0
 40
3.0
 40
3.0
 40
3.0
 10
16.66850450303819
 20
2.18194580078125
 10
16.67534722222222
 20
2.18194580078125
 10
16.67645263671875
 20
2.173977322048611
 10
16.67645263671875
 20
2.169155544704861
 10
16.6762220594618
 20
2.153042263454861
 10
16.66142442491319
 20
2.13507080078125
 10
16.64050971137153
 20
2.134772406684028
 10
16.64528401692708
 20
2.156222873263889
 10
16.65574815538194
 20
2.18194580078125
 10
16.66850450303819
 20
2.18194580078125
 97
        0
 75
     2
 76
     1
 98
        0
  0
SPLINE
  5
F0
330
DE
100
AcDbEntity
  8
Immeasurable Beauty
370
     0
100
AcDbSpline
210
0.0
220
0.0
230
1.0
 70
    11
 71
     3
 72
    71
 73
    67
 74
     0
 42
0.0000000001
 43
0.0000000001
 40
0.0
 40
0.0
 40
0.0
 40
0.0
 40
1.0
 40
1.0
 40
1.0
 40
2.0
 40
2.0
 40
2.0
 40
3.0
 40
3.0
 40
3.0
 40
4.0
 40
4.0
 40
4.0
 40
5.0
 40
5.0
 40
5.0
 40
6.0
 40
6.0
 40
6.0
 40
7.0
 40
7.0
 40
7.0
 40
8.0
 40
8.0
 40
8.0
 40
9.0
 40
9.0
 40
9.0
 40
10.0
 40
10.0
 40
10.0
 40
11.0
 40
11.0
 40
11.0
 40
12.0
 40
12.0
 40
12.0
 40
13.0
 40
13.0
 40
13.0
 40
14.0
 40
14.0
 40
14.0
 40
15.0
 40
15.0
 40
15.0
 40
16.0
 40
16.0
 40
16.0
 40
17.0
 40
17.0
 40
17.0
 40
18.0
 40
18.0
 40
18.0
 40
19.0
 40
19.0
 40
19.0
 40
20.0
 40
20.0
 40
20.0
 40
21.0
 40
21.0
 40
21.0
 40
22.0
 40
22.0
 40
22.0
 40
22.0
 10
16.85350884331597
 20
2.176472981770833
 30
0.0
 10
16.86806911892361
 20
2.184909396701389
 30
0.0
 10
16.87624782986111
 20
2.198961046006944
 30
0.0
 10
16.87624782986111
 20
2.212415907118055
 30
0.0
 10
16.87624782986111
 20
2.231045193142361
 30
0.0
 10
16.86029730902778
 20
2.248867458767361
 30
0.0
 10
16.82460530598958
 20
2.248867458767361
 30
0.0
 10
16.78658040364583
 20
2.248867458767361
 30
0.0
 10
16.74469672309028
 20
2.219950358072917
 30
0.0
 10
16.74469672309028
 20
2.189643012152778
 30
0.0
 10
16.74469672309028
 20
2.173305935329861
 30
0.0
 10
16.7533704969618
 20
2.1676025390625
 30
0.0
 10
16.76907009548611
 20
2.1676025390625
 30
0.0
 10
16.76883951822916
 20
2.169603135850694
 30
0.0
 10
16.76585557725694
 20
2.171454535590278
 30
0.0
 10
16.76585557725694
 20
2.183057996961805
 30
0.0
 10
16.76585557725694
 20
2.217658148871528
 30
0.0
 10
16.79044596354166
 20
2.238362630208333
 30
0.0
 10
16.8273451063368
 20
2.238362630208333
 30
0.0
 10
16.84507242838541
 20
2.238362630208333
 30
0.0
 10
16.85235595703125
 20
2.227206759982639
 30
0.0
 10
16.85235595703125
 20
2.2144775390625
 30
0.0
 10
16.85235595703125
 20
2.197184244791667
 30
0.0
 10
16.83893500434028
 20
2.176920572916667
 30
0.0
 10
16.82004123263889
 20
2.176920572916667
 30
0.0
 10
16.82004123263889
 20
2.176920572916667
 30
0.0
 10
16.81846788194444
 20
2.176920572916667
 30
0.0
 10
16.81846788194444
 20
2.176920572916667
 30
0.0
 10
16.81846788194444
 20
2.176920572916667
 30
0.0
 10
16.82935926649305
 20
2.227430555555555
 30
0.0
 10
16.82935926649305
 20
2.227430555555555
 30
0.0
 10
16.82935926649305
 20
2.227430555555555
 30
0.0
 10
16.79567464192708
 20
2.222913953993055
 30
0.0
 10
16.79567464192708
 20
2.222913953993055
 30
0.0
 10
16.79567464192708
 20
2.222913953993055
 30
0.0
 10
16.76473659939236
 20
2.078138563368055
 30
0.0
 10
16.76473659939236
 20
2.078138563368055
 30
0.0
 10
16.76473659939236
 20
2.078138563368055
 30
0.0
 10
16.79747856987847
 20
2.078138563368055
 30
0.0
 10
16.79747856987847
 20
2.078138563368055
 30
0.0
 10
16.79747856987847
 20
2.078138563368055
 30
0.0
 10
16.81617567274305
 20
2.165310329861111
 30
0.0
 10
16.81617567274305
 20
2.165310329861111
 30
0.0
 10
16.82027180989583
 20
2.165764702690972
 30
0.0
 10
16.82460530598958
 20
2.165974934895833
 30
0.0
 10
16.82755533854166
 20
2.165974934895833
 30
0.0
 10
16.84254964192708
 20
2.165974934895833
 30
0.0
 10
16.84825303819444
 20
2.152811686197917
 30
0.0
 10
16.84825303819444
 20
2.138020833333333
 30
0.0
 10
16.84825303819444
 20
2.118659125434028
 30
0.0
 10
16.83824327256944
 20
2.096096462673611
 30
0.0
 10
16.82575141059028
 20
2.096096462673611
 30
0.0
 10
16.82253689236111
 20
2.096096462673611
 30
0.0
 10
16.81480577256944
 20
2.097283257378472
 30
0.0
 10
16.81045871310764
 20
2.10430908203125
 30
0.0
 10
16.80844455295139
 20
2.098619249131944
 30
0.0
 10
16.80750868055555
 20
2.09381103515625
 30
0.0
 10
16.80750868055555
 20
2.089952256944444
 30
0.0
 10
16.80750868055555
 20
2.07562255859375
 30
0.0
 10
16.82073296440972
 20
2.074286566840278
 30
0.0
 10
16.83435736762153
 20
2.074286566840278
 30
0.0
 10
16.85943603515625
 20
2.074286566840278
 30
0.0
 10
16.87969970703125
 20
2.110005696614583
 30
0.0
 10
16.87969970703125
 20
2.139370388454861
 30
0.0
 10
16.87969970703125
 20
2.1571044921875
 30
0.0
 10
16.87213812934028
 20
2.172783745659722
 30
0.0
 10
16.85350884331597
 20
2.176472981770833
 30
0.0
  0
HATCH
  5
F1
330
DE
100
AcDbEntity
  8
Immeasurable Beauty
 62
   179
420
  2301728
100
AcDbHatch
 10
0.0
 20
0.0
 30
0.0
210
0.0
220
0.0
230
1.0
  2
SOLID
 70
     1
 71
     0
 91
        1
 92
        1
 93
        1
 72
     4
 94
        3
 73
     0
 74
     1
 95
       71
 96
       67
 40
0.0
 40
0.0
 40
0.0
 40
0.0
 40
1.0
 40
1.0
 40
1.0
 40
2.0
 40
2.0
 40
2.0
 40
3.0
 40
3.0
 40
3.0
 40
4.0
 40
4.0
 40
4.0
 40
5.0
 40
5.0
 40
5.0
 40
6.0
 40
6.0
 40
6.0
 40
7.0
 40
7.0
 40
7.0
 40
8.0
 40
8.0
 40
8.0
 40
9.0
 40
9.0
 40
9.0
 40
10.0
 40
10.0
 40
10.0
 40
11.0
 40
11.0
 40
11.0
 40
12.0
 40
12.0
 40
12.0
 40
13.0
 40
13.0
 40
13.0
 40
14.0
 40
14.0
 40
14.0
 40
15.0
 40
15.0
 40
15.0
 40
16.0
 40
16.0
 40
16.0
 40
17.0
 40
17.0
 40
17.0
 40
18.0
 40
18.0
 40
18.0
 40
19.0
 40
19.0
 40
19.0
 40
20.0
 40
20.0
 40
20.0
 40
21.0
 40
21.0
 40
21.0
 40
22.0
 40
22.0
 40
22.0
 40
22.0
 10
16.85350884331597
 20
2.176472981770833
 10
16.86806911892361
 20
2.184909396701389
 10
16.87624782986111
 20
2.198961046006944
 10
16.87624782986111
 20
2.212415907118055
 10
16.87624782986111
 20
2.231045193142361
 10
16.86029730902778
 20
2.248867458767361
 10
16.82460530598958
 20
2.248867458767361
 10
16.78658040364583
 20
2.248867458767361
 10
16.74469672309028
 20
2.219950358072917
 10
16.74469672309028
 20
2.189643012152778
 10
16.74469672309028
 20
2.173305935329861
 10
16.7533704969618
 20
2.1676025390625
 10
16.76907009548611
 20
2.1676025390625
 10
16.76883951822916
 20
2.169603135850694
 10
16.76585557725694
 20
2.171454535590278
 10
16.76585557725694
 20
2.183057996961805
 10
16.76585557725694
 20
2.217658148871528
 10
16.79044596354166
 20
2.238362630208333
 10
16.8273451063368
 20
2.238362630208333
 10
16.84507242838541
 20
2.238362630208333
 10
16.85235595703125
 20
2.227206759982639
 10
16.85235595703125
 20
2.2144775390625
 10
16.85235595703125
 20
2.197184244791667
 10
16.83893500434028
 20
2.176920572916667
 10
16.82004123263889
 20
2.176920572916667
 10
16.82004123263889
 20
2.176920572916667
 10
16.81846788194444
 20
2.176920572916667
 10
16.81846788194444
 20
2.176920572916667
 10
16.81846788194444
 20
2.176920572916667
 10
16.82935926649305
 20
2.227430555555555
 10
16.82935926649305
 20
2.227430555555555
 10
16.82935926649305
 20
2.227430555555555
 10
16.79567464192708
 20
2.222913953993055
 10
16.79567464192708
 20
2.222913953993055
 10
16.79567464192708
 20
2.222913953993055
 10
16.76473659939236
 20
2.078138563368055
 10
16.76473659939236
 20
2.078138563368055
 10
16.76473659939236
 20
2.078138563368055
 10
16.79747856987847
 20
2.078138563368055
 10
16.79747856987847
 20
2.078138563368055
 10
16.79747856987847
 20
2.078138563368055
 10
16.81617567274305
 20
2.165310329861111
 10
16.81617567274305
 20
2.165310329861111
 10
16.82027180989583
 20
2.165764702690972
 10
16.82460530598958
 20
2.165974934895833
 10
16.82755533854166
 20
2.165974934895833
 10
16.84254964192708
 20
2.165974934895833
 10
16.84825303819444
 20
2.152811686197917
 10
16.84825303819444
 20
2.138020833333333
 10
16.84825303819444
 20
2.118659125434028
 10
16.83824327256944
 20
2.096096462673611
 10
16.82575141059028
 20
2.096096462673611
 10
16.82253689236111
 20
2.096096462673611
 10
16.81480577256944
 20
2.097283257378472
 10
16.81045871310764
 20
2.10430908203125
 10
16.80844455295139
 20
2.098619249131944
 10
16.80750868055555
 20
2.09381103515625
 10
16.80750868055555
 20
2.089952256944444
 10
16.80750868055555
 20
2.07562255859375
 10
16.82073296440972
 20
2.074286566840278
 10
16.83435736762153
 20
2.074286566840278
 10
16.85943603515625
 20
2.074286566840278
 10
16.87969970703125
 20
2.110005696614583
 10
16.87969970703125
 20
2.139370388454861
 10
16.87969970703125
 20
2.1571044921875
 10
16.87213812934028
 20
2.172783745659722
 10
16.85350884331597
 20
2.176472981770833
 97
        0
 75
     2
 76
     1
 98
        0
  0
SPLINE
  5
F2
330
DE
100
AcDbEntity
  8
Immeasurable Beauty
370
     0
100
AcDbSpline
210
0.0
220
0.0
230
1.0
 70
    11
 71
     3
 72
   218
 73
   214
 74
     0
 42
0.0000000001
 43
0.0000000001
 40
0.0
 40
0.0
 40
0.0
 40
0.0
 40
1.0
 40
1.0
 40
1.0
 40
2.0
 40
2.0
 40
2.0
 40
3.0
 40
3.0
 40
3.0
 40
4.0
 40
4.0
 40
4.0
 40
5.0
 40
5.0
 40
5.0
 40
6.0
 40
6.0
 40
6.0
 40
7.0
 40
7.0
 40
7.0
 40
8.0
 40
8.0
 40
8.0
 40
9.0
 40
9.0
 40
9.0
 40
10.0
 40
10.0
 40
10.0
 40
11.0
 40
11.0
 40
11.0
 40
12.0
 40
12.0
 40
12.0
 40
13.0
 40
13.0
 40
13.0
 40
14.0
 40
14.0
 40
14.0
 40
15.0
 40
15.0
 40
15.0
 40
16.0
 40
16.0
 40
16.0
 40
17.0
 40
17.0
 40
17.0
 40
18.0
 40
18.0
 40
18.0
 40
19.0
 40
19.0
 40
19.0
 40
20.0
 40
20.0
 40
20.0
 40
21.0
 40
21.0
 40
21.0
 40
22.0
 40
22.0
 40
22.0
 40
23.0
 40
23.0
 40
23.0
 40
24.0
 40
24.0
 40
24.0
 40
25.0
 40
25.0
 40
25.0
 40
26.0
 40
26.0
 40
26.0
 40
27.0
 40
27.0
 40
27.0
 40
28.0
 40
28.0
 40
28.0
 40
29.0
 40
29.0
 40
29.0
 40
30.0
 40
30.0
 40
30.0
 40
31.0
 40
31.0
 40
31.0
 40
32.0
 40
32.0
 40
32.0
 40
33.0
 40
33.0
 40
33.0
 40
34.0
 40
34.0
 40
34.0
 40
35.0
 40
35.0
 40
35.0
 40
36.0
 40
36.0
 40
36.0
 40
37.0
 40
37.0
 40
37.0
 40
38.0
 40
38.0
 40
38.0
 40
39.0
 40
39.0
 40
39.0
 40
40.0
 40
40.0
 40
40.0
 40
41.0
 40
41.0
 40
41.0
 40
42.0
 40
42.0
 40
42.0
 40
43.0
 40
43.0
 40
43.0
 40
44.0
 40
44.0
 40
44.0
 40
45.0
 40
45.0
 40
45.0
 40
46.0
 40
46.0
 40
46.0
 40
47.0
 40
47.0
 40
47.0
 40
48.0
 40
48.0
 40
48.0
 40
49.0
 40
49.0
 40
49.0
 40
50.0
 40
50.0
 40
50.0
 40
51.0
 40
51.0
 40
51.0
 40
52.0
 40
52.0
 40
52.0
 40
53.0
 40
53.0
 40
53.0
 40
54.0
 40
54.0
 40
54.0
 40
55.0
 40
55.0
 40
55.0
 40
56.0
 40
56.0
 40
56.0
 40
57.0
 40
57.0
 40
57.0
 40
58.0
 40
58.0
 40
58.0
 40
59.0
 40
59.0
 40
59.0
 40
60.0
 40
60.0
 40
60.0
 40
61.0
 40
61.0
 40
61.0
 40
62.0
 40
62.0
 40
62.0
 40
63.0
 40
63.0
 40
63.0
 40
64.0
 40
64.0
 40
64.0
 40
65.0
 40
65.0
 40
65.0
 40
66.0
 40
66.0
 40
66.0
 40
67.0
 40
67.0
 40
67.0
 40
68.0
 40
68.0
 40
68.0
 40
69.0
 40
69.0
 40
69.0
 40
70.0
 40
70.0
 40
70.0
 40
71.0
 40
71.0
 40
71.0
 40
71.0
 10
17.37659369574653
 20
2.191935221354167
 30
0.0
 10
17.37659369574653
 20
2.191935221354167
 30
0.0
 10
17.35883246527778
 20
2.107930501302083
 30
0.0
 10
17.35883246527778
 20
2.107930501302083
 30
0.0
 10
17.35293918185764
 20
2.102979871961805
 30
0.0
 10
17.3468017578125
 20
2.098836263020833
 30
0.0
 10
17.34153917100694
 20
2.098836263020833
 30
0.0
 10
17.33264838324653
 20
2.098836263020833
 30
0.0
 10
17.33018663194444
 20
2.102240668402778
 30
0.0
 10
17.33018663194444
 20
2.107272677951389
 30
0.0
 10
17.33018663194444
 20
2.109564887152778
 30
0.0
 10
17.33063422309028
 20
2.112074110243055
 30
0.0
 10
17.33128526475694
 20
2.114515516493055
 30
0.0
 10
17.33128526475694
 20
2.114515516493055
 30
0.0
 10
17.34794108072916
 20
2.191935221354167
 30
0.0
 10
17.34794108072916
 20
2.191935221354167
 30
0.0
 10
17.34794108072916
 20
2.191935221354167
 30
0.0
 10
17.31446668836805
 20
2.191935221354167
 30
0.0
 10
17.31446668836805
 20
2.191935221354167
 30
0.0
 10
17.31446668836805
 20
2.191935221354167
 30
0.0
 10
17.29941134982639
 20
2.118876139322917
 30
0.0
 10
17.29941134982639
 20
2.118876139322917
 30
0.0
 10
17.29941134982639
 20
2.118876139322917
 30
0.0
 10
17.2957763671875
 20
2.118876139322917
 30
0.0
 10
17.2957763671875
 20
2.118876139322917
 30
0.0
 10
17.28666856553819
 20
2.111551920572917
 30
0.0
 10
17.27484130859375
 20
2.098836263020833
 30
0.0
 10
17.2656995985243
 20
2.098836263020833
 30
0.0
 10
17.25661892361111
 20
2.098836263020833
 30
0.0
 10
17.25435384114583
 20
2.102240668402778
 30
0.0
 10
17.25435384114583
 20
2.107489691840278
 30
0.0
 10
17.25435384114583
 20
2.108601888020833
 30
0.0
 10
17.25410970052083
 20
2.110887315538194
 30
0.0
 10
17.26981608072916
 20
2.182834201388889
 30
0.0
 10
17.26981608072916
 20
2.182834201388889
 30
0.0
 10
17.28348795572916
 20
2.182834201388889
 30
0.0
 10
17.28348795572916
 20
2.182834201388889
 30
0.0
 10
17.28348795572916
 20
2.182834201388889
 30
0.0
 10
17.28529188368055
 20
2.191935221354167
 30
0.0
 10
17.28529188368055
 20
2.191935221354167
 30
0.0
 10
17.28529188368055
 20
2.191935221354167
 30
0.0
 10
17.2716064453125
 20
2.191935221354167
 30
0.0
 10
17.2716064453125
 20
2.191935221354167
 30
0.0
 10
17.27593994140625
 20
2.212415907118055
 30
0.0
 10
17.27936469184028
 20
2.227871365017361
 30
0.0
 10
17.27936469184028
 20
2.227871365017361
 30
0.0
 10
17.27936469184028
 20
2.227871365017361
 30
0.0
 10
17.24571397569444
 20
2.223354763454861
 30
0.0
 10
17.24571397569444
 20
2.223354763454861
 30
0.0
 10
17.24571397569444
 20
2.223354763454861
 30
0.0
 10
17.23885769314236
 20
2.191935221354167
 30
0.0
 10
17.23885769314236
 20
2.191935221354167
 30
0.0
 10
17.23885769314236
 20
2.191935221354167
 30
0.0
 10
17.23136393229166
 20
2.191935221354167
 30
0.0
 10
17.23136393229166
 20
2.191935221354167
 30
0.0
 10
17.23136393229166
 20
2.191935221354167
 30
0.0
 10
17.22950575086805
 20
2.182834201388889
 30
0.0
 10
17.22950575086805
 20
2.182834201388889
 30
0.0
 10
17.22950575086805
 20
2.182834201388889
 30
0.0
 10
17.23705376519097
 20
2.182834201388889
 30
0.0
 10
17.23705376519097
 20
2.182834201388889
 30
0.0
 10
17.23373752170139
 20
2.166130913628472
 30
0.0
 10
17.22504340277778
 20
2.129747178819444
 30
0.0
 10
17.22245279947916
 20
2.111626519097222
 30
0.0
 10
17.21517605251736
 20
2.105272081163194
 30
0.0
 10
17.20734320746528
 20
2.098836263020833
 30
0.0
 10
17.20085313585069
 20
2.098836263020833
 30
0.0
 10
17.19175211588541
 20
2.098836263020833
 30
0.0
 10
17.18946668836805
 20
2.102471245659722
 30
0.0
 10
17.18946668836805
 20
2.107489691840278
 30
0.0
 10
17.18946668836805
 20
2.109564887152778
 30
0.0
 10
17.18994140625
 20
2.112074110243055
 30
0.0
 10
17.19040256076389
 20
2.114515516493055
 30
0.0
 10
17.19040256076389
 20
2.114515516493055
 30
0.0
 10
17.20676676432291
 20
2.191935221354167
 30
0.0
 10
17.20676676432291
 20
2.191935221354167
 30
0.0
 10
17.20676676432291
 20
2.191935221354167
 30
0.0
 10
17.17401801215278
 20
2.191935221354167
 30
0.0
 10
17.17401801215278
 20
2.191935221354167
 30
0.0
 10
17.17401801215278
 20
2.191935221354167
 30
0.0
 10
17.1575927734375
 20
2.114515516493055
 30
0.0
 10
17.1575927734375
 20
2.114515516493055
 30
0.0
 10
17.15692816840278
 20
2.111857096354167
 30
0.0
 10
17.15650092230903
 20
2.109341091579861
 30
0.0
 10
17.15626356336805
 20
2.1070556640625
 30
0.0
 10
17.15057373046875
 20
2.102471245659722
 30
0.0
 10
17.14488389756944
 20
2.098836263020833
 30
0.0
 10
17.14008246527778
 20
2.098836263020833
 30
0.0
 10
17.13097466362847
 20
2.098836263020833
 30
0.0
 10
17.12871636284722
 20
2.102471245659722
 30
0.0
 10
17.12871636284722
 20
2.107489691840278
 30
0.0
 10
17.12871636284722
 20
2.109564887152778
 30
0.0
 10
17.12917073567708
 20
2.112074110243055
 30
0.0
 10
17.12962510850694
 20
2.114515516493055
 30
0.0
 10
17.12962510850694
 20
2.114515516493055
 30
0.0
 10
17.14603000217014
 20
2.191935221354167
 30
0.0
 10
17.14603000217014
 20
2.191935221354167
 30
0.0
 10
17.14603000217014
 20
2.191935221354167
 30
0.0
 10
17.1132337782118
 20
2.191935221354167
 30
0.0
 10
17.1132337782118
 20
2.191935221354167
 30
0.0
 10
17.1132337782118
 20
2.191935221354167
 30
0.0
 10
17.09685601128472
 20
2.114515516493055
 30
0.0
 10
17.09685601128472
 20
2.114515516493055
 30
0.0
 10
17.09648301866319
 20
2.112738715277778
 30
0.0
 10
17.09651692708333
 20
2.111328125
 30
0.0
 10
17.09629991319444
 20
2.109714084201389
 30
0.0
 10
17.0896742078993
 20
2.104092068142361
 30
0.0
 10
17.08281114366319
 20
2.098836263020833
 30
0.0
 10
17.07701280381944
 20
2.098836263020833
 30
0.0
 10
17.06791178385416
 20
2.098836263020833
 30
0.0
 10
17.06563313802083
 20
2.102471245659722
 30
0.0
 10
17.06563313802083
 20
2.107489691840278
 30
0.0
 10
17.06563313802083
 20
2.109564887152778
 30
0.0
 10
17.06605360243055
 20
2.112074110243055
 30
0.0
 10
17.0665283203125
 20
2.114515516493055
 30
0.0
 10
17.0665283203125
 20
2.114515516493055
 30
0.0
 10
17.08293999565972
 20
2.191935221354167
 30
0.0
 10
17.08293999565972
 20
2.191935221354167
 30
0.0
 10
17.08293999565972
 20
2.191935221354167
 30
0.0
 10
17.05015733506944
 20
2.191935221354167
 30
0.0
 10
17.05015733506944
 20
2.191935221354167
 30
0.0
 10
17.05015733506944
 20
2.191935221354167
 30
0.0
 10
17.04880777994791
 20
2.186014811197917
 30
0.0
 10
17.04880777994791
 20
2.186014811197917
 30
0.0
 10
17.04470486111111
 20
2.189432779947917
 30
0.0
 10
17.03900146484375
 20
2.191718207465278
 30
0.0
 10
17.03354220920139
 20
2.191718207465278
 30
0.0
 10
16.99423556857639
 20
2.191718207465278
 30
0.0
 10
16.9783935546875
 20
2.156819661458333
 30
0.0
 10
16.97478569878472
 20
2.121975368923611
 30
0.0
 10
16.96620008680555
 20
2.106458875868055
 30
0.0
 10
16.94883219401041
 20
2.094550238715278
 30
0.0
 10
16.93823920355903
 20
2.094550238715278
 30
0.0
 10
16.92938232421875
 20
2.094550238715278
 30
0.0
 10
16.91956922743055
 20
2.099066840277778
 30
0.0
 10
16.91956922743055
 20
2.11407470703125
 30
0.0
 10
16.91956922743055
 20
2.116807725694444
 30
0.0
 10
16.9197998046875
 20
2.120212131076389
 30
0.0
 10
16.92027452256944
 20
2.123908148871528
 30
0.0
 10
16.94191487630208
 20
2.126641167534722
 30
0.0
 10
16.97171359592014
 20
2.142537434895833
 30
0.0
 10
16.97171359592014
 20
2.170342339409722
 30
0.0
 10
16.97171359592014
 20
2.186238606770833
 30
0.0
 10
16.96123589409722
 20
2.194017198350694
 30
0.0
 10
16.94256591796875
 20
2.194017198350694
 30
0.0
 10
16.90116373697916
 20
2.194017198350694
 30
0.0
 10
16.88884141710069
 20
2.143208821614583
 30
0.0
 10
16.88884141710069
 20
2.114298502604167
 30
0.0
 10
16.88884141710069
 20
2.094767252604167
 30
0.0
 10
16.90066867404514
 20
2.078138563368055
 30
0.0
 10
16.92252604166666
 20
2.078138563368055
 30
0.0
 10
16.94383409288194
 20
2.078138563368055
 30
0.0
 10
16.96103244357639
 20
2.09033203125
 30
0.0
 10
16.973876953125
 20
2.105936686197917
 30
0.0
 10
16.973876953125
 20
2.105855305989583
 30
0.0
 10
16.973876953125
 20
2.105712890625
 30
0.0
 10
16.973876953125
 20
2.105645073784722
 30
0.0
 10
16.973876953125
 20
2.092251247829861
 30
0.0
 10
16.98029242621528
 20
2.076809353298611
 30
0.0
 10
17.00213623046875
 20
2.076809353298611
 30
0.0
 10
17.0159912109375
 20
2.076809353298611
 30
0.0
 10
17.0262451171875
 20
2.086127387152778
 30
0.0
 10
17.03309461805555
 20
2.095438639322917
 30
0.0
 10
17.03603786892361
 20
2.083604600694444
 30
0.0
 10
17.04606119791666
 20
2.078138563368055
 30
0.0
 10
17.06083170572916
 20
2.078138563368055
 30
0.0
 10
17.07164171006944
 20
2.078138563368055
 30
0.0
 10
17.08507622612847
 20
2.089301215277778
 30
0.0
 10
17.09651692708333
 20
2.100396050347222
 30
0.0
 10
17.09791395399305
 20
2.085679796006944
 30
0.0
 10
17.10758463541666
 20
2.078138563368055
 30
0.0
 10
17.12394205729166
 20
2.078138563368055
 30
0.0
 10
17.13372124565972
 20
2.078138563368055
 30
0.0
 10
17.14603000217014
 20
2.087226019965278
 30
0.0
 10
17.15671793619791
 20
2.097283257378472
 30
0.0
 10
17.15875922309028
 20
2.084052191840278
 30
0.0
 10
17.16920301649305
 20
2.078138563368055
 30
0.0
 10
17.18471272786458
 20
2.078138563368055
 30
0.0
 10
17.19594997829861
 20
2.078138563368055
 30
0.0
 10
17.21004909939236
 20
2.090189615885417
 30
0.0
 10
17.22181532118055
 20
2.101793077256944
 30
0.0
 10
17.22250705295139
 20
2.085822211371528
 30
0.0
 10
17.23259819878472
 20
2.078138563368055
 30
0.0
 10
17.24953884548611
 20
2.078138563368055
 30
0.0
 10
17.26512315538194
 20
2.078138563368055
 30
0.0
 10
17.28626166449653
 20
2.100762261284722
 30
0.0
 10
17.29843478732639
 20
2.113627115885417
 30
0.0
 10
17.29764811197916
 20
2.109714084201389
 30
0.0
 10
17.29715983072916
 20
2.106302897135417
 30
0.0
 10
17.29715983072916
 20
2.102979871961805
 30
0.0
 10
17.29715983072916
 20
2.085910373263889
 30
0.0
 10
17.30764431423611
 20
2.078138563368055
 30
0.0
 10
17.32535807291666
 20
2.078138563368055
 30
0.0
 10
17.33452690972222
 20
2.078138563368055
 30
0.0
 10
17.34612358940972
 20
2.086351182725694
 30
0.0
 10
17.35637749565972
 20
2.095655653211805
 30
0.0
 10
17.35637749565972
 20
2.095655653211805
 30
0.0
 10
17.35293918185764
 20
2.079983181423611
 30
0.0
 10
17.35293918185764
 20
2.079983181423611
 30
0.0
 10
17.33128526475694
 20
2.073554144965278
 30
0.0
 10
17.31353759765625
 20
2.066975911458333
 30
0.0
 10
17.31353759765625
 20
2.045810275607639
 30
0.0
 10
17.31353759765625
 20
2.031032986111111
 30
0.0
 10
17.32651095920139
 20
2.021192762586805
 30
0.0
 10
17.34042019314236
 20
2.021192762586805
 30
0.0
 10
17.35544162326389
 20
2.021192762586805
 30
0.0
 10
17.37501356336805
 20
2.027411566840278
 30
0.0
 10
17.38184950086805
 20
2.059950086805555
 30
0.0
 10
17.38184950086805
 20
2.059950086805555
 30
0.0
 10
17.40959337022569
 20
2.191935221354167
 30
0.0
 10
17.40959337022569
 20
2.191935221354167
 30
0.0
 10
17.40959337022569
 20
2.191935221354167
 30
0.0
 10
17.37659369574653
 20
2.191935221354167
 30
0.0
 10
17.37659369574653
 20
2.191935221354167
 30
0.0
  0
SPLINE
  5
F3
330
DE
100
AcDbEntity
  8
Immeasurable Beauty
370
     0
100
AcDbSpline
210
0.0
220
0.0
230
1.0
 70
    11
 71
     3
 72
    14
 73
    10
 74
     0
 42
0.0000000001
 43
0.0000000001
 40
0.0
 40
0.0
 40
0.0
 40
0.0
 40
1.0
 40
1.0
 40
1.0
 40
2.0
 40
2.0
 40
2.0
 40
3.0
 40
3.0
 40
3.0
 40
3.0
 10
16.9500732421875
 20
2.18194580078125
 30
0.0
 10
16.95691596137153
 20
2.18194580078125
 30
0.0
 10
16.95805528428819
 20
2.173977322048611
 30
0.0
 10
16.95805528428819
 20
2.169155544704861
 30
0.0
 10
16.95784505208333
 20
2.153042263454861
 30
0.0
 10
16.94300672743055
 20
2.13507080078125
 30
0.0
 10
16.92210557725694
 20
2.134772406684028
 30
0.0
 10
16.92686631944444
 20
2.156222873263889
 30
0.0
 10
16.93733723958333
 20
2.18194580078125
 30
0.0
 10
16.9500732421875
 20
2.18194580078125
 30
0.0
  0
SPLINE
  5
F4
330
DE
100
AcDbEntity
  8
Immeasurable Beauty
370
     0
100
AcDbSpline
210
0.0
220
0.0
230
1.0
 70
    11
 71
     3
 72
    23
 73
    19
 74
     0
 42
0.0000000001
 43
0.0000000001
 40
0.0
 40
0.0
 40
0.0
 40
0.0
 40
1.0
 40
1.0
 40
1.0
 40
2.0
 40
2.0
 40
2.0
 40
3.0
 40
3.0
 40
3.0
 40
4.0
 40
4.0
 40
4.0
 40
5.0
 40
5.0
 40
5.0
 40
6.0
 40
6.0
 40
6.0
 40
6.0
 10
17.03374565972222
 20
2.114515516493055
 30
0.0
 10
17.03309461805555
 20
2.111857096354167
 30
0.0
 10
17.03259955512153
 20
2.109341091579861
 30
0.0
 10
17.03238254123264
 20
2.1070556640625
 30
0.0
 10
17.02805582682291
 20
2.100694444444444
 30
0.0
 10
17.02306450737847
 20
2.095655653211805
 30
0.0
 10
17.01779513888889
 20
2.095655653211805
 30
0.0
 10
17.01210530598958
 20
2.095655653211805
 30
0.0
 10
17.00461154513889
 20
2.098171657986111
 30
0.0
 10
17.00461154513889
 20
2.111857096354167
 30
0.0
 10
17.00461154513889
 20
2.14276123046875
 30
0.0
 10
17.01828342013889
 20
2.178988986545139
 30
0.0
 10
17.0353529188368
 20
2.178988986545139
 30
0.0
 10
17.03856743706597
 20
2.178988986545139
 30
0.0
 10
17.04288736979166
 20
2.17803955078125
 30
0.0
 10
17.0465087890625
 20
2.174852159288194
 30
0.0
 10
17.0465087890625
 20
2.174852159288194
 30
0.0
 10
17.03374565972222
 20
2.114515516493055
 30
0.0
 10
17.03374565972222
 20
2.114515516493055
 30
0.0
  0
SPLINE
  5
F5
330
DE
100
AcDbEntity
  8
Immeasurable Beauty
370
     0
100
AcDbSpline
210
0.0
220
0.0
230
1.0
 70
    11
 71
     3
 72
    17
 73
    13
 74
     0
 42
0.0000000001
 43
0.0000000001
 40
0.0
 40
0.0
 40
0.0
 40
0.0
 40
1.0
 40
1.0
 40
1.0
 40
2.0
 40
2.0
 40
2.0
 40
3.0
 40
3.0
 40
3.0
 40
4.0
 40
4.0
 40
4.0
 40
4.0
 10
17.34859890407986
 20
2.059271918402778
 30
0.0
 10
17.34587266710069
 20
2.045810275607639
 30
0.0
 10
17.33973524305555
 20
2.041449652777778
 30
0.0
 10
17.33517795138889
 20
2.041449652777778
 30
0.0
 10
17.33018663194444
 20
2.041449652777778
 30
0.0
 10
17.32607014973958
 20
2.045810275607639
 30
0.0
 10
17.32607014973958
 20
2.048997667100694
 30
0.0
 10
17.32607014973958
 20
2.061279296875
 30
0.0
 10
17.33699544270833
 20
2.067857530381944
 30
0.0
 10
17.35133870442708
 20
2.072658962673611
 30
0.0
 10
17.35133870442708
 20
2.072658962673611
 30
0.0
 10
17.34859890407986
 20
2.059271918402778
 30
0.0
 10
17.34859890407986
 20
2.059271918402778
 30
0.0
  0
HATCH
  5
F6
330
DE
100
AcDbEntity
  8
Immeasurable Beauty
 62
   179
420
  2301728
100
AcDbHatch
 10
0.0
 20
0.0
 30
0.0
210
0.0
220
0.0
230
1.0
  2
SOLID
 70
     1
 71
     0
 91
        4
 92
        1
 93
        1
 72
     4
 94
        3
 73
     0
 74
     1
 95
      218
 96
      214
 40
0.0
 40
0.0
 40
0.0
 40
0.0
 40
1.0
 40
1.0
 40
1.0
 40
2.0
 40
2.0
 40
2.0
 40
3.0
 40
3.0
 40
3.0
 40
4.0
 40
4.0
 40
4.0
 40
5.0
 40
5.0
 40
5.0
 40
6.0
 40
6.0
 40
6.0
 40
7.0
 40
7.0
 40
7.0
 40
8.0
 40
8.0
 40
8.0
 40
9.0
 40
9.0
 40
9.0
 40
10.0
 40
10.0
 40
10.0
 40
11.0
 40
11.0
 40
11.0
 40
12.0
 40
12.0
 40
12.0
 40
13.0
 40
13.0
 40
13.0
 40
14.0
 40
14.0
 40
14.0
 40
15.0
 40
15.0
 40
15.0
 40
16.0
 40
16.0
 40
16.0
 40
17.0
 40
17.0
 40
17.0
 40
18.0
 40
18.0
 40
18.0
 40
19.0
 40
19.0
 40
19.0
 40
20.0
 40
20.0
 40
20.0
 40
21.0
 40
21.0
 40
21.0
 40
22.0
 40
22.0
 40
22.0
 40
23.0
 40
23.0
 40
23.0
 40
24.0
 40
24.0
 40
24.0
 40
25.0
 40
25.0
 40
25.0
 40
26.0
 40
26.0
 40
26.0
 40
27.0
 40
27.0
 40
27.0
 40
28.0
 40
28.0
 40
28.0
 40
29.0
 40
29.0
 40
29.0
 40
30.0
 40
30.0
 40
30.0
 40
31.0
 40
31.0
 40
31.0
 40
32.0
 40
32.0
 40
32.0
 40
33.0
 40
33.0
 40
33.0
 40
34.0
 40
34.0
 40
34.0
 40
35.0
 40
35.0
 40
35.0
 40
36.0
 40
36.0
 40
36.0
 40
37.0
 40
37.0
 40
37.0
 40
38.0
 40
38.0
 40
38.0
 40
39.0
 40
39.0
 40
39.0
 40
40.0
 40
40.0
 40
40.0
 40
41.0
 40
41.0
 40
41.0
 40
42.0
 40
42.0
 40
42.0
 40
43.0
 40
43.0
 40
43.0
 40
44.0
 40
44.0
 40
44.0
 40
45.0
 40
45.0
 40
45.0
 40
46.0
 40
46.0
 40
46.0
 40
47.0
 40
47.0
 40
47.0
 40
48.0
 40
48.0
 40
48.0
 40
49.0
 40
49.0
 40
49.0
 40
50.0
 40
50.0
 40
50.0
 40
51.0
 40
51.0
 40
51.0
 40
52.0
 40
52.0
 40
52.0
 40
53.0
 40
53.0
 40
53.0
 40
54.0
 40
54.0
 40
54.0
 40
55.0
 40
55.0
 40
55.0
 40
56.0
 40
56.0
 40
56.0
 40
57.0
 40
57.0
 40
57.0
 40
58.0
 40
58.0
 40
58.0
 40
59.0
 40
59.0
 40
59.0
 40
60.0
 40
60.0
 40
60.0
 40
61.0
 40
61.0
 40
61.0
 40
62.0
 40
62.0
 40
62.0
 40
63.0
 40
63.0
 40
63.0
 40
64.0
 40
64.0
 40
64.0
 40
65.0
 40
65.0
 40
65.0
 40
66.0
 40
66.0
 40
66.0
 40
67.0
 40
67.0
 40
67.0
 40
68.0
 40
68.0
 40
68.0
 40
69.0
 40
69.0
 40
69.0
 40
70.0
 40
70.0
 40
70.0
 40
71.0
 40
71.0
 40
71.0
 40
71.0
 10
17.37659369574653
 20
2.191935221354167
 10
17.37659369574653
 20
2.191935221354167
 10
17.35883246527778
 20
2.107930501302083
 10
17.35883246527778
 20
2.107930501302083
 10
17.35293918185764
 20
2.102979871961805
 10
17.3468017578125
 20
2.098836263020833
 10
17.34153917100694
 20
2.098836263020833
 10
17.33264838324653
 20
2.098836263020833
 10
17.33018663194444
 20
2.102240668402778
 10
17.33018663194444
 20
2.107272677951389
 10
17.33018663194444
 20
2.109564887152778
 10
17.33063422309028
 20
2.112074110243055
 10
17.33128526475694
 20
2.114515516493055
 10
17.33128526475694
 20
2.114515516493055
 10
17.34794108072916
 20
2.191935221354167
 10
17.34794108072916
 20
2.191935221354167
 10
17.34794108072916
 20
2.191935221354167
 10
17.31446668836805
 20
2.191935221354167
 10
17.31446668836805
 20
2.191935221354167
 10
17.31446668836805
 20
2.191935221354167
 10
17.29941134982639
 20
2.118876139322917
 10
17.29941134982639
 20
2.118876139322917
 10
17.29941134982639
 20
2.118876139322917
 10
17.2957763671875
 20
2.118876139322917
 10
17.2957763671875
 20
2.118876139322917
 10
17.28666856553819
 20
2.111551920572917
 10
17.27484130859375
 20
2.098836263020833
 10
17.2656995985243
 20
2.098836263020833
 10
17.25661892361111
 20
2.098836263020833
 10
17.25435384114583
 20
2.102240668402778
 10
17.25435384114583
 20
2.107489691840278
 10
17.25435384114583
 20
2.108601888020833
 10
17.25410970052083
 20
2.110887315538194
 10
17.26981608072916
 20
2.182834201388889
 10
17.26981608072916
 20
2.182834201388889
 10
17.28348795572916
 20
2.182834201388889
 10
17.28348795572916
 20
2.182834201388889
 10
17.28348795572916
 20
2.182834201388889
 10
17.28529188368055
 20
2.191935221354167
 10
17.28529188368055
 20
2.191935221354167
 10
17.28529188368055
 20
2.191935221354167
 10
17.2716064453125
 20
2.191935221354167
 10
17.2716064453125
 20
2.191935221354167
 10
17.27593994140625
 20
2.212415907118055
 10
17.27936469184028
 20
2.227871365017361
 10
17.27936469184028
 20
2.227871365017361
 10
17.27936469184028
 20
2.227871365017361
 10
17.24571397569444
 20
2.223354763454861
 10
17.24571397569444
 20
2.223354763454861
 10
17.24571397569444
 20
2.223354763454861
 10
17.23885769314236
 20
2.191935221354167
 10
17.23885769314236
 20
2.191935221354167
 10
17.23885769314236
 20
2.191935221354167
 10
17.23136393229166
 20
2.191935221354167
 10
17.23136393229166
 20
2.191935221354167
 10
17.23136393229166
 20
2.191935221354167
 10
17.22950575086805
 20
2.182834201388889
 10
17.22950575086805
 20
2.182834201388889
 10
17.22950575086805
 20
2.182834201388889
 10
17.23705376519097
 20
2.182834201388889
 10
17.23705376519097
 20
2.182834201388889
 10
17.23373752170139
 20
2.166130913628472
 10
17.22504340277778
 20
2.129747178819444
 10
17.22245279947916
 20
2.111626519097222
 10
17.21517605251736
 20
2.105272081163194
 10
17.20734320746528
 20
2.098836263020833
 10
17.20085313585069
 20
2.098836263020833
 10
17.19175211588541
 20
2.098836263020833
 10
17.18946668836805
 20
2.102471245659722
 10
17.18946668836805
 20
2.107489691840278
 10
17.18946668836805
 20
2.109564887152778
 10
17.18994140625
 20
2.112074110243055
 10
17.19040256076389
 20
2.114515516493055
 10
17.19040256076389
 20
2.114515516493055
 10
17.20676676432291
 20
2.191935221354167
 10
17.20676676432291
 20
2.191935221354167
 10
17.20676676432291
 20
2.191935221354167
 10
17.17401801215278
 20
2.191935221354167
 10
17.17401801215278
 20
2.191935221354167
 10
17.17401801215278
 20
2.191935221354167
 10
17.1575927734375
 20
2.114515516493055
 10
17.1575927734375
 20
2.114515516493055
 10
17.15692816840278
 20
2.111857096354167
 10
17.15650092230903
 20
2.109341091579861
 10
17.15626356336805
 20
2.1070556640625
 10
17.15057373046875
 20
2.102471245659722
 10
17.14488389756944
 20
2.098836263020833
 10
17.14008246527778
 20
2.098836263020833
 10
17.13097466362847
 20
2.098836263020833
 10
17.12871636284722
 20
2.102471245659722
 10
17.12871636284722
 20
2.107489691840278
 10
17.12871636284722
 20
2.109564887152778
 10
17.12917073567708
 20
2.112074110243055
 10
17.12962510850694
 20
2.114515516493055
 10
17.12962510850694
 20
2.114515516493055
 10
17.14603000217014
 20
2.191935221354167
 10
17.14603000217014
 20
2.191935221354167
 10
17.14603000217014
 20
2.191935221354167
 10
17.1132337782118
 20
2.191935221354167
 10
17.1132337782118
 20
2.191935221354167
 10
17.1132337782118
 20
2.191935221354167
 10
17.09685601128472
 20
2.114515516493055
 10
17.09685601128472
 20
2.114515516493055
 10
17.09648301866319
 20
2.112738715277778
 10
17.09651692708333
 20
2.111328125
 10
17.09629991319444
 20
2.109714084201389
 10
17.0896742078993
 20
2.104092068142361
 10
17.08281114366319
 20
2.098836263020833
 10
17.07701280381944
 20
2.098836263020833
 10
17.06791178385416
 20
2.098836263020833
 10
17.06563313802083
 20
2.102471245659722
 10
17.06563313802083
 20
2.107489691840278
 10
17.06563313802083
 20
2.109564887152778
 10
17.06605360243055
 20
2.112074110243055
 10
17.0665283203125
 20
2.114515516493055
 10
17.0665283203125
 20
2.114515516493055
 10
17.08293999565972
 20
2.191935221354167
 10
17.08293999565972
 20
2.191935221354167
 10
17.08293999565972
 20
2.191935221354167
 10
17.05015733506944
 20
2.191935221354167
 10
17.05015733506944
 20
2.191935221354167
 10
17.05015733506944
 20
2.191935221354167
 10
17.04880777994791
 20
2.186014811197917
 10
17.04880777994791
 20
2.186014811197917
 10
17.04470486111111
 20
2.189432779947917
 10
17.03900146484375
 20
2.191718207465278
 10
17.03354220920139
 20
2.191718207465278
 10
16.99423556857639
 20
2.191718207465278
 10
16.9783935546875
 20
2.156819661458333
 10
16.97478569878472
 20
2.121975368923611
 10
16.96620008680555
 20
2.106458875868055
 10
16.94883219401041
 20
2.094550238715278
 10
16.93823920355903
 20
2.094550238715278
 10
16.92938232421875
 20
2.094550238715278
 10
16.91956922743055
 20
2.099066840277778
 10
16.91956922743055
 20
2.11407470703125
 10
16.91956922743055
 20
2.116807725694444
 10
16.9197998046875
 20
2.120212131076389
 10
16.92027452256944
 20
2.123908148871528
 10
16.94191487630208
 20
2.126641167534722
 10
16.97171359592014
 20
2.142537434895833
 10
16.97171359592014
 20
2.170342339409722
 10
16.97171359592014
 20
2.186238606770833
 10
16.96123589409722
 20
2.194017198350694
 10
16.94256591796875
 20
2.194017198350694
 10
16.90116373697916
 20
2.194017198350694
 10
16.88884141710069
 20
2.143208821614583
 10
16.88884141710069
 20
2.114298502604167
 10
16.88884141710069
 20
2.094767252604167
 10
16.90066867404514
 20
2.078138563368055
 10
16.92252604166666
 20
2.078138563368055
 10
16.94383409288194
 20
2.078138563368055
 10
16.96103244357639
 20
2.09033203125
 10
16.973876953125
 20
2.105936686197917
 10
16.973876953125
 20
2.105855305989583
 10
16.973876953125
 20
2.105712890625
 10
16.973876953125
 20
2.105645073784722
 10
16.973876953125
 20
2.092251247829861
 10
16.98029242621528
 20
2.076809353298611
 10
17.00213623046875
 20
2.076809353298611
 10
17.0159912109375
 20
2.076809353298611
 10
17.0262451171875
 20
2.086127387152778
 10
17.03309461805555
 20
2.095438639322917
 10
17.03603786892361
 20
2.083604600694444
 10
17.04606119791666
 20
2.078138563368055
 10
17.06083170572916
 20
2.078138563368055
 10
17.07164171006944
 20
2.078138563368055
 10
17.08507622612847
 20
2.089301215277778
 10
17.09651692708333
 20
2.100396050347222
 10
17.09791395399305
 20
2.085679796006944
 10
17.10758463541666
 20
2.078138563368055
 10
17.12394205729166
 20
2.078138563368055
 10
17.13372124565972
 20
2.078138563368055
 10
17.14603000217014
 20
2.087226019965278
 10
17.15671793619791
 20
2.097283257378472
 10
17.15875922309028
 20
2.084052191840278
 10
17.16920301649305
 20
2.078138563368055
 10
17.18471272786458
 20
2.078138563368055
 10
17.19594997829861
 20
2.078138563368055
 10
17.21004909939236
 20
2.090189615885417
 10
17.22181532118055
 20
2.101793077256944
 10
17.22250705295139
 20
2.085822211371528
 10
17.23259819878472
 20
2.078138563368055
 10
17.24953884548611
 20
2.078138563368055
 10
17.26512315538194
 20
2.078138563368055
 10
17.28626166449653
 20
2.100762261284722
 10
17.29843478732639
 20
2.113627115885417
 10
17.29764811197916
 20
2.109714084201389
 10
17.29715983072916
 20
2.106302897135417
 10
17.29715983072916
 20
2.102979871961805
 10
17.29715983072916
 20
2.085910373263889
 10
17.30764431423611
 20
2.078138563368055
 10
17.32535807291666
 20
2.078138563368055
 10
17.33452690972222
 20
2.078138563368055
 10
17.34612358940972
 20
2.086351182725694
 10
17.35637749565972
 20
2.095655653211805
 10
17.35637749565972
 20
2.095655653211805
 10
17.35293918185764
 20
2.079983181423611
 10
17.35293918185764
 20
2.079983181423611
 10
17.33128526475694
 20
2.073554144965278
 10
17.31353759765625
 20
2.066975911458333
 10
17.31353759765625
 20
2.045810275607639
 10
17.31353759765625
 20
2.031032986111111
 10
17.32651095920139
 20
2.021192762586805
 10
17.34042019314236
 20
2.021192762586805
 10
17.35544162326389
 20
2.021192762586805
 10
17.37501356336805
 20
2.027411566840278
 10
17.38184950086805
 20
2.059950086805555
 10
17.38184950086805
 20
2.059950086805555
 10
17.40959337022569
 20
2.191935221354167
 10
17.40959337022569
 20
2.191935221354167
 10
17.40959337022569
 20
2.191935221354167
 10
17.37659369574653
 20
2.191935221354167
 10
17.37659369574653
 20
2.191935221354167
 97
        0
 92
        1
 93
        1
 72
     4
 94
        3
 73
     0
 74
     1
 95
       14
 96
       10
 40
0.0
 40
0.0
 40
0.0
 40
0.0
 40
1.0
 40
1.0
 40
1.0
 40
2.0
 40
2.0
 40
2.0
 40
3.0
 40
3.0
 40
3.0
 40
3.0
 10
16.9500732421875
 20
2.18194580078125
 10
16.95691596137153
 20
2.18194580078125
 10
16.95805528428819
 20
2.173977322048611
 10
16.95805528428819
 20
2.169155544704861
 10
16.95784505208333
 20
2.153042263454861
 10
16.94300672743055
 20
2.13507080078125
 10
16.92210557725694
 20
2.134772406684028
 10
16.92686631944444
 20
2.156222873263889
 10
16.93733723958333
 20
2.18194580078125
 10
16.9500732421875
 20
2.18194580078125
 97
        0
 92
        1
 93
        1
 72
     4
 94
        3
 73
     0
 74
     1
 95
       23
 96
       19
 40
0.0
 40
0.0
 40
0.0
 40
0.0
 40
1.0
 40
1.0
 40
1.0
 40
2.0
 40
2.0
 40
2.0
 40
3.0
 40
3.0
 40
3.0
 40
4.0
 40
4.0
 40
4.0
 40
5.0
 40
5.0
 40
5.0
 40
6.0
 40
6.0
 40
6.0
 40
6.0
 10
17.03374565972222
 20
2.114515516493055
 10
17.03309461805555
 20
2.111857096354167
 10
17.03259955512153
 20
2.109341091579861
 10
17.03238254123264
 20
2.1070556640625
 10
17.02805582682291
 20
2.100694444444444
 10
17.02306450737847
 20
2.095655653211805
 10
17.01779513888889
 20
2.095655653211805
 10
17.01210530598958
 20
2.095655653211805
 10
17.00461154513889
 20
2.098171657986111
 10
17.00461154513889
 20
2.111857096354167
 10
17.00461154513889
 20
2.14276123046875
 10
17.01828342013889
 20
2.178988986545139
 10
17.0353529188368
 20
2.178988986545139
 10
17.03856743706597
 20
2.178988986545139
 10
17.04288736979166
 20
2.17803955078125
 10
17.0465087890625
 20
2.174852159288194
 10
17.0465087890625
 20
2.174852159288194
 10
17.03374565972222
 20
2.114515516493055
 10
17.03374565972222
 20
2.114515516493055
 97
        0
 92
        1
 93
        1
 72
     4
 94
        3
 73
     0
 74
     1
 95
       17
 96
       13
 40
0.0
 40
0.0
 40
0.0
 40
0.0
 40
1.0
 40
1.0
 40
1.0
 40
2.0
 40
2.0
 40
2.0
 40
3.0
 40
3.0
 40
3.0
 40
4.0
 40
4.0
 40
4.0
 40
4.0
 10
17.34859890407986
 20
2.059271918402778
 10
17.34587266710069
 20
2.045810275607639
 10
17.33973524305555
 20
2.041449652777778
 10
17.33517795138889
 20
2.041449652777778
 10
17.33018663194444
 20
2.041449652777778
 10
17.32607014973958
 20
2.045810275607639
 10
17.32607014973958
 20
2.048997667100694
 10
17.32607014973958
 20
2.061279296875
 10
17.33699544270833
 20
2.067857530381944
 10
17.35133870442708
 20
2.072658962673611
 10
17.35133870442708
 20
2.072658962673611
 10
17.34859890407986
 20
2.059271918402778
 10
17.34859890407986
 20
2.059271918402778
 97
        0
 75
     2
 76
     1
 98
        0
  0
ENDBLK
  5
E1
330
DE
100
AcDbEntity
  8
0
100
AcDbBlockEnd
  0
ENDSEC
  0
SECTION
  2
ENTITIES
  0
SPLINE
  5
3D
330
1F
100
AcDbEntity
  8
Teeth
370
     0
100
AcDbSpline
210
0.0
220
0.0
230
1.0
 70
    11
 71
     3
 72
   857
 73
   853
 74
     0
 42
0.0000000001
 43
0.0000000001
 40
0.0
 40
0.0
 40
0.0
 40
0.0
 40
1.0
 40
1.0
 40
1.0
 40
2.0
 40
2.0
 40
2.0
 40
3.0
 40
3.0
 40
3.0
 40
4.0
 40
4.0
 40
4.0
 40
5.0
 40
5.0
 40
5.0
 40
6.0
 40
6.0
 40
6.0
 40
7.0
 40
7.0
 40
7.0
 40
8.0
 40
8.0
 40
8.0
 40
9.0
 40
9.0
 40
9.0
 40
10.0
 40
10.0
 40
10.0
 40
11.0
 40
11.0
 40
11.0
 40
12.0
 40
12.0
 40
12.0
 40
13.0
 40
13.0
 40
13.0
 40
14.0
 40
14.0
 40
14.0
 40
15.0
 40
15.0
 40
15.0
 40
16.0
 40
16.0
 40
16.0
 40
17.0
 40
17.0
 40
17.0
 40
18.0
 40
18.0
 40
18.0
 40
19.0
 40
19.0
 40
19.0
 40
20.0
 40
20.0
 40
20.0
 40
21.0
 40
21.0
 40
21.0
 40
22.0
 40
22.0
 40
22.0
 40
23.0
 40
23.0
 40
23.0
 40
24.0
 40
24.0
 40
24.0
 40
25.0
 40
25.0
 40
25.0
 40
26.0
 40
26.0
 40
26.0
 40
27.0
 40
27.0
 40
27.0
 40
28.0
 40
28.0
 40
28.0
 40
29.0
 40
29.0
 40
29.0
 40
30.0
 40
30.0
 40
30.0
 40
31.0
 40
31.0
 40
31.0
 40
32.0
 40
32.0
 40
32.0
 40
33.0
 40
33.0
 40
33.0
 40
34.0
 40
34.0
 40
34.0
 40
35.0
 40
35.0
 40
35.0
 40
36.0
 40
36.0
 40
36.0
 40
37.0
 40
37.0
 40
37.0
 40
38.0
 40
38.0
 40
38.0
 40
39.0
 40
39.0
 40
39.0
 40
40.0
 40
40.0
 40
40.0
 40
41.0
 40
41.0
 40
41.0
 40
42.0
 40
42.0
 40
42.0
 40
43.0
 40
43.0
 40
43.0
 40
44.0
 40
44.0
 40
44.0
 40
45.0
 40
45.0
 40
45.0
 40
46.0
 40
46.0
 40
46.0
 40
47.0
 40
47.0
 40
47.0
 40
48.0
 40
48.0
 40
48.0
 40
49.0
 40
49.0
 40
49.0
 40
50.0
 40
50.0
 40
50.0
 40
51.0
 40
51.0
 40
51.0
 40
52.0
 40
52.0
 40
52.0
 40
53.0
 40
53.0
 40
53.0
 40
54.0
 40
54.0
 40
54.0
 40
55.0
 40
55.0
 40
55.0
 40
56.0
 40
56.0
 40
56.0
 40
57.0
 40
57.0
 40
57.0
 40
58.0
 40
58.0
 40
58.0
 40
59.0
 40
59.0
 40
59.0
 40
60.0
 40
60.0
 40
60.0
 40
61.0
 40
61.0
 40
61.0
 40
62.0
 40
62.0
 40
62.0
 40
63.0
 40
63.0
 40
63.0
 40
64.0
 40
64.0
 40
64.0
 40
65.0
 40
65.0
 40
65.0
 40
66.0
 40
66.0
 40
66.0
 40
67.0
 40
67.0
 40
67.0
 40
68.0
 40
68.0
 40
68.0
 40
69.0
 40
69.0
 40
69.0
 40
70.0
 40
70.0
 40
70.0
 40
71.0
 40
71.0
 40
71.0
 40
72.0
 40
72.0
 40
72.0
 40
73.0
 40
73.0
 40
73.0
 40
74.0
 40
74.0
 40
74.0
 40
75.0
 40
75.0
 40
75.0
 40
76.0
 40
76.0
 40
76.0
 40
77.0
 40
77.0
 40
77.0
 40
78.0
 40
78.0
 40
78.0
 40
79.0
 40
79.0
 40
79.0
 40
80.0
 40
80.0
 40
80.0
 40
81.0
 40
81.0
 40
81.0
 40
82.0
 40
82.0
 40
82.0
 40
83.0
 40
83.0
 40
83.0
 40
84.0
 40
84.0
 40
84.0
 40
85.0
 40
85.0
 40
85.0
 40
86.0
 40
86.0
 40
86.0
 40
87.0
 40
87.0
 40
87.0
 40
88.0
 40
88.0
 40
88.0
 40
89.0
 40
89.0
 40
89.0
 40
90.0
 40
90.0
 40
90.0
 40
91.0
 40
91.0
 40
91.0
 40
92.0
 40
92.0
 40
92.0
 40
93.0
 40
93.0
 40
93.0
 40
94.0
 40
94.0
 40
94.0
 40
95.0
 40
95.0
 40
95.0
 40
96.0
 40
96.0
 40
96.0
 40
97.0
 40
97.0
 40
97.0
 40
98.0
 40
98.0
 40
98.0
 40
99.0
 40
99.0
 40
99.0
 40
100.0
 40
100.0
 40
100.0
 40
101.0
 40
101.0
 40
101.0
 40
102.0
 40
102.0
 40
102.0
 40
103.0
 40
103.0
 40
103.0
 40
104.0
 40
104.0
 40
104.0
 40
105.0
 40
105.0
 40
105.0
 40
106.0
 40
106.0
 40
106.0
 40
107.0
 40
107.0
 40
107.0
 40
108.0
 40
108.0
 40
108.0
 40
109.0
 40
109.0
 40
109.0
 40
110.0
 40
110.0
 40
110.0
 40
111.0
 40
111.0
 40
111.0
 40
112.0
 40
112.0
 40
112.0
 40
113.0
 40
113.0
 40
113.0
 40
114.0
 40
114.0
 40
114.0
 40
115.0
 40
115.0
 40
115.0
 40
116.0
 40
116.0
 40
116.0
 40
117.0
 40
117.0
 40
117.0
 40
118.0
 40
118.0
 40
118.0
 40
119.0
 40
119.0
 40
119.0
 40
120.0
 40
120.0
 40
120.0
 40
121.0
 40
121.0
 40
121.0
 40
122.0
 40
122.0
 40
122.0
 40
123.0
 40
123.0
 40
123.0
 40
124.0
 40
124.0
 40
124.0
 40
125.0
 40
125.0
 40
125.0
 40
126.0
 40
126.0
 40
126.0
 40
127.0
 40
127.0
 40
127.0
 40
128.0
 40
128.0
 40
128.0
 40
129.0
 40
129.0
 40
129.0
 40
130.0
 40
130.0
 40
130.0
 40
131.0
 40
131.0
 40
131.0
 40
132.0
 40
132.0
 40
132.0
 40
133.0
 40
133.0
 40
133.0
 40
134.0
 40
134.0
 40
134.0
 40
135.0
 40
135.0
 40
135.0
 40
136.0
 40
136.0
 40
136.0
 40
137.0
 40
137.0
 40
137.0
 40
138.0
 40
138.0
 40
138.0
 40
139.0
 40
139.0
 40
139.0
 40
140.0
 40
140.0
 40
140.0
 40
141.0
 40
141.0
 40
141.0
 40
142.0
 40
142.0
 40
142.0
 40
143.0
 40
143.0
 40
143.0
 40
144.0
 40
144.0
 40
144.0
 40
145.0
 40
145.0
 40
145.0
 40
146.0
 40
146.0
 40
146.0
 40
147.0
 40
147.0
 40
147.0
 40
148.0
 40
148.0
 40
148.0
 40
149.0
 40
149.0
 40
149.0
 40
150.0
 40
150.0
 40
150.0
 40
151.0
 40
151.0
 40
151.0
 40
152.0
 40
152.0
 40
152.0
 40
153.0
 40
153.0
 40
153.0
 40
154.0
 40
154.0
 40
154.0
 40
155.0
 40
155.0
 40
155.0
 40
156.0
 40
156.0
 40
156.0
 40
157.0
 40
157.0
 40
157.0
 40
158.0
 40
158.0
 40
158.0
 40
159.0
 40
159.0
 40
159.0
 40
160.0
 40
160.0
 40
160.0
 40
161.0
 40
161.0
 40
161.0
 40
162.0
 40
162.0
 40
162.0
 40
163.0
 40
163.0
 40
163.0
 40
164.0
 40
164.0
 40
164.0
 40
165.0
 40
165.0
 40
165.0
 40
166.0
 40
166.0
 40
166.0
 40
167.0
 40
167.0
 40
167.0
 40
168.0
 40
168.0
 40
168.0
 40
169.0
 40
169.0
 40
169.0
 40
170.0
 40
170.0
 40
170.0
 40
171.0
 40
171.0
 40
171.0
 40
172.0
 40
172.0
 40
172.0
 40
173.0
 40
173.0
 40
173.0
 40
174.0
 40
174.0
 40
174.0
 40
175.0
 40
175.0
 40
175.0
 40
176.0
 40
176.0
 40
176.0
 40
177.0
 40
177.0
 40
177.0
 40
178.0
 40
178.0
 40
178.0
 40
179.0
 40
179.0
 40
179.0
 40
180.0
 40
180.0
 40
180.0
 40
181.0
 40
181.0
 40
181.0
 40
182.0
 40
182.0
 40
182.0
 40
183.0
 40
183.0
 40
183.0
 40
184.0
 40
184.0
 40
184.0
 40
185.0
 40
185.0
 40
185.0
 40
186.0
 40
186.0
 40
186.0
 40
187.0
 40
187.0
 40
187.0
 40
188.0
 40
188.0
 40
188.0
 40
189.0
 40
189.0
 40
189.0
 40
190.0
 40
190.0
 40
190.0
 40
191.0
 40
191.0
 40
191.0
 40
192.0
 40
192.0
 40
192.0
 40
193.0
 40
193.0
 40
193.0
 40
194.0
 40
194.0
 40
194.0
 40
195.0
 40
195.0
 40
195.0
 40
196.0
 40
196.0
 40
196.0
 40
197.0
 40
197.0
 40
197.0
 40
198.0
 40
198.0
 40
198.0
 40
199.0
 40
199.0
 40
199.0
 40
200.0
 40
200.0
 40
200.0
 40
201.0
 40
201.0
 40
201.0
 40
202.0
 40
202.0
 40
202.0
 40
203.0
 40
203.0
 40
203.0
 40
204.0
 40
204.0
 40
204.0
 40
205.0
 40
205.0
 40
205.0
 40
206.0
 40
206.0
 40
206.0
 40
207.0
 40
207.0
 40
207.0
 40
208.0
 40
208.0
 40
208.0
 40
209.0
 40
209.0
 40
209.0
 40
210.0
 40
210.0
 40
210.0
 40
211.0
 40
211.0
 40
211.0
 40
212.0
 40
212.0
 40
212.0
 40
213.0
 40
213.0
 40
213.0
 40
214.0
 40
214.0
 40
214.0
 40
215.0
 40
215.0
 40
215.0
 40
216.0
 40
216.0
 40
216.0
 40
217.0
 40
217.0
 40
217.0
 40
218.0
 40
218.0
 40
218.0
 40
219.0
 40
219.0
 40
219.0
 40
220.0
 40
220.0
 40
220.0
 40
221.0
 40
221.0
 40
221.0
 40
222.0
 40
222.0
 40
222.0
 40
223.0
 40
223.0
 40
223.0
 40
224.0
 40
224.0
 40
224.0
 40
225.0
 40
225.0
 40
225.0
 40
226.0
 40
226.0
 40
226.0
 40
227.0
 40
227.0
 40
227.0
 40
228.0
 40
228.0
 40
228.0
 40
229.0
 40
229.0
 40
229.0
 40
230.0
 40
230.0
 40
230.0
 40
231.0
 40
231.0
 40
231.0
 40
232.0
 40
232.0
 40
232.0
 40
233.0
 40
233.0
 40
233.0
 40
234.0
 40
234.0
 40
234.0
 40
235.0
 40
235.0
 40
235.0
 40
236.0
 40
236.0
 40
236.0
 40
237.0
 40
237.0
 40
237.0
 40
238.0
 40
238.0
 40
238.0
 40
239.0
 40
239.0
 40
239.0
 40
240.0
 40
240.0
 40
240.0
 40
241.0
 40
241.0
 40
241.0
 40
242.0
 40
242.0
 40
242.0
 40
243.0
 40
243.0
 40
243.0
 40
244.0
 40
244.0
 40
244.0
 40
245.0
 40
245.0
 40
245.0
 40
246.0
 40
246.0
 40
246.0
 40
247.0
 40
247.0
 40
247.0
 40
248.0
 40
248.0
 40
248.0
 40
249.0
 40
249.0
 40
249.0
 40
250.0
 40
250.0
 40
250.0
 40
251.0
 40
251.0
 40
251.0
 40
252.0
 40
252.0
 40
252.0
 40
253.0
 40
253.0
 40
253.0
 40
254.0
 40
254.0
 40
254.0
 40
255.0
 40
255.0
 40
255.0
 40
256.0
 40
256.0
 40
256.0
 40
257.0
 40
257.0
 40
257.0
 40
258.0
 40
258.0
 40
258.0
 40
259.0
 40
259.0
 40
259.0
 40
260.0
 40
260.0
 40
260.0
 40
261.0
 40
261.0
 40
261.0
 40
262.0
 40
262.0
 40
262.0
 40
263.0
 40
263.0
 40
263.0
 40
264.0
 40
264.0
 40
264.0
 40
265.0
 40
265.0
 40
265.0
 40
266.0
 40
266.0
 40
266.0
 40
267.0
 40
267.0
 40
267.0
 40
268.0
 40
268.0
 40
268.0
 40
269.0
 40
269.0
 40
269.0
 40
270.0
 40
270.0
 40
270.0
 40
271.0
 40
271.0
 40
271.0
 40
272.0
 40
272.0
 40
272.0
 40
273.0
 40
273.0
 40
273.0
 40
274.0
 40
274.0
 40
274.0
 40
275.0
 40
275.0
 40
275.0
 40
276.0
 40
276.0
 40
276.0
 40
277.0
 40
277.0
 40
277.0
 40
278.0
 40
278.0
 40
278.0
 40
279.0
 40
279.0
 40
279.0
 40
280.0
 40
280.0
 40
280.0
 40
281.0
 40
281.0
 40
281.0
 40
282.0
 40
282.0
 40
282.0
 40
283.0
 40
283.0
 40
283.0
 40
284.0
 40
284.0
 40
284.0
 40
284.0
 10
19.01239691840278
 20
2.278483072916667
 30
0.0
 10
16.60977511935764
 20
2.259419759114583
 30
0.0
 10
14.4970703125
 20
3.335171169704861
 30
0.0
 10
15.09570990668403
 20
0.976345486111111
 30
0.0
 10
15.09570990668403
 20
0.9680582682291666
 30
0.0
 10
15.10342068142361
 20
0.9613444010416666
 30
0.0
 10
15.11170789930556
 20
0.9613444010416666
 30
0.0
 10
15.1199951171875
 20
0.9613444010416666
 30
0.0
 10
15.126708984375
 20
0.9680582682291666
 30
0.0
 10
15.126708984375
 20
0.976345486111111
 30
0.0
 10
15.126708984375
 20
0.976345486111111
 30
0.0
 10
15.126708984375
 20
1.776346842447917
 30
0.0
 10
15.126708984375
 20
1.776346842447917
 30
0.0
 10
15.126708984375
 20
1.776346842447917
 30
0.0
 10
15.15920681423611
 20
1.776346842447917
 30
0.0
 10
15.15920681423611
 20
1.776346842447917
 30
0.0
 10
15.15920681423611
 20
1.776346842447917
 30
0.0
 10
15.189208984375
 20
1.776346842447917
 30
0.0
 10
15.189208984375
 20
1.776346842447917
 30
0.0
 10
15.189208984375
 20
1.776346842447917
 30
0.0
 10
15.20573594835069
 20
1.776346842447917
 30
0.0
 10
15.20573594835069
 20
1.776346842447917
 30
0.0
 10
15.20573594835069
 20
1.776346842447917
 30
0.0
 10
15.20573594835069
 20
1.233127170138889
 30
0.0
 10
15.20573594835069
 20
1.233127170138889
 30
0.0
 10
15.20573594835069
 20
1.216050889756944
 30
0.0
 10
15.21963161892361
 20
1.2021484375
 30
0.0
 10
15.23670789930556
 20
1.2021484375
 30
0.0
 10
15.2537841796875
 20
1.2021484375
 30
0.0
 10
15.26767985026042
 20
1.216050889756944
 30
0.0
 10
15.26767985026042
 20
1.233127170138889
 30
0.0
 10
15.26767985026042
 20
1.233127170138889
 30
0.0
 10
15.26767985026042
 20
1.776346842447917
 30
0.0
 10
15.26767985026042
 20
1.776346842447917
 30
0.0
 10
15.26767985026042
 20
1.776346842447917
 30
0.0
 10
15.28420681423611
 20
1.776346842447917
 30
0.0
 10
15.28420681423611
 20
1.776346842447917
 30
0.0
 10
15.28420681423611
 20
1.776346842447917
 30
0.0
 10
15.314208984375
 20
1.776346842447917
 30
0.0
 10
15.314208984375
 20
1.776346842447917
 30
0.0
 10
15.314208984375
 20
1.776346842447917
 30
0.0
 10
15.33073594835069
 20
1.776346842447917
 30
0.0
 10
15.33073594835069
 20
1.776346842447917
 30
0.0
 10
15.33073594835069
 20
1.776346842447917
 30
0.0
 10
15.33073594835069
 20
1.168321397569444
 30
0.0
 10
15.33073594835069
 20
1.168321397569444
 30
0.0
 10
15.33073594835069
 20
1.1512451171875
 30
0.0
 10
15.34463161892361
 20
1.137342664930556
 30
0.0
 10
15.36170789930556
 20
1.137342664930556
 30
0.0
 10
15.3787841796875
 20
1.137342664930556
 30
0.0
 10
15.39267985026042
 20
1.1512451171875
 30
0.0
 10
15.39267985026042
 20
1.168321397569444
 30
0.0
 10
15.39267985026042
 20
1.168321397569444
 30
0.0
 10
15.39267985026042
 20
1.776346842447917
 30
0.0
 10
15.39267985026042
 20
1.776346842447917
 30
0.0
 10
15.39267985026042
 20
1.776346842447917
 30
0.0
 10
15.40920681423611
 20
1.776346842447917
 30
0.0
 10
15.40920681423611
 20
1.776346842447917
 30
0.0
 10
15.40920681423611
 20
1.776346842447917
 30
0.0
 10
15.439208984375
 20
1.776346842447917
 30
0.0
 10
15.439208984375
 20
1.776346842447917
 30
0.0
 10
15.439208984375
 20
1.776346842447917
 30
0.0
 10
15.45573594835069
 20
1.776346842447917
 30
0.0
 10
15.45573594835069
 20
1.776346842447917
 30
0.0
 10
15.45573594835069
 20
1.776346842447917
 30
0.0
 10
15.45573594835069
 20
1.233127170138889
 30
0.0
 10
15.45573594835069
 20
1.233127170138889
 30
0.0
 10
15.45573594835069
 20
1.216050889756944
 30
0.0
 10
15.46963161892361
 20
1.2021484375
 30
0.0
 10
15.48670789930556
 20
1.2021484375
 30
0.0
 10
15.5037841796875
 20
1.2021484375
 30
0.0
 10
15.51767985026042
 20
1.216050889756944
 30
0.0
 10
15.51767985026042
 20
1.233127170138889
 30
0.0
 10
15.51767985026042
 20
1.233127170138889
 30
0.0
 10
15.51767985026042
 20
1.776346842447917
 30
0.0
 10
15.51767985026042
 20
1.776346842447917
 30
0.0
 10
15.51767985026042
 20
1.776346842447917
 30
0.0
 10
15.53420681423611
 20
1.776346842447917
 30
0.0
 10
15.53420681423611
 20
1.776346842447917
 30
0.0
 10
15.53420681423611
 20
1.776346842447917
 30
0.0
 10
15.564208984375
 20
1.776346842447917
 30
0.0
 10
15.564208984375
 20
1.776346842447917
 30
0.0
 10
15.564208984375
 20
1.776346842447917
 30
0.0
 10
15.58073594835069
 20
1.776346842447917
 30
0.0
 10
15.58073594835069
 20
1.776346842447917
 30
0.0
 10
15.58073594835069
 20
1.776346842447917
 30
0.0
 10
15.58073594835069
 20
1.096327039930556
 30
0.0
 10
15.58073594835069
 20
1.096327039930556
 30
0.0
 10
15.58073594835069
 20
1.079250759548611
 30
0.0
 10
15.59463161892361
 20
1.065348307291667
 30
0.0
 10
15.61170789930556
 20
1.065348307291667
 30
0.0
 10
15.6287841796875
 20
1.065348307291667
 30
0.0
 10
15.64267985026042
 20
1.079250759548611
 30
0.0
 10
15.64267985026042
 20
1.096327039930556
 30
0.0
 10
15.64267985026042
 20
1.096327039930556
 30
0.0
 10
15.64267985026042
 20
1.776346842447917
 30
0.0
 10
15.64267985026042
 20
1.776346842447917
 30
0.0
 10
15.64267985026042
 20
1.776346842447917
 30
0.0
 10
15.65920681423611
 20
1.776346842447917
 30
0.0
 10
15.65920681423611
 20
1.776346842447917
 30
0.0
 10
15.65920681423611
 20
1.776346842447917
 30
0.0
 10
15.689208984375
 20
1.776346842447917
 30
0.0
 10
15.689208984375
 20
1.776346842447917
 30
0.0
 10
15.689208984375
 20
1.776346842447917
 30
0.0
 10
15.70573594835069
 20
1.776346842447917
 30
0.0
 10
15.70573594835069
 20
1.776346842447917
 30
0.0
 10
15.70573594835069
 20
1.776346842447917
 30
0.0
 10
15.70573594835069
 20
1.233127170138889
 30
0.0
 10
15.70573594835069
 20
1.233127170138889
 30
0.0
 10
15.70573594835069
 20
1.216050889756944
 30
0.0
 10
15.71963161892361
 20
1.2021484375
 30
0.0
 10
15.73670789930556
 20
1.2021484375
 30
0.0
 10
15.7537841796875
 20
1.2021484375
 30
0.0
 10
15.76767985026042
 20
1.216050889756944
 30
0.0
 10
15.76767985026042
 20
1.233127170138889
 30
0.0
 10
15.76767985026042
 20
1.233127170138889
 30
0.0
 10
15.76767985026042
 20
1.776346842447917
 30
0.0
 10
15.76767985026042
 20
1.776346842447917
 30
0.0
 10
15.76767985026042
 20
1.776346842447917
 30
0.0
 10
15.78420681423611
 20
1.776346842447917
 30
0.0
 10
15.78420681423611
 20
1.776346842447917
 30
0.0
 10
15.78420681423611
 20
1.776346842447917
 30
0.0
 10
15.814208984375
 20
1.776346842447917
 30
0.0
 10
15.814208984375
 20
1.776346842447917
 30
0.0
 10
15.814208984375
 20
1.776346842447917
 30
0.0
 10
15.83073594835069
 20
1.776346842447917
 30
0.0
 10
15.83073594835069
 20
1.776346842447917
 30
0.0
 10
15.83073594835069
 20
1.776346842447917
 30
0.0
 10
15.83073594835069
 20
1.168321397569444
 30
0.0
 10
15.83073594835069
 20
1.168321397569444
 30
0.0
 10
15.83073594835069
 20
1.1512451171875
 30
0.0
 10
15.84463161892361
 20
1.137342664930556
 30
0.0
 10
15.86170789930556
 20
1.137342664930556
 30
0.0
 10
15.8787841796875
 20
1.137342664930556
 30
0.0
 10
15.89267985026042
 20
1.1512451171875
 30
0.0
 10
15.89267985026042
 20
1.168321397569444
 30
0.0
 10
15.89267985026042
 20
1.168321397569444
 30
0.0
 10
15.89267985026042
 20
1.776346842447917
 30
0.0
 10
15.89267985026042
 20
1.776346842447917
 30
0.0
 10
15.89267985026042
 20
1.776346842447917
 30
0.0
 10
15.90920681423611
 20
1.776346842447917
 30
0.0
 10
15.90920681423611
 20
1.776346842447917
 30
0.0
 10
15.90920681423611
 20
1.776346842447917
 30
0.0
 10
15.93921576605903
 20
1.776346842447917
 30
0.0
 10
15.93921576605903
 20
1.776346842447917
 30
0.0
 10
15.93921576605903
 20
1.776346842447917
 30
0.0
 10
15.95574273003472
 20
1.776346842447917
 30
0.0
 10
15.95574273003472
 20
1.776346842447917
 30
0.0
 10
15.95574273003472
 20
1.776346842447917
 30
0.0
 10
15.95574273003472
 20
1.233127170138889
 30
0.0
 10
15.95574273003472
 20
1.233127170138889
 30
0.0
 10
15.95574273003472
 20
1.216050889756944
 30
0.0
 10
15.96963840060764
 20
1.2021484375
 30
0.0
 10
15.98671468098958
 20
1.2021484375
 30
0.0
 10
16.00379096137153
 20
1.2021484375
 30
0.0
 10
16.01768663194444
 20
1.216050889756944
 30
0.0
 10
16.01768663194444
 20
1.233127170138889
 30
0.0
 10
16.01768663194444
 20
1.233127170138889
 30
0.0
 10
16.01768663194444
 20
1.776346842447917
 30
0.0
 10
16.01768663194444
 20
1.776346842447917
 30
0.0
 10
16.01768663194444
 20
1.776346842447917
 30
0.0
 10
16.03421359592014
 20
1.776346842447917
 30
0.0
 10
16.03421359592014
 20
1.776346842447917
 30
0.0
 10
16.03421359592014
 20
1.776346842447917
 30
0.0
 10
16.06421576605903
 20
1.776346842447917
 30
0.0
 10
16.06421576605903
 20
1.776346842447917
 30
0.0
 10
16.06421576605903
 20
1.776346842447917
 30
0.0
 10
16.08074273003472
 20
1.776346842447917
 30
0.0
 10
16.08074273003472
 20
1.776346842447917
 30
0.0
 10
16.08074273003472
 20
1.776346842447917
 30
0.0
 10
16.08074273003472
 20
1.016330295138889
 30
0.0
 10
16.08074273003472
 20
1.016330295138889
 30
0.0
 10
16.08074273003472
 20
0.9992540147569444
 30
0.0
 10
16.09463840060764
 20
0.9853515625
 30
0.0
 10
16.11171468098958
 20
0.9853515625
 30
0.0
 10
16.12879096137153
 20
0.9853515625
 30
0.0
 10
16.14268663194444
 20
0.9992540147569444
 30
0.0
 10
16.14268663194444
 20
1.016330295138889
 30
0.0
 10
16.14268663194444
 20
1.016330295138889
 30
0.0
 10
16.14268663194444
 20
1.776346842447917
 30
0.0
 10
16.14268663194444
 20
1.776346842447917
 30
0.0
 10
16.14268663194444
 20
1.776346842447917
 30
0.0
 10
16.15921359592014
 20
1.776346842447917
 30
0.0
 10
16.15921359592014
 20
1.776346842447917
 30
0.0
 10
16.15921359592014
 20
1.776346842447917
 30
0.0
 10
16.18921576605903
 20
1.776346842447917
 30
0.0
 10
16.18921576605903
 20
1.776346842447917
 30
0.0
 10
16.18921576605903
 20
1.776346842447917
 30
0.0
 10
16.20574273003472
 20
1.776346842447917
 30
0.0
 10
16.20574273003472
 20
1.776346842447917
 30
0.0
 10
16.20574273003472
 20
1.776346842447917
 30
0.0
 10
16.20574273003472
 20
1.233127170138889
 30
0.0
 10
16.20574273003472
 20
1.233127170138889
 30
0.0
 10
16.20574273003472
 20
1.216050889756944
 30
0.0
 10
16.21963840060764
 20
1.2021484375
 30
0.0
 10
16.23671468098958
 20
1.2021484375
 30
0.0
 10
16.25379096137153
 20
1.2021484375
 30
0.0
 10
16.26768663194444
 20
1.216050889756944
 30
0.0
 10
16.26768663194444
 20
1.233127170138889
 30
0.0
 10
16.26768663194444
 20
1.233127170138889
 30
0.0
 10
16.26768663194444
 20
1.776346842447917
 30
0.0
 10
16.26768663194444
 20
1.776346842447917
 30
0.0
 10
16.26768663194444
 20
1.776346842447917
 30
0.0
 10
16.28421359592014
 20
1.776346842447917
 30
0.0
 10
16.28421359592014
 20
1.776346842447917
 30
0.0
 10
16.28421359592014
 20
1.776346842447917
 30
0.0
 10
16.31421576605903
 20
1.776346842447917
 30
0.0
 10
16.31421576605903
 20
1.776346842447917
 30
0.0
 10
16.31421576605903
 20
1.776346842447917
 30
0.0
 10
16.33074273003472
 20
1.776346842447917
 30
0.0
 10
16.33074273003472
 20
1.776346842447917
 30
0.0
 10
16.33074273003472
 20
1.776346842447917
 30
0.0
 10
16.33074273003472
 20
1.168321397569444
 30
0.0
 10
16.33074273003472
 20
1.168321397569444
 30
0.0
 10
16.33074273003472
 20
1.1512451171875
 30
0.0
 10
16.34463840060764
 20
1.137342664930556
 30
0.0
 10
16.36171468098958
 20
1.137342664930556
 30
0.0
 10
16.37879096137153
 20
1.137342664930556
 30
0.0
 10
16.39268663194444
 20
1.1512451171875
 30
0.0
 10
16.39268663194444
 20
1.168321397569444
 30
0.0
 10
16.39268663194444
 20
1.168321397569444
 30
0.0
 10
16.39268663194444
 20
1.776346842447917
 30
0.0
 10
16.39268663194444
 20
1.776346842447917
 30
0.0
 10
16.39268663194444
 20
1.776346842447917
 30
0.0
 10
16.40921359592014
 20
1.776346842447917
 30
0.0
 10
16.40921359592014
 20
1.776346842447917
 30
0.0
 10
16.40921359592014
 20
1.776346842447917
 30
0.0
 10
16.43921576605903
 20
1.776346842447917
 30
0.0
 10
16.43921576605903
 20
1.776346842447917
 30
0.0
 10
16.43921576605903
 20
1.776346842447917
 30
0.0
 10
16.45574273003472
 20
1.776346842447917
 30
0.0
 10
16.45574273003472
 20
1.776346842447917
 30
0.0
 10
16.45574273003472
 20
1.776346842447917
 30
0.0
 10
16.45574273003472
 20
1.233127170138889
 30
0.0
 10
16.45574273003472
 20
1.233127170138889
 30
0.0
 10
16.45574273003472
 20
1.216050889756944
 30
0.0
 10
16.46963840060764
 20
1.2021484375
 30
0.0
 10
16.48671468098958
 20
1.2021484375
 30
0.0
 10
16.50379096137153
 20
1.2021484375
 30
0.0
 10
16.51768663194444
 20
1.216050889756944
 30
0.0
 10
16.51768663194444
 20
1.233127170138889
 30
0.0
 10
16.51768663194444
 20
1.233127170138889
 30
0.0
 10
16.51768663194444
 20
1.776346842447917
 30
0.0
 10
16.51768663194444
 20
1.776346842447917
 30
0.0
 10
16.51768663194444
 20
1.776346842447917
 30
0.0
 10
16.53421359592014
 20
1.776346842447917
 30
0.0
 10
16.53421359592014
 20
1.776346842447917
 30
0.0
 10
16.53421359592014
 20
1.776346842447917
 30
0.0
 10
16.56421576605903
 20
1.776346842447917
 30
0.0
 10
16.56421576605903
 20
1.776346842447917
 30
0.0
 10
16.56421576605903
 20
1.776346842447917
 30
0.0
 10
16.58074273003472
 20
1.776346842447917
 30
0.0
 10
16.58074273003472
 20
1.776346842447917
 30
0.0
 10
16.58074273003472
 20
1.776346842447917
 30
0.0
 10
16.58074273003472
 20
1.096327039930556
 30
0.0
 10
16.58074273003472
 20
1.096327039930556
 30
0.0
 10
16.58074273003472
 20
1.079250759548611
 30
0.0
 10
16.59463840060764
 20
1.065348307291667
 30
0.0
 10
16.61171468098958
 20
1.065348307291667
 30
0.0
 10
16.62879096137153
 20
1.065348307291667
 30
0.0
 10
16.64268663194444
 20
1.079250759548611
 30
0.0
 10
16.64268663194444
 20
1.096327039930556
 30
0.0
 10
16.64268663194444
 20
1.096327039930556
 30
0.0
 10
16.64268663194444
 20
1.776346842447917
 30
0.0
 10
16.64268663194444
 20
1.776346842447917
 30
0.0
 10
16.64268663194444
 20
1.776346842447917
 30
0.0
 10
16.65921359592014
 20
1.776346842447917
 30
0.0
 10
16.65921359592014
 20
1.776346842447917
 30
0.0
 10
16.65921359592014
 20
1.776346842447917
 30
0.0
 10
16.68921576605903
 20
1.776346842447917
 30
0.0
 10
16.68921576605903
 20
1.776346842447917
 30
0.0
 10
16.68921576605903
 20
1.776346842447917
 30
0.0
 10
16.70574273003472
 20
1.776346842447917
 30
0.0
 10
16.70574273003472
 20
1.776346842447917
 30
0.0
 10
16.70574273003472
 20
1.776346842447917
 30
0.0
 10
16.70574273003472
 20
1.233127170138889
 30
0.0
 10
16.70574273003472
 20
1.233127170138889
 30
0.0
 10
16.70574273003472
 20
1.216050889756944
 30
0.0
 10
16.71963840060764
 20
1.2021484375
 30
0.0
 10
16.73671468098958
 20
1.2021484375
 30
0.0
 10
16.75379096137153
 20
1.2021484375
 30
0.0
 10
16.76768663194444
 20
1.216050889756944
 30
0.0
 10
16.76768663194444
 20
1.233127170138889
 30
0.0
 10
16.76768663194444
 20
1.233127170138889
 30
0.0
 10
16.76768663194444
 20
1.776346842447917
 30
0.0
 10
16.76768663194444
 20
1.776346842447917
 30
0.0
 10
16.76768663194444
 20
1.776346842447917
 30
0.0
 10
16.78421359592014
 20
1.776346842447917
 30
0.0
 10
16.78421359592014
 20
1.776346842447917
 30
0.0
 10
16.78421359592014
 20
1.776346842447917
 30
0.0
 10
16.81421576605903
 20
1.776346842447917
 30
0.0
 10
16.81421576605903
 20
1.776346842447917
 30
0.0
 10
16.81421576605903
 20
1.776346842447917
 30
0.0
 10
16.83074273003472
 20
1.776346842447917
 30
0.0
 10
16.83074273003472
 20
1.776346842447917
 30
0.0
 10
16.83074273003472
 20
1.776346842447917
 30
0.0
 10
16.83074273003472
 20
1.168321397569444
 30
0.0
 10
16.83074273003472
 20
1.168321397569444
 30
0.0
 10
16.83074273003472
 20
1.1512451171875
 30
0.0
 10
16.84463840060764
 20
1.137342664930556
 30
0.0
 10
16.86171468098958
 20
1.137342664930556
 30
0.0
 10
16.87879096137153
 20
1.137342664930556
 30
0.0
 10
16.89268663194444
 20
1.1512451171875
 30
0.0
 10
16.89268663194444
 20
1.168321397569444
 30
0.0
 10
16.89268663194444
 20
1.168321397569444
 30
0.0
 10
16.89268663194444
 20
1.776346842447917
 30
0.0
 10
16.89268663194444
 20
1.776346842447917
 30
0.0
 10
16.89268663194444
 20
1.776346842447917
 30
0.0
 10
16.90921359592014
 20
1.776346842447917
 30
0.0
 10
16.90921359592014
 20
1.776346842447917
 30
0.0
 10
16.90921359592014
 20
1.776346842447917
 30
0.0
 10
16.93921576605903
 20
1.776346842447917
 30
0.0
 10
16.93921576605903
 20
1.776346842447917
 30
0.0
 10
16.93921576605903
 20
1.776346842447917
 30
0.0
 10
16.95574273003472
 20
1.776346842447917
 30
0.0
 10
16.95574273003472
 20
1.776346842447917
 30
0.0
 10
16.95574273003472
 20
1.776346842447917
 30
0.0
 10
16.95574273003472
 20
1.233127170138889
 30
0.0
 10
16.95574273003472
 20
1.233127170138889
 30
0.0
 10
16.95574273003472
 20
1.216050889756944
 30
0.0
 10
16.96963840060764
 20
1.2021484375
 30
0.0
 10
16.98671468098958
 20
1.2021484375
 30
0.0
 10
17.00379096137153
 20
1.2021484375
 30
0.0
 10
17.01768663194444
 20
1.216050889756944
 30
0.0
 10
17.01768663194444
 20
1.233127170138889
 30
0.0
 10
17.01768663194444
 20
1.233127170138889
 30
0.0
 10
17.01768663194444
 20
1.776346842447917
 30
0.0
 10
17.01768663194444
 20
1.776346842447917
 30
0.0
 10
17.01768663194444
 20
1.776346842447917
 30
0.0
 10
17.03421359592014
 20
1.776346842447917
 30
0.0
 10
17.03421359592014
 20
1.776346842447917
 30
0.0
 10
17.03421359592014
 20
1.776346842447917
 30
0.0
 10
17.06421576605903
 20
1.776346842447917
 30
0.0
 10
17.06421576605903
 20
1.776346842447917
 30
0.0
 10
17.06421576605903
 20
1.776346842447917
 30
0.0
 10
17.08074273003472
 20
1.776346842447917
 30
0.0
 10
17.08074273003472
 20
1.776346842447917
 30
0.0
 10
17.08074273003472
 20
1.776346842447917
 30
0.0
 10
17.08074273003472
 20
1.016330295138889
 30
0.0
 10
17.08074273003472
 20
1.016330295138889
 30
0.0
 10
17.08074273003472
 20
0.9992540147569444
 30
0.0
 10
17.09463840060764
 20
0.9853515625
 30
0.0
 10
17.11171468098958
 20
0.9853515625
 30
0.0
 10
17.12879096137153
 20
0.9853515625
 30
0.0
 10
17.14268663194444
 20
0.9992540147569444
 30
0.0
 10
17.14268663194444
 20
1.016330295138889
 30
0.0
 10
17.14268663194444
 20
1.016330295138889
 30
0.0
 10
17.14268663194444
 20
1.776346842447917
 30
0.0
 10
17.14268663194444
 20
1.776346842447917
 30
0.0
 10
17.14268663194444
 20
1.776346842447917
 30
0.0
 10
17.15921359592014
 20
1.776346842447917
 30
0.0
 10
17.15921359592014
 20
1.776346842447917
 30
0.0
 10
17.15921359592014
 20
1.776346842447917
 30
0.0
 10
17.18921576605903
 20
1.776346842447917
 30
0.0
 10
17.18921576605903
 20
1.776346842447917
 30
0.0
 10
17.18921576605903
 20
1.776346842447917
 30
0.0
 10
17.20574273003472
 20
1.776346842447917
 30
0.0
 10
17.20574273003472
 20
1.776346842447917
 30
0.0
 10
17.20574273003472
 20
1.776346842447917
 30
0.0
 10
17.20574273003472
 20
1.233127170138889
 30
0.0
 10
17.20574273003472
 20
1.233127170138889
 30
0.0
 10
17.20574273003472
 20
1.216050889756944
 30
0.0
 10
17.21963840060764
 20
1.2021484375
 30
0.0
 10
17.23671468098958
 20
1.2021484375
 30
0.0
 10
17.25379096137153
 20
1.2021484375
 30
0.0
 10
17.26768663194444
 20
1.216050889756944
 30
0.0
 10
17.26768663194444
 20
1.233127170138889
 30
0.0
 10
17.26768663194444
 20
1.233127170138889
 30
0.0
 10
17.26768663194444
 20
1.776346842447917
 30
0.0
 10
17.26768663194444
 20
1.776346842447917
 30
0.0
 10
17.26768663194444
 20
1.776346842447917
 30
0.0
 10
17.28421359592014
 20
1.776346842447917
 30
0.0
 10
17.28421359592014
 20
1.776346842447917
 30
0.0
 10
17.28421359592014
 20
1.776346842447917
 30
0.0
 10
17.31421576605903
 20
1.776346842447917
 30
0.0
 10
17.31421576605903
 20
1.776346842447917
 30
0.0
 10
17.31421576605903
 20
1.776346842447917
 30
0.0
 10
17.33074273003472
 20
1.776346842447917
 30
0.0
 10
17.33074273003472
 20
1.776346842447917
 30
0.0
 10
17.33074273003472
 20
1.776346842447917
 30
0.0
 10
17.33074273003472
 20
1.168321397569444
 30
0.0
 10
17.33074273003472
 20
1.168321397569444
 30
0.0
 10
17.33074273003472
 20
1.1512451171875
 30
0.0
 10
17.34463840060764
 20
1.137342664930556
 30
0.0
 10
17.36171468098958
 20
1.137342664930556
 30
0.0
 10
17.37879096137153
 20
1.137342664930556
 30
0.0
 10
17.39268663194444
 20
1.1512451171875
 30
0.0
 10
17.39268663194444
 20
1.168321397569444
 30
0.0
 10
17.39268663194444
 20
1.168321397569444
 30
0.0
 10
17.39268663194444
 20
1.776346842447917
 30
0.0
 10
17.39268663194444
 20
1.776346842447917
 30
0.0
 10
17.39268663194444
 20
1.776346842447917
 30
0.0
 10
17.40921359592014
 20
1.776346842447917
 30
0.0
 10
17.40921359592014
 20
1.776346842447917
 30
0.0
 10
17.40921359592014
 20
1.776346842447917
 30
0.0
 10
17.43921576605903
 20
1.776346842447917
 30
0.0
 10
17.43921576605903
 20
1.776346842447917
 30
0.0
 10
17.43921576605903
 20
1.776346842447917
 30
0.0
 10
17.45574273003472
 20
1.776346842447917
 30
0.0
 10
17.45574273003472
 20
1.776346842447917
 30
0.0
 10
17.45574273003472
 20
1.776346842447917
 30
0.0
 10
17.45574273003472
 20
1.233127170138889
 30
0.0
 10
17.45574273003472
 20
1.233127170138889
 30
0.0
 10
17.45574273003472
 20
1.216050889756944
 30
0.0
 10
17.46963840060764
 20
1.2021484375
 30
0.0
 10
17.48671468098958
 20
1.2021484375
 30
0.0
 10
17.50379096137153
 20
1.2021484375
 30
0.0
 10
17.51768663194444
 20
1.216050889756944
 30
0.0
 10
17.51768663194444
 20
1.233127170138889
 30
0.0
 10
17.51768663194444
 20
1.233127170138889
 30
0.0
 10
17.51768663194444
 20
1.776346842447917
 30
0.0
 10
17.51768663194444
 20
1.776346842447917
 30
0.0
 10
17.51768663194444
 20
1.776346842447917
 30
0.0
 10
17.53421359592014
 20
1.776346842447917
 30
0.0
 10
17.53421359592014
 20
1.776346842447917
 30
0.0
 10
17.53421359592014
 20
1.776346842447917
 30
0.0
 10
17.56421576605903
 20
1.776346842447917
 30
0.0
 10
17.56421576605903
 20
1.776346842447917
 30
0.0
 10
17.56421576605903
 20
1.776346842447917
 30
0.0
 10
17.58074273003472
 20
1.776346842447917
 30
0.0
 10
17.58074273003472
 20
1.776346842447917
 30
0.0
 10
17.58074273003472
 20
1.776346842447917
 30
0.0
 10
17.58074273003472
 20
1.096327039930556
 30
0.0
 10
17.58074273003472
 20
1.096327039930556
 30
0.0
 10
17.58074273003472
 20
1.079250759548611
 30
0.0
 10
17.59463840060764
 20
1.065348307291667
 30
0.0
 10
17.61171468098958
 20
1.065348307291667
 30
0.0
 10
17.62879096137153
 20
1.065348307291667
 30
0.0
 10
17.64268663194444
 20
1.079250759548611
 30
0.0
 10
17.64268663194444
 20
1.096327039930556
 30
0.0
 10
17.64268663194444
 20
1.096327039930556
 30
0.0
 10
17.64268663194444
 20
1.776346842447917
 30
0.0
 10
17.64268663194444
 20
1.776346842447917
 30
0.0
 10
17.64268663194444
 20
1.776346842447917
 30
0.0
 10
17.65921359592014
 20
1.776346842447917
 30
0.0
 10
17.65921359592014
 20
1.776346842447917
 30
0.0
 10
17.65921359592014
 20
1.776346842447917
 30
0.0
 10
17.68921576605903
 20
1.776346842447917
 30
0.0
 10
17.68921576605903
 20
1.776346842447917
 30
0.0
 10
17.68921576605903
 20
1.776346842447917
 30
0.0
 10
17.70573594835069
 20
1.776346842447917
 30
0.0
 10
17.70573594835069
 20
1.776346842447917
 30
0.0
 10
17.70573594835069
 20
1.776346842447917
 30
0.0
 10
17.70573594835069
 20
1.233127170138889
 30
0.0
 10
17.70573594835069
 20
1.233127170138889
 30
0.0
 10
17.70573594835069
 20
1.216050889756944
 30
0.0
 10
17.71964518229166
 20
1.2021484375
 30
0.0
 10
17.73672146267361
 20
1.2021484375
 30
0.0
 10
17.75379774305555
 20
1.2021484375
 30
0.0
 10
17.7677001953125
 20
1.216050889756944
 30
0.0
 10
17.7677001953125
 20
1.233127170138889
 30
0.0
 10
17.7677001953125
 20
1.233127170138889
 30
0.0
 10
17.7677001953125
 20
1.776346842447917
 30
0.0
 10
17.7677001953125
 20
1.776346842447917
 30
0.0
 10
17.7677001953125
 20
1.776346842447917
 30
0.0
 10
17.78422037760416
 20
1.776346842447917
 30
0.0
 10
17.78422037760416
 20
1.776346842447917
 30
0.0
 10
17.78422037760416
 20
1.776346842447917
 30
0.0
 10
17.81422254774305
 20
1.776346842447917
 30
0.0
 10
17.81422254774305
 20
1.776346842447917
 30
0.0
 10
17.81422254774305
 20
1.776346842447917
 30
0.0
 10
17.83074273003472
 20
1.776346842447917
 30
0.0
 10
17.83074273003472
 20
1.776346842447917
 30
0.0
 10
17.83074273003472
 20
1.776346842447917
 30
0.0
 10
17.83074273003472
 20
1.168321397569444
 30
0.0
 10
17.83074273003472
 20
1.168321397569444
 30
0.0
 10
17.83074273003472
 20
1.1512451171875
 30
0.0
 10
17.84464518229166
 20
1.137342664930556
 30
0.0
 10
17.86172146267361
 20
1.137342664930556
 30
0.0
 10
17.87879774305555
 20
1.137342664930556
 30
0.0
 10
17.8927001953125
 20
1.1512451171875
 30
0.0
 10
17.8927001953125
 20
1.168321397569444
 30
0.0
 10
17.8927001953125
 20
1.168321397569444
 30
0.0
 10
17.8927001953125
 20
1.776346842447917
 30
0.0
 10
17.8927001953125
 20
1.776346842447917
 30
0.0
 10
17.8927001953125
 20
1.776346842447917
 30
0.0
 10
17.90922037760416
 20
1.776346842447917
 30
0.0
 10
17.90922037760416
 20
1.776346842447917
 30
0.0
 10
17.90922037760416
 20
1.776346842447917
 30
0.0
 10
17.93922254774305
 20
1.776346842447917
 30
0.0
 10
17.93922254774305
 20
1.776346842447917
 30
0.0
 10
17.93922254774305
 20
1.776346842447917
 30
0.0
 10
17.95574273003472
 20
1.776346842447917
 30
0.0
 10
17.95574273003472
 20
1.776346842447917
 30
0.0
 10
17.95574273003472
 20
1.776346842447917
 30
0.0
 10
17.95574273003472
 20
1.233127170138889
 30
0.0
 10
17.95574273003472
 20
1.233127170138889
 30
0.0
 10
17.95574273003472
 20
1.216050889756944
 30
0.0
 10
17.96964518229166
 20
1.2021484375
 30
0.0
 10
17.98672146267361
 20
1.2021484375
 30
0.0
 10
18.00379774305555
 20
1.2021484375
 30
0.0
 10
18.0177001953125
 20
1.216050889756944
 30
0.0
 10
18.0177001953125
 20
1.233127170138889
 30
0.0
 10
18.0177001953125
 20
1.233127170138889
 30
0.0
 10
18.0177001953125
 20
1.776346842447917
 30
0.0
 10
18.0177001953125
 20
1.776346842447917
 30
0.0
 10
18.0177001953125
 20
1.776346842447917
 30
0.0
 10
18.03422037760416
 20
1.776346842447917
 30
0.0
 10
18.03422037760416
 20
1.776346842447917
 30
0.0
 10
18.03422037760416
 20
1.776346842447917
 30
0.0
 10
18.06422254774305
 20
1.776346842447917
 30
0.0
 10
18.06422254774305
 20
1.776346842447917
 30
0.0
 10
18.06422254774305
 20
1.776346842447917
 30
0.0
 10
18.08074273003472
 20
1.776346842447917
 30
0.0
 10
18.08074273003472
 20
1.776346842447917
 30
0.0
 10
18.08074273003472
 20
1.776346842447917
 30
0.0
 10
18.08074273003472
 20
1.016330295138889
 30
0.0
 10
18.08074273003472
 20
1.016330295138889
 30
0.0
 10
18.08074273003472
 20
0.9992540147569444
 30
0.0
 10
18.09464518229166
 20
0.9853515625
 30
0.0
 10
18.11172146267361
 20
0.9853515625
 30
0.0
 10
18.12879774305555
 20
0.9853515625
 30
0.0
 10
18.1427001953125
 20
0.9992540147569444
 30
0.0
 10
18.1427001953125
 20
1.016330295138889
 30
0.0
 10
18.1427001953125
 20
1.016330295138889
 30
0.0
 10
18.1427001953125
 20
1.776346842447917
 30
0.0
 10
18.1427001953125
 20
1.776346842447917
 30
0.0
 10
18.1427001953125
 20
1.776346842447917
 30
0.0
 10
18.15922037760416
 20
1.776346842447917
 30
0.0
 10
18.15922037760416
 20
1.776346842447917
 30
0.0
 10
18.15922037760416
 20
1.776346842447917
 30
0.0
 10
18.18922254774305
 20
1.776346842447917
 30
0.0
 10
18.18922254774305
 20
1.776346842447917
 30
0.0
 10
18.18922254774305
 20
1.776346842447917
 30
0.0
 10
18.20574273003472
 20
1.776346842447917
 30
0.0
 10
18.20574273003472
 20
1.776346842447917
 30
0.0
 10
18.20574273003472
 20
1.776346842447917
 30
0.0
 10
18.20574273003472
 20
1.233127170138889
 30
0.0
 10
18.20574273003472
 20
1.233127170138889
 30
0.0
 10
18.20574273003472
 20
1.216050889756944
 30
0.0
 10
18.21964518229166
 20
1.2021484375
 30
0.0
 10
18.23672146267361
 20
1.2021484375
 30
0.0
 10
18.25379774305555
 20
1.2021484375
 30
0.0
 10
18.2677001953125
 20
1.216050889756944
 30
0.0
 10
18.2677001953125
 20
1.233127170138889
 30
0.0
 10
18.2677001953125
 20
1.233127170138889
 30
0.0
 10
18.2677001953125
 20
1.776346842447917
 30
0.0
 10
18.2677001953125
 20
1.776346842447917
 30
0.0
 10
18.2677001953125
 20
1.776346842447917
 30
0.0
 10
18.28422037760416
 20
1.776346842447917
 30
0.0
 10
18.28422037760416
 20
1.776346842447917
 30
0.0
 10
18.28422037760416
 20
1.776346842447917
 30
0.0
 10
18.31422254774305
 20
1.776346842447917
 30
0.0
 10
18.31422254774305
 20
1.776346842447917
 30
0.0
 10
18.31422254774305
 20
1.776346842447917
 30
0.0
 10
18.33074273003472
 20
1.776346842447917
 30
0.0
 10
18.33074273003472
 20
1.776346842447917
 30
0.0
 10
18.33074273003472
 20
1.776346842447917
 30
0.0
 10
18.33074273003472
 20
1.168321397569444
 30
0.0
 10
18.33074273003472
 20
1.168321397569444
 30
0.0
 10
18.33074273003472
 20
1.1512451171875
 30
0.0
 10
18.34464518229166
 20
1.137342664930556
 30
0.0
 10
18.36172146267361
 20
1.137342664930556
 30
0.0
 10
18.37879774305555
 20
1.137342664930556
 30
0.0
 10
18.3927001953125
 20
1.1512451171875
 30
0.0
 10
18.3927001953125
 20
1.168321397569444
 30
0.0
 10
18.3927001953125
 20
1.168321397569444
 30
0.0
 10
18.3927001953125
 20
1.776346842447917
 30
0.0
 10
18.3927001953125
 20
1.776346842447917
 30
0.0
 10
18.3927001953125
 20
1.776346842447917
 30
0.0
 10
18.40922037760416
 20
1.776346842447917
 30
0.0
 10
18.40922037760416
 20
1.776346842447917
 30
0.0
 10
18.40922037760416
 20
1.776346842447917
 30
0.0
 10
18.43922254774305
 20
1.776346842447917
 30
0.0
 10
18.43922254774305
 20
1.776346842447917
 30
0.0
 10
18.43922254774305
 20
1.776346842447917
 30
0.0
 10
18.45574273003472
 20
1.776346842447917
 30
0.0
 10
18.45574273003472
 20
1.776346842447917
 30
0.0
 10
18.45574273003472
 20
1.776346842447917
 30
0.0
 10
18.45574273003472
 20
1.233127170138889
 30
0.0
 10
18.45574273003472
 20
1.233127170138889
 30
0.0
 10
18.45574273003472
 20
1.216050889756944
 30
0.0
 10
18.46964518229166
 20
1.2021484375
 30
0.0
 10
18.48672146267361
 20
1.2021484375
 30
0.0
 10
18.50379774305555
 20
1.2021484375
 30
0.0
 10
18.5177001953125
 20
1.216050889756944
 30
0.0
 10
18.5177001953125
 20
1.233127170138889
 30
0.0
 10
18.5177001953125
 20
1.233127170138889
 30
0.0
 10
18.5177001953125
 20
1.776346842447917
 30
0.0
 10
18.5177001953125
 20
1.776346842447917
 30
0.0
 10
18.5177001953125
 20
1.776346842447917
 30
0.0
 10
18.53422037760416
 20
1.776346842447917
 30
0.0
 10
18.53422037760416
 20
1.776346842447917
 30
0.0
 10
18.53422037760416
 20
1.776346842447917
 30
0.0
 10
18.56422254774305
 20
1.776346842447917
 30
0.0
 10
18.56422254774305
 20
1.776346842447917
 30
0.0
 10
18.56422254774305
 20
1.776346842447917
 30
0.0
 10
18.58074273003472
 20
1.776346842447917
 30
0.0
 10
18.58074273003472
 20
1.776346842447917
 30
0.0
 10
18.58074273003472
 20
1.776346842447917
 30
0.0
 10
18.58074273003472
 20
1.096327039930556
 30
0.0
 10
18.58074273003472
 20
1.096327039930556
 30
0.0
 10
18.58074273003472
 20
1.079250759548611
 30
0.0
 10
18.59464518229166
 20
1.065348307291667
 30
0.0
 10
18.61172146267361
 20
1.065348307291667
 30
0.0
 10
18.62879774305555
 20
1.065348307291667
 30
0.0
 10
18.6427001953125
 20
1.079250759548611
 30
0.0
 10
18.6427001953125
 20
1.096327039930556
 30
0.0
 10
18.6427001953125
 20
1.096327039930556
 30
0.0
 10
18.6427001953125
 20
1.776346842447917
 30
0.0
 10
18.6427001953125
 20
1.776346842447917
 30
0.0
 10
18.6427001953125
 20
1.776346842447917
 30
0.0
 10
18.65922037760416
 20
1.776346842447917
 30
0.0
 10
18.65922037760416
 20
1.776346842447917
 30
0.0
 10
18.65922037760416
 20
1.776346842447917
 30
0.0
 10
18.68922254774305
 20
1.776346842447917
 30
0.0
 10
18.68922254774305
 20
1.776346842447917
 30
0.0
 10
18.68922254774305
 20
1.776346842447917
 30
0.0
 10
18.70574273003472
 20
1.776346842447917
 30
0.0
 10
18.70574273003472
 20
1.776346842447917
 30
0.0
 10
18.70574273003472
 20
1.776346842447917
 30
0.0
 10
18.70574273003472
 20
1.233127170138889
 30
0.0
 10
18.70574273003472
 20
1.233127170138889
 30
0.0
 10
18.70574273003472
 20
1.216050889756944
 30
0.0
 10
18.71964518229166
 20
1.2021484375
 30
0.0
 10
18.73672146267361
 20
1.2021484375
 30
0.0
 10
18.75379774305555
 20
1.2021484375
 30
0.0
 10
18.7677001953125
 20
1.216050889756944
 30
0.0
 10
18.7677001953125
 20
1.233127170138889
 30
0.0
 10
18.7677001953125
 20
1.233127170138889
 30
0.0
 10
18.7677001953125
 20
1.776346842447917
 30
0.0
 10
18.7677001953125
 20
1.776346842447917
 30
0.0
 10
18.7677001953125
 20
1.776346842447917
 30
0.0
 10
18.78422037760416
 20
1.776346842447917
 30
0.0
 10
18.78422037760416
 20
1.776346842447917
 30
0.0
 10
18.78422037760416
 20
1.776346842447917
 30
0.0
 10
18.81422254774305
 20
1.776346842447917
 30
0.0
 10
18.81422254774305
 20
1.776346842447917
 30
0.0
 10
18.81422254774305
 20
1.776346842447917
 30
0.0
 10
18.83074273003472
 20
1.776346842447917
 30
0.0
 10
18.83074273003472
 20
1.776346842447917
 30
0.0
 10
18.83074273003472
 20
1.776346842447917
 30
0.0
 10
18.83074273003472
 20
1.168321397569444
 30
0.0
 10
18.83074273003472
 20
1.168321397569444
 30
0.0
 10
18.83074273003472
 20
1.1512451171875
 30
0.0
 10
18.84464518229166
 20
1.137342664930556
 30
0.0
 10
18.86172146267361
 20
1.137342664930556
 30
0.0
 10
18.87879774305555
 20
1.137342664930556
 30
0.0
 10
18.8927001953125
 20
1.1512451171875
 30
0.0
 10
18.8927001953125
 20
1.168321397569444
 30
0.0
 10
18.8927001953125
 20
1.168321397569444
 30
0.0
 10
18.8927001953125
 20
1.776346842447917
 30
0.0
 10
18.8927001953125
 20
1.776346842447917
 30
0.0
 10
18.8927001953125
 20
1.776346842447917
 30
0.0
 10
18.90922037760416
 20
1.776346842447917
 30
0.0
 10
18.90922037760416
 20
1.776346842447917
 30
0.0
 10
18.90922037760416
 20
1.776346842447917
 30
0.0
 10
18.93922254774305
 20
1.776346842447917
 30
0.0
 10
18.93922254774305
 20
1.776346842447917
 30
0.0
 10
18.93922254774305
 20
1.776346842447917
 30
0.0
 10
18.95574273003472
 20
1.776346842447917
 30
0.0
 10
18.95574273003472
 20
1.776346842447917
 30
0.0
 10
18.95574273003472
 20
1.776346842447917
 30
0.0
 10
18.95574273003472
 20
1.233127170138889
 30
0.0
 10
18.95574273003472
 20
1.233127170138889
 30
0.0
 10
18.95574273003472
 20
1.216050889756944
 30
0.0
 10
18.96964518229166
 20
1.2021484375
 30
0.0
 10
18.98672146267361
 20
1.2021484375
 30
0.0
 10
19.00379774305555
 20
1.2021484375
 30
0.0
 10
19.0177001953125
 20
1.216050889756944
 30
0.0
 10
19.0177001953125
 20
1.233127170138889
 30
0.0
 10
19.0177001953125
 20
1.233127170138889
 30
0.0
 10
19.0177001953125
 20
1.776346842447917
 30
0.0
 10
19.0177001953125
 20
1.776346842447917
 30
0.0
 10
19.0177001953125
 20
1.776346842447917
 30
0.0
 10
19.03422037760416
 20
1.776346842447917
 30
0.0
 10
19.03422037760416
 20
1.776346842447917
 30
0.0
 10
19.03422037760416
 20
1.776346842447917
 30
0.0
 10
19.06422254774305
 20
1.776346842447917
 30
0.0
 10
19.06422254774305
 20
1.776346842447917
 30
0.0
 10
19.06422254774305
 20
1.776346842447917
 30
0.0
 10
19.08074273003472
 20
1.776346842447917
 30
0.0
 10
19.08074273003472
 20
1.776346842447917
 30
0.0
 10
19.08074273003472
 20
1.776346842447917
 30
0.0
 10
19.08074273003472
 20
1.016330295138889
 30
0.0
 10
19.08074273003472
 20
1.016330295138889
 30
0.0
 10
19.08074273003472
 20
0.9992540147569444
 30
0.0
 10
19.09464518229166
 20
0.9853515625
 30
0.0
 10
19.11172146267361
 20
0.9853515625
 30
0.0
 10
19.12879774305555
 20
0.9853515625
 30
0.0
 10
19.1427001953125
 20
0.9992540147569444
 30
0.0
 10
19.1427001953125
 20
1.016330295138889
 30
0.0
 10
19.1427001953125
 20
1.016330295138889
 30
0.0
 10
19.1427001953125
 20
1.776346842447917
 30
0.0
 10
19.1427001953125
 20
1.776346842447917
 30
0.0
 10
19.1427001953125
 20
1.776346842447917
 30
0.0
 10
19.15922037760416
 20
1.776346842447917
 30
0.0
 10
19.15922037760416
 20
1.776346842447917
 30
0.0
 10
19.15922037760416
 20
1.776346842447917
 30
0.0
 10
19.18922254774305
 20
1.776346842447917
 30
0.0
 10
19.18922254774305
 20
1.776346842447917
 30
0.0
 10
19.18922254774305
 20
1.776346842447917
 30
0.0
 10
19.20574273003472
 20
1.776346842447917
 30
0.0
 10
19.20574273003472
 20
1.776346842447917
 30
0.0
 10
19.20574273003472
 20
1.776346842447917
 30
0.0
 10
19.20574273003472
 20
1.233127170138889
 30
0.0
 10
19.20574273003472
 20
1.233127170138889
 30
0.0
 10
19.20574273003472
 20
1.216050889756944
 30
0.0
 10
19.21964518229166
 20
1.2021484375
 30
0.0
 10
19.23672146267361
 20
1.2021484375
 30
0.0
 10
19.25379774305555
 20
1.2021484375
 30
0.0
 10
19.2677001953125
 20
1.216050889756944
 30
0.0
 10
19.2677001953125
 20
1.233127170138889
 30
0.0
 10
19.2677001953125
 20
1.233127170138889
 30
0.0
 10
19.2677001953125
 20
1.776346842447917
 30
0.0
 10
19.2677001953125
 20
1.776346842447917
 30
0.0
 10
19.2677001953125
 20
1.776346842447917
 30
0.0
 10
19.28422037760416
 20
1.776346842447917
 30
0.0
 10
19.28422037760416
 20
1.776346842447917
 30
0.0
 10
19.28422037760416
 20
1.776346842447917
 30
0.0
 10
19.31422254774305
 20
1.776346842447917
 30
0.0
 10
19.31422254774305
 20
1.776346842447917
 30
0.0
 10
19.31422254774305
 20
1.776346842447917
 30
0.0
 10
19.33074273003472
 20
1.776346842447917
 30
0.0
 10
19.33074273003472
 20
1.776346842447917
 30
0.0
 10
19.33074273003472
 20
1.776346842447917
 30
0.0
 10
19.33074273003472
 20
1.168321397569444
 30
0.0
 10
19.33074273003472
 20
1.168321397569444
 30
0.0
 10
19.33074273003472
 20
1.1512451171875
 30
0.0
 10
19.34464518229166
 20
1.137342664930556
 30
0.0
 10
19.36172146267361
 20
1.137342664930556
 30
0.0
 10
19.37879774305555
 20
1.137342664930556
 30
0.0
 10
19.3927001953125
 20
1.1512451171875
 30
0.0
 10
19.3927001953125
 20
1.168321397569444
 30
0.0
 10
19.3927001953125
 20
1.168321397569444
 30
0.0
 10
19.3927001953125
 20
1.776346842447917
 30
0.0
 10
19.3927001953125
 20
1.776346842447917
 30
0.0
 10
19.3927001953125
 20
1.776346842447917
 30
0.0
 10
19.40922037760416
 20
1.776346842447917
 30
0.0
 10
19.40922037760416
 20
1.776346842447917
 30
0.0
 10
19.40922037760416
 20
1.776346842447917
 30
0.0
 10
19.43922254774305
 20
1.776346842447917
 30
0.0
 10
19.43922254774305
 20
1.776346842447917
 30
0.0
 10
19.43922254774305
 20
1.776346842447917
 30
0.0
 10
19.45574273003472
 20
1.776346842447917
 30
0.0
 10
19.45574273003472
 20
1.776346842447917
 30
0.0
 10
19.45574273003472
 20
1.776346842447917
 30
0.0
 10
19.45574273003472
 20
1.233127170138889
 30
0.0
 10
19.45574273003472
 20
1.233127170138889
 30
0.0
 10
19.45574273003472
 20
1.216050889756944
 30
0.0
 10
19.46964518229166
 20
1.2021484375
 30
0.0
 10
19.48672146267361
 20
1.2021484375
 30
0.0
 10
19.50379774305555
 20
1.2021484375
 30
0.0
 10
19.5177001953125
 20
1.216050889756944
 30
0.0
 10
19.5177001953125
 20
1.233127170138889
 30
0.0
 10
19.5177001953125
 20
1.233127170138889
 30
0.0
 10
19.5177001953125
 20
1.776346842447917
 30
0.0
 10
19.5177001953125
 20
1.776346842447917
 30
0.0
 10
19.5177001953125
 20
1.776346842447917
 30
0.0
 10
19.53422037760416
 20
1.776346842447917
 30
0.0
 10
19.53422037760416
 20
1.776346842447917
 30
0.0
 10
19.53422037760416
 20
1.776346842447917
 30
0.0
 10
19.56422254774305
 20
1.776346842447917
 30
0.0
 10
19.56422254774305
 20
1.776346842447917
 30
0.0
 10
19.56422254774305
 20
1.776346842447917
 30
0.0
 10
19.58074273003472
 20
1.776346842447917
 30
0.0
 10
19.58074273003472
 20
1.776346842447917
 30
0.0
 10
19.58074273003472
 20
1.776346842447917
 30
0.0
 10
19.58074273003472
 20
1.096327039930556
 30
0.0
 10
19.58074273003472
 20
1.096327039930556
 30
0.0
 10
19.58074273003472
 20
1.079250759548611
 30
0.0
 10
19.59464518229166
 20
1.065348307291667
 30
0.0
 10
19.61172146267361
 20
1.065348307291667
 30
0.0
 10
19.62879774305555
 20
1.065348307291667
 30
0.0
 10
19.6427001953125
 20
1.079250759548611
 30
0.0
 10
19.6427001953125
 20
1.096327039930556
 30
0.0
 10
19.6427001953125
 20
1.096327039930556
 30
0.0
 10
19.6427001953125
 20
1.776346842447917
 30
0.0
 10
19.6427001953125
 20
1.776346842447917
 30
0.0
 10
19.6427001953125
 20
1.776346842447917
 30
0.0
 10
19.65922037760416
 20
1.776346842447917
 30
0.0
 10
19.65922037760416
 20
1.776346842447917
 30
0.0
 10
19.65922037760416
 20
1.776346842447917
 30
0.0
 10
19.68922254774305
 20
1.776346842447917
 30
0.0
 10
19.68922254774305
 20
1.776346842447917
 30
0.0
 10
19.68922254774305
 20
1.776346842447917
 30
0.0
 10
19.70574273003472
 20
1.776346842447917
 30
0.0
 10
19.70574273003472
 20
1.776346842447917
 30
0.0
 10
19.70574273003472
 20
1.776346842447917
 30
0.0
 10
19.70574273003472
 20
1.233127170138889
 30
0.0
 10
19.70574273003472
 20
1.233127170138889
 30
0.0
 10
19.70574273003472
 20
1.216050889756944
 30
0.0
 10
19.71964518229166
 20
1.2021484375
 30
0.0
 10
19.73672146267361
 20
1.2021484375
 30
0.0
 10
19.75379774305555
 20
1.2021484375
 30
0.0
 10
19.7677001953125
 20
1.216050889756944
 30
0.0
 10
19.7677001953125
 20
1.233127170138889
 30
0.0
 10
19.7677001953125
 20
1.233127170138889
 30
0.0
 10
19.7677001953125
 20
1.776346842447917
 30
0.0
 10
19.7677001953125
 20
1.776346842447917
 30
0.0
 10
19.7677001953125
 20
1.776346842447917
 30
0.0
 10
19.78422037760416
 20
1.776346842447917
 30
0.0
 10
19.78422037760416
 20
1.776346842447917
 30
0.0
 10
19.78422037760416
 20
1.776346842447917
 30
0.0
 10
19.81422254774305
 20
1.776346842447917
 30
0.0
 10
19.81422254774305
 20
1.776346842447917
 30
0.0
 10
19.81422254774305
 20
1.776346842447917
 30
0.0
 10
19.83074273003472
 20
1.776346842447917
 30
0.0
 10
19.83074273003472
 20
1.776346842447917
 30
0.0
 10
19.83074273003472
 20
1.776346842447917
 30
0.0
 10
19.83074273003472
 20
1.168321397569444
 30
0.0
 10
19.83074273003472
 20
1.168321397569444
 30
0.0
 10
19.83074273003472
 20
1.1512451171875
 30
0.0
 10
19.84464518229166
 20
1.137342664930556
 30
0.0
 10
19.86172146267361
 20
1.137342664930556
 30
0.0
 10
19.87879774305555
 20
1.137342664930556
 30
0.0
 10
19.8927001953125
 20
1.1512451171875
 30
0.0
 10
19.8927001953125
 20
1.168321397569444
 30
0.0
 10
19.8927001953125
 20
1.168321397569444
 30
0.0
 10
19.8927001953125
 20
1.776346842447917
 30
0.0
 10
19.8927001953125
 20
1.776346842447917
 30
0.0
 10
19.8927001953125
 20
1.776346842447917
 30
0.0
 10
19.90922037760416
 20
1.776346842447917
 30
0.0
 10
19.90922037760416
 20
1.776346842447917
 30
0.0
 10
19.90922037760416
 20
1.776346842447917
 30
0.0
 10
19.93922254774305
 20
1.776346842447917
 30
0.0
 10
19.93922254774305
 20
1.776346842447917
 30
0.0
 10
19.93922254774305
 20
1.776346842447917
 30
0.0
 10
19.95574273003472
 20
1.776346842447917
 30
0.0
 10
19.95574273003472
 20
1.776346842447917
 30
0.0
 10
19.95574273003472
 20
1.776346842447917
 30
0.0
 10
19.95574273003472
 20
1.233127170138889
 30
0.0
 10
19.95574273003472
 20
1.233127170138889
 30
0.0
 10
19.95574273003472
 20
1.216050889756944
 30
0.0
 10
19.96964518229166
 20
1.2021484375
 30
0.0
 10
19.98672146267361
 20
1.2021484375
 30
0.0
 10
20.00379774305555
 20
1.2021484375
 30
0.0
 10
20.0177001953125
 20
1.216050889756944
 30
0.0
 10
20.0177001953125
 20
1.233127170138889
 30
0.0
 10
20.0177001953125
 20
1.233127170138889
 30
0.0
 10
20.0177001953125
 20
1.776346842447917
 30
0.0
 10
20.0177001953125
 20
1.776346842447917
 30
0.0
 10
20.0177001953125
 20
1.776346842447917
 30
0.0
 10
20.03422037760416
 20
1.776346842447917
 30
0.0
 10
20.03422037760416
 20
1.776346842447917
 30
0.0
 10
20.03422037760416
 20
1.776346842447917
 30
0.0
 10
20.06422254774305
 20
1.776346842447917
 30
0.0
 10
20.06422254774305
 20
1.776346842447917
 30
0.0
 10
20.06422254774305
 20
1.776346842447917
 30
0.0
 10
20.09672037760416
 20
1.776346842447917
 30
0.0
 10
20.09672037760416
 20
1.776346842447917
 30
0.0
 10
20.09672037760416
 20
1.776346842447917
 30
0.0
 10
20.09672037760416
 20
0.976345486111111
 30
0.0
 10
20.09672037760416
 20
0.976345486111111
 30
0.0
 10
20.09672037760416
 20
0.9680582682291666
 30
0.0
 10
20.10343424479166
 20
0.9613444010416666
 30
0.0
 10
20.11172146267361
 20
0.9613444010416666
 30
0.0
 10
20.12000868055555
 20
0.9613444010416666
 30
0.0
 10
20.12672254774305
 20
0.9680582682291666
 30
0.0
 10
20.12672254774305
 20
0.976345486111111
 30
0.0
 10
20.32813856336805
 20
2.244500054253472
 30
0.0
 10
20.44759114583333
 20
2.289869520399305
 30
0.0
 10
19.01239691840278
 20
2.278483072916667
 30
0.0
  0
INSERT
  5
41
330
1F
100
AcDbEntity
  8
Immeasurable Beauty
100
AcDbBlockReference
  2
block 2
 10
0.0
 20
0.0
 30
0.0
  0
ENDSEC
  0
SECTION
  2
OBJECTS
  0
DICTIONARY
  5
C
330
0
100
AcDbDictionary
281
     1
  3
ACAD_GROUP
350
D
  3
ACAD_LAYOUT
350
1A
  3
ACAD_MLINESTYLE
350
17
  3
ACAD_PLOTSETTINGS
350
19
  3
ACAD_PLOTSTYLENAME
350
E
  3
ACAD_TABLESTYLE
350
F7
  3
ACAD_VISUALSTYLE
350
2A
  0
DICTIONARY
  5
D
102
{ACAD_REACTORS
330
C
102
}
330
C
100
AcDbDictionary
281
     1
  0
DICTIONARY
  5
1A
102
{ACAD_REACTORS
330
C
102
}
330
C
100
AcDbDictionary
281
     1
  3
Layout1
350
1E
  3
Layout2
350
26
  3
Model
350
22
  0
DICTIONARY
  5
17
102
{ACAD_REACTORS
330
C
102
}
330
C
100
AcDbDictionary
281
     1
  3
Standard
350
18
  0
DICTIONARY
  5
19
102
{ACAD_REACTORS
330
C
102
}
330
C
100
AcDbDictionary
281
     1
  0
ACDBDICTIONARYWDFLT
  5
E
102
{ACAD_REACTORS
330
C
102
}
330
C
100
AcDbDictionary
281
     1
  3
Normal
350
F
100
AcDbDictionaryWithDefault
340
F
  0
DICTIONARY
  5
F7
102
{ACAD_REACTORS
330
C
102
}
330
C
100
AcDbDictionary
281
     1
  0
DICTIONARY
  5
2A
102
{ACAD_REACTORS
330
C
102
}
330
C
100
AcDbDictionary
281
     1
  3
2dWireframe
350
2F
  3
3D Hidden
350
31
  3
3dWireframe
350
30
  3
Basic
350
32
  3
Brighten
350
36
  3
ColorChange
350
3A
  3
Conceptual
350
34
  3
Dim
350
35
  3
Facepattern
350
39
  3
Flat
350
2B
  3
FlatWithEdges
350
2C
  3
Gouraud
350
2D
  3
GouraudWithEdges
350
2E
  3
Linepattern
350
38
  3
Realistic
350
33
  3
Thicken
350
37
  0
LAYOUT
  5
1E
102
{ACAD_REACTORS
330
1A
102
}
330
1A
100
AcDbPlotSettings
  1

  2
none_device
  4

  6

 40
0.0
 41
0.0
 42
0.0
 43
0.0
 44
0.0
 45
0.0
 46
0.0
 47
0.0
 48
0.0
 49
0.0
140
0.0
141
0.0
142
1.0
143
1.0
 70
   688
 72
     0
 73
     0
 74
     5
  7

 75
    16
 76
     0
 77
     2
 78
   300
147
1.0
148
0.0
149
0.0
100
AcDbLayout
  1
Layout1
 70
     1
 71
     1
 10
0.0
 20
0.0
 11
12.0
 21
9.0
 12
0.0
 22
0.0
 32
0.0
 14
1.000000000000000E+20
 24
1.000000000000000E+20
 34
1.000000000000000E+20
 15
-1.000000000000000E+20
 25
-1.000000000000000E+20
 35
-1.000000000000000E+20
146
0.0
 13
0.0
 23
0.0
 33
0.0
 16
1.0
 26
0.0
 36
0.0
 17
0.0
 27
1.0
 37
0.0
 76
     0
330
1B
  0
LAYOUT
  5
26
102
{ACAD_REACTORS
330
1A
102
}
330
1A
100
AcDbPlotSettings
  1

  2
none_device
  4

  6

 40
0.0
 41
0.0
 42
0.0
 43
0.0
 44
0.0
 45
0.0
 46
0.0
 47
0.0
 48
0.0
 49
0.0
140
0.0
141
0.0
142
1.0
143
1.0
 70
   688
 72
     0
 73
     0
 74
     5
  7

 75
    16
 76
     0
 77
     2
 78
   300
147
1.0
148
0.0
149
0.0
100
AcDbLayout
  1
Layout2
 70
     1
 71
     2
 10
0.0
 20
0.0
 11
0.0
 21
0.0
 12
0.0
 22
0.0
 32
0.0
 14
0.0
 24
0.0
 34
0.0
 15
0.0
 25
0.0
 35
0.0
146
0.0
 13
0.0
 23
0.0
 33
0.0
 16
1.0
 26
0.0
 36
0.0
 17
0.0
 27
1.0
 37
0.0
 76
     0
330
23
  0
LAYOUT
  5
22
102
{ACAD_REACTORS
330
1A
102
}
330
1A
100
AcDbPlotSettings
  1

  2
none_device
  4

  6

 40
0.0
 41
0.0
 42
0.0
 43
0.0
 44
0.0
 45
0.0
 46
0.0
 47
0.0
 48
0.0
 49
0.0
140
0.0
141
0.0
142
1.0
143
1.0
 70
  1712
 72
     0
 73
     0
 74
     0
  7

 75
     0
 76
     0
 77
     2
 78
   300
147
1.0
148
0.0
149
0.0
100
AcDbLayout
  1
Model
 70
     1
 71
     0
 10
0.0
 20
0.0
 11
12.0
 21
9.0
 12
0.0
 22
0.0
 32
0.0
 14
1.000000000000000E+20
 24
1.000000000000000E+20
 34
1.000000000000000E+20
 15
-1.000000000000000E+20
 25
-1.000000000000000E+20
 35
-1.000000000000000E+20
146
0.0
 13
0.0
 23
0.0
 33
0.0
 16
1.0
 26
0.0
 36
0.0
 17
0.0
 27
1.0
 37
0.0
 76
     0
330
1F
331
29
  0
MLINESTYLE
  5
18
102
{ACAD_REACTORS
330
17
102
}
330
17
100
AcDbMlineStyle
  2
Standard
 70
     0
  3

 62
   256
 51
90.0
 52
90.0
 71
     2
 49
0.5
 62
   256
  6
BYLAYER
 49
-0.5
 62
   256
  6
BYLAYER
  0
ACDBPLACEHOLDER
  5
F
102
{ACAD_REACTORS
330
E
102
}
330
E
  0
VISUALSTYLE
  5
2F
102
{ACAD_REACTORS
330
2A
102
}
330
2A
100
AcDbVisualStyle
  2
2dWireframe
 70
     4
 71
     0
 72
     2
 73
     0
 90
        0
 40
-0.6
 41
-30.0
 62
     5
 63
     7
421
 16777215
 74
     1
 91
        4
 64
     7
 65
   257
 75
     1
175
     1
 42
1.0
 92
        0
 66
   257
 43
1.0
 76
     1
 77
     6
 78
     2
 67
     7
 79
     5
170
     0
171
     0
290
     0
174
     0
 93
        1
 44
0.0
173
     0
291
     0
 45
0.0
1001
ACAD
1000
AcDbSavedByObjectVersion
1070
     0
  0
VISUALSTYLE
  5
31
102
{ACAD_REACTORS
330
2A
102
}
330
2A
100
AcDbVisualStyle
  2
3D Hidden
 70
     6
 71
     1
 72
     2
 73
     2
 90
        0
 40
-0.6
 41
-30.0
 62
     5
 63
     7
421
 16777215
 74
     2
 91
        2
 64
     7
 65
   257
 75
     2
175
     1
 42
40.0
 92
        0
 66
   257
 43
1.0
 76
     1
 77
     6
 78
     2
 67
     7
 79
     3
170
     0
171
     0
290
     0
174
     0
 93
        1
 44
0.0
173
     0
291
     0
 45
0.0
1001
ACAD
1000
AcDbSavedByObjectVersion
1070
     0
  0
VISUALSTYLE
  5
30
102
{ACAD_REACTORS
330
2A
102
}
330
2A
100
AcDbVisualStyle
  2
3dWireframe
 70
     5
 71
     0
 72
     2
 73
     0
 90
        0
 40
-0.6
 41
-30.0
 62
     5
 63
     7
421
 16777215
 74
     1
 91
        4
 64
     7
 65
   257
 75
     1
175
     1
 42
1.0
 92
        0
 66
   257
 43
1.0
 76
     1
 77
     6
 78
     2
 67
     7
 79
     5
170
     0
171
     0
290
     0
174
     0
 93
        1
 44
0.0
173
     0
291
     0
 45
0.0
1001
ACAD
1000
AcDbSavedByObjectVersion
1070
     0
  0
VISUALSTYLE
  5
32
102
{ACAD_REACTORS
330
2A
102
}
330
2A
100
AcDbVisualStyle
  2
Basic
 70
     7
 71
     1
 72
     0
 73
     1
 90
        0
 40
-0.6
 41
-30.0
 62
     5
 63
     7
421
 16777215
 74
     0
 91
        4
 64
     7
 65
   257
 75
     1
175
     1
 42
1.0
 92
        8
 66
     7
 43
1.0
 76
     1
 77
     6
 78
     2
 67
     7
 79
     5
170
     0
171
     0
290
     0
174
     0
 93
        1
 44
0.0
173
     0
291
     1
 45
0.0
1001
ACAD
1000
AcDbSavedByObjectVersion
1070
     0
  0
VISUALSTYLE
  5
36
102
{ACAD_REACTORS
330
2A
102
}
330
2A
100
AcDbVisualStyle
  2
Brighten
 70
    12
 71
     2
 72
     2
 73
     0
 90
        0
 40
-0.6
 41
-30.0
 62
     5
 63
     7
421
 16777215
 74
     1
 91
        4
 64
     7
 65
   257
 75
     1
175
     1
 42
1.0
 92
        8
 66
     7
 43
1.0
 76
     1
 77
     6
 78
     2
 67
     7
 79
     5
170
     0
171
     0
290
     0
174
     0
 93
        1
 44
50.0
173
     0
291
     1
 45
0.0
1001
ACAD
1000
AcDbSavedByObjectVersion
1070
     0
  0
VISUALSTYLE
  5
3A
102
{ACAD_REACTORS
330
2A
102
}
330
2A
100
AcDbVisualStyle
  2
ColorChange
 70
    16
 71
     2
 72
     2
 73
     3
 90
        0
 40
-0.6
 41
-30.0
 62
     5
 63
     8
421
  8421504
 74
     1
 91
        4
 64
     7
 65
   257
 75
     1
175
     1
 42
1.0
 92
        8
 66
     8
424
  8421504
 43
1.0
 76
     1
 77
     6
 78
     2
 67
     7
 79
     5
170
     0
171
     0
290
     0
174
     0
 93
        1
 44
0.0
173
     0
291
     1
 45
0.0
1001
ACAD
1000
AcDbSavedByObjectVersion
1070
     0
  0
VISUALSTYLE
  5
34
102
{ACAD_REACTORS
330
2A
102
}
330
2A
100
AcDbVisualStyle
  2
Conceptual
 70
     9
 71
     3
 72
     2
 73
     0
 90
        0
 40
-0.6
 41
-30.0
 62
     5
 63
     7
421
 16777215
 74
     2
 91
        2
 64
     7
 65
   257
 75
     1
175
     1
 42
40.0
 92
        8
 66
     7
 43
1.0
 76
     1
 77
     6
 78
     2
 67
     7
 79
     3
170
     0
171
     0
290
     0
174
     0
 93
        1
 44
0.0
173
     0
291
     0
 45
0.0
1001
ACAD
1000
AcDbSavedByObjectVersion
1070
     0
  0
VISUALSTYLE
  5
35
102
{ACAD_REACTORS
330
2A
102
}
330
2A
100
AcDbVisualStyle
  2
Dim
 70
    11
 71
     2
 72
     2
 73
     0
 90
        0
 40
-0.6
 41
-30.0
 62
     5
 63
     7
421
 16777215
 74
     1
 91
        4
 64
     7
 65
   257
 75
     1
175
     1
 42
1.0
 92
        8
 66
     7
 43
1.0
 76
     1
 77
     6
 78
     2
 67
     7
 79
     5
170
     0
171
     0
290
     0
174
     0
 93
        1
 44
-50.0
173
     0
291
     1
 45
0.0
1001
ACAD
1000
AcDbSavedByObjectVersion
1070
     0
  0
VISUALSTYLE
  5
39
102
{ACAD_REACTORS
330
2A
102
}
330
2A
100
AcDbVisualStyle
  2
Facepattern
 70
    15
 71
     2
 72
     2
 73
     0
 90
        0
 40
-0.6
 41
-30.0
 62
     5
 63
     7
421
 16777215
 74
     1
 91
        4
 64
     7
 65
   257
 75
     1
175
     1
 42
1.0
 92
        8
 66
     7
 43
1.0
 76
     1
 77
     6
 78
     2
 67
     7
 79
     5
170
     0
171
     0
290
     0
174
     0
 93
        1
 44
0.0
173
     0
291
     1
 45
0.0
1001
ACAD
1000
AcDbSavedByObjectVersion
1070
     0
  0
VISUALSTYLE
  5
2B
102
{ACAD_REACTORS
330
2A
102
}
330
2A
100
AcDbVisualStyle
  2
Flat
 70
     0
 71
     2
 72
     1
 73
     1
 90
        2
 40
-0.6
 41
30.0
 62
     5
 63
     7
421
 16777215
 74
     0
 91
        4
 64
     7
 65
   257
 75
     1
175
     1
 42
1.0
 92
        8
 66
     7
 43
1.0
 76
     1
 77
     6
 78
     2
 67
     7
 79
     5
170
     0
171
     0
290
     0
174
     0
 93
       13
 44
0.0
173
     0
291
     1
 45
0.0
1001
ACAD
1000
AcDbSavedByObjectVersion
1070
     0
  0
VISUALSTYLE
  5
2C
102
{ACAD_REACTORS
330
2A
102
}
330
2A
100
AcDbVisualStyle
  2
FlatWithEdges
 70
     1
 71
     2
 72
     1
 73
     1
 90
        2
 40
-0.6
 41
30.0
 62
     5
 63
     7
421
 16777215
 74
     1
 91
        4
 64
     7
 65
   257
 75
     1
175
     1
 42
1.0
 92
        0
 66
   257
 43
1.0
 76
     1
 77
     6
 78
     2
 67
     7
 79
     5
170
     0
171
     0
290
     0
174
     0
 93
       13
 44
0.0
173
     0
291
     1
 45
0.0
1001
ACAD
1000
AcDbSavedByObjectVersion
1070
     0
  0
VISUALSTYLE
  5
2D
102
{ACAD_REACTORS
330
2A
102
}
330
2A
100
AcDbVisualStyle
  2
Gouraud
 70
     2
 71
     2
 72
     2
 73
     1
 90
        2
 40
-0.6
 41
30.0
 62
     5
 63
     7
421
 16777215
 74
     0
 91
        4
 64
     7
 65
   257
 75
     1
175
     1
 42
1.0
 92
        0
 66
     7
 43
1.0
 76
     1
 77
     6
 78
     2
 67
     7
 79
     5
170
     0
171
     0
290
     0
174
     0
 93
       13
 44
0.0
173
     0
291
     1
 45
0.0
1001
ACAD
1000
AcDbSavedByObjectVersion
1070
     0
  0
VISUALSTYLE
  5
2E
102
{ACAD_REACTORS
330
2A
102
}
330
2A
100
AcDbVisualStyle
  2
GouraudWithEdges
 70
     3
 71
     2
 72
     2
 73
     1
 90
        2
 40
-0.6
 41
30.0
 62
     5
 63
     7
421
 16777215
 74
     1
 91
        4
 64
     7
 65
   257
 75
     1
175
     1
 42
1.0
 92
        0
 66
   257
 43
1.0
 76
     1
 77
     6
 78
     2
 67
     7
 79
     5
170
     0
171
     0
290
     0
174
     0
 93
       13
 44
0.0
173
     0
291
     1
 45
0.0
1001
ACAD
1000
AcDbSavedByObjectVersion
1070
     0
  0
VISUALSTYLE
  5
38
102
{ACAD_REACTORS
330
2A
102
}
330
2A
100
AcDbVisualStyle
  2
Linepattern
 70
    14
 71
     2
 72
     2
 73
     0
 90
        0
 40
-0.6
 41
-30.0
 62
     5
 63
     7
421
 16777215
 74
     1
 91
        4
 64
     7
 65
   257
 75
     7
175
     7
 42
1.0
 92
        8
 66
     7
 43
1.0
 76
     1
 77
     6
 78
     2
 67
     7
 79
     5
170
     0
171
     0
290
     0
174
     0
 93
        1
 44
0.0
173
     0
291
     1
 45
0.0
1001
ACAD
1000
AcDbSavedByObjectVersion
1070
     0
  0
VISUALSTYLE
  5
33
102
{ACAD_REACTORS
330
2A
102
}
330
2A
100
AcDbVisualStyle
  2
Realistic
 70
     8
 71
     2
 72
     2
 73
     0
 90
        0
 40
-0.6
 41
-30.0
 62
     5
 63
     7
421
 16777215
 74
     1
 91
        0
 64
     7
 65
   257
 75
     1
175
     1
 42
1.0
 92
        8
 66
     8
424
  7895160
 43
1.0
 76
     1
 77
     6
 78
     2
 67
     7
 79
     5
170
     0
171
     0
290
     0
174
     0
 93
       13
 44
0.0
173
     0
291
     0
 45
0.0
1001
ACAD
1000
AcDbSavedByObjectVersion
1070
     0
  0
VISUALSTYLE
  5
37
102
{ACAD_REACTORS
330
2A
102
}
330
2A
100
AcDbVisualStyle
  2
Thicken
 70
    13
 71
     2
 72
     2
 73
     0
 90
        0
 40
-0.6
 41
-30.0
 62
     5
 63
     7
421
 16777215
 74
     1
 91
        4
 64
     7
 65
   257
 75
     1
175
     1
 42
1.0
 92
       12
 66
     7
 43
1.0
 76
     1
 77
     6
 78
     2
 67
     7
 79
     5
170
     0
171
     0
290
     0
174
     0
 93
        1
 44
0.0
173
     0
291
     1
 45
0.0
1001
ACAD
1000
AcDbSavedByObjectVersion
1070
     0
  0
ENDSEC
  0
EOF
