  0
SECTION
  2
HEADER
  9
$ACADVER
  1
AC1015
  9
$ACADMAINTVER
 70
     6
  9
$DWGCODEPAGE
  3
ANSI_1252
  9
$INSBASE
 10
0.0
 20
0.0
 30
0.0
  9
$EXTMIN
 10
-0.8668011588
 20
-6.5516569198
 30
0.0
  9
$EXTMAX
 10
265.0339291902
 20
183.1259665257
 30
0.0
  9
$LIMMIN
 10
0.0
 20
0.0
  9
$LIMMAX
 10
420.0
 20
297.0
  9
$ORTHOMODE
 70
     0
  9
$REGENMODE
 70
     1
  9
$FILLMODE
 70
     1
  9
$QTEXTMODE
 70
     0
  9
$MIRRTEXT
 70
     1
  9
$LTSCALE
 40
1.0
  9
$ATTMODE
 70
     1
  9
$TEXTSIZE
 40
3.5
  9
$TRACEWID
 40
1.0
  9
$TEXTSTYLE
  7
Standard
  9
$CLAYER
  8
0
  9
$CELTYPE
  6
ByLayer
  9
$CECOLOR
 62
   256
  9
$CELTSCALE
 40
1.0
  9
$DISPSILH
 70
     0
  9
$DIMSCALE
 40
1.0
  9
$DIMASZ
 40
3.302
  9
$DIMEXO
 40
1.0
  9
$DIMDLI
 40
3.75
  9
$DIMRND
 40
0.0
  9
$DIMDLE
 40
0.0
  9
$DIMEXE
 40
1.0
  9
$DIMTP
 40
0.0
  9
$DIMTM
 40
0.0
  9
$DIMTXT
 40
3.5
  9
$DIMCEN
 40
2.5
  9
$DIMTSZ
 40
0.0
  9
$DIMTOL
 70
     0
  9
$DIMLIM
 70
     0
  9
$DIMTIH
 70
     1
  9
$DIMTOH
 70
     1
  9
$DIMSE1
 70
     0
  9
$DIMSE2
 70
     0
  9
$DIMTAD
 70
     1
  9
$DIMZIN
 70
     0
  9
$DIMBLK
  1

  9
$DIMASO
 70
     1
  9
$DIMSHO
 70
     1
  9
$DIMPOST
  1

  9
$DIMAPOST
  1

  9
$DIMALT
 70
     0
  9
$DIMALTD
 70
     3
  9
$DIMALTF
 40
0.0393700787
  9
$DIMLFAC
 40
1.0
  9
$DIMTOFL
 70
     1
  9
$DIMTVP
 40
0.0
  9
$DIMTIX
 70
     0
  9
$DIMSOXD
 70
     0
  9
$DIMSAH
 70
     0
  9
$DIMBLK1
  1

  9
$DIMBLK2
  1

  9
$DIMSTYLE
  2
ISO-25
  9
$DIMCLRD
 70
     0
  9
$DIMCLRE
 70
     0
  9
$DIMCLRT
 70
     0
  9
$DIMTFAC
 40
1.0
  9
$DIMGAP
 40
1.524
  9
$DIMJUST
 70
     0
  9
$DIMSD1
 70
     0
  9
$DIMSD2
 70
     0
  9
$DIMTOLJ
 70
     0
  9
$DIMTZIN
 70
     0
  9
$DIMALTZ
 70
     0
  9
$DIMALTTZ
 70
     0
  9
$DIMUPT
 70
     0
  9
$DIMDEC
 70
     2
  9
$DIMTDEC
 70
     2
  9
$DIMALTU
 70
     2
  9
$DIMALTTD
 70
     3
  9
$DIMTXSTY
  7
Standard
  9
$DIMAUNIT
 70
     0
  9
$DIMADEC
 70
     2
  9
$DIMALTRND
 40
0.0
  9
$DIMAZIN
 70
     0
  9
$DIMDSEP
 70
    44
  9
$DIMATFIT
 70
     3
  9
$DIMFRAC
 70
     0
  9
$DIMLDRBLK
  1

  9
$DIMLUNIT
 70
     2
  9
$DIMLWD
 70
    -2
  9
$DIMLWE
 70
    -2
  9
$DIMTMOVE
 70
     0
  9
$LUNITS
 70
     2
  9
$LUPREC
 70
     2
  9
$SKETCHINC
 40
1.0
  9
$FILLETRAD
 40
10.0
  9
$AUNITS
 70
     0
  9
$AUPREC
 70
     2
  9
$MENU
  1
.
  9
$ELEVATION
 40
0.0
  9
$PELEVATION
 40
0.0
  9
$THICKNESS
 40
0.0
  9
$LIMCHECK
 70
     0
  9
$CHAMFERA
 40
0.0
  9
$CHAMFERB
 40
0.0
  9
$CHAMFERC
 40
0.0
  9
$CHAMFERD
 40
0.0
  9
$SKPOLY
 70
     0
  9
$TDCREATE
 40
2457107.377405266
  9
$TDUCREATE
 40
2457107.3357386
  9
$TDUPDATE
 40
2457107.377476748
  9
$TDUUPDATE
 40
2457107.335810081
  9
$TDINDWG
 40
0.0000000116
  9
$TDUSRTIMER
 40
0.0000000116
  9
$USRTIMER
 70
     1
  9
$ANGBASE
 50
0.0
  9
$ANGDIR
 70
     0
  9
$PDMODE
 70
     0
  9
$PDSIZE
 40
-1.0
  9
$PLINEWID
 40
0.0
  9
$SPLFRAME
 70
     0
  9
$SPLINETYPE
 70
     6
  9
$SPLINESEGS
 70
     8
  9
$HANDSEED
  5
332
  9
$SURFTAB1
 70
     6
  9
$SURFTAB2
 70
     6
  9
$SURFTYPE
 70
     6
  9
$SURFU
 70
     6
  9
$SURFV
 70
     6
  9
$UCSBASE
  2

  9
$UCSNAME
  2

  9
$UCSORG
 10
0.0
 20
0.0
 30
0.0
  9
$UCSXDIR
 10
1.0
 20
0.0
 30
0.0
  9
$UCSYDIR
 10
0.0
 20
1.0
 30
0.0
  9
$UCSORTHOREF
  2

  9
$UCSORTHOVIEW
 70
     0
  9
$UCSORGTOP
 10
0.0
 20
0.0
 30
0.0
  9
$UCSORGBOTTOM
 10
0.0
 20
0.0
 30
0.0
  9
$UCSORGLEFT
 10
0.0
 20
0.0
 30
0.0
  9
$UCSORGRIGHT
 10
0.0
 20
0.0
 30
0.0
  9
$UCSORGFRONT
 10
0.0
 20
0.0
 30
0.0
  9
$UCSORGBACK
 10
0.0
 20
0.0
 30
0.0
  9
$PUCSBASE
  2

  9
$PUCSNAME
  2

  9
$PUCSORG
 10
0.0
 20
0.0
 30
0.0
  9
$PUCSXDIR
 10
1.0
 20
0.0
 30
0.0
  9
$PUCSYDIR
 10
0.0
 20
1.0
 30
0.0
  9
$PUCSORTHOREF
  2

  9
$PUCSORTHOVIEW
 70
     0
  9
$PUCSORGTOP
 10
0.0
 20
0.0
 30
0.0
  9
$PUCSORGBOTTOM
 10
0.0
 20
0.0
 30
0.0
  9
$PUCSORGLEFT
 10
0.0
 20
0.0
 30
0.0
  9
$PUCSORGRIGHT
 10
0.0
 20
0.0
 30
0.0
  9
$PUCSORGFRONT
 10
0.0
 20
0.0
 30
0.0
  9
$PUCSORGBACK
 10
0.0
 20
0.0
 30
0.0
  9
$USERI1
 70
     0
  9
$USERI2
 70
     0
  9
$USERI3
 70
     0
  9
$USERI4
 70
     0
  9
$USERI5
 70
     0
  9
$USERR1
 40
0.0
  9
$USERR2
 40
0.0
  9
$USERR3
 40
0.0
  9
$USERR4
 40
0.0
  9
$USERR5
 40
0.0
  9
$WORLDVIEW
 70
     1
  9
$SHADEDGE
 70
     3
  9
$SHADEDIF
 70
    70
  9
$TILEMODE
 70
     1
  9
$MAXACTVP
 70
    64
  9
$PINSBASE
 10
0.0
 20
0.0
 30
0.0
  9
$PLIMCHECK
 70
     0
  9
$PEXTMIN
 10
1.0000000000E+20
 20
1.0000000000E+20
 30
1.0000000000E+20
  9
$PEXTMAX
 10
-1.0000000000E+20
 20
-1.0000000000E+20
 30
-1.0000000000E+20
  9
$PLIMMIN
 10
0.0
 20
0.0
  9
$PLIMMAX
 10
420.0
 20
297.0
  9
$UNITMODE
 70
     0
  9
$VISRETAIN
 70
     1
  9
$PLINEGEN
 70
     0
  9
$PSLTSCALE
 70
     1
  9
$TREEDEPTH
 70
  3020
  9
$CMLSTYLE
  2
Standard
  9
$CMLJUST
 70
     0
  9
$CMLSCALE
 40
20.0
  9
$PROXYGRAPHICS
 70
     1
  9
$MEASUREMENT
 70
     1
  9
$CELWEIGHT
370
    -1
  9
$ENDCAPS
280
     0
  9
$JOINSTYLE
280
     0
  9
$LWDISPLAY
290
     1
  9
$INSUNITS
 70
     4
  9
$HYPERLINKBASE
  1

  9
$STYLESHEET
  1

  9
$XEDIT
290
     1
  9
$CEPSNTYPE
380
     0
  9
$PSTYLEMODE
290
     1
  9
$FINGERPRINTGUID
  2
{34604656-B929-4AFF-94DF-15E795F7E008}
  9
$VERSIONGUID
  2
{FAEB1C32-E019-11D5-929B-00C0DF256EC4}
  9
$EXTNAMES
290
     1
  9
$PSVPSCALE
 40
0.0
  9
$OLESTARTUP
290
     0
  0
ENDSEC
  0
SECTION
  2
CLASSES
  0
CLASS
  1
ACDBDICTIONARYWDFLT
  2
AcDbDictionaryWithDefault
  3
ObjectDBX Classes
 90
        0
280
     0
281
     0
  0
CLASS
  1
VISUALSTYLE
  2
AcDbVisualStyle
  3
ObjectDBX Classes
 90
     4095
280
     0
281
     0
  0
CLASS
  1
MATERIAL
  2
AcDbMaterial
  3
ObjectDBX Classes
 90
     1153
280
     0
281
     0
  0
CLASS
  1
SCALE
  2
AcDbScale
  3
ObjectDBX Classes
 90
     1153
280
     0
281
     0
  0
CLASS
  1
SUN
  2
AcDbSun
  3
SCENEOE
 90
     1153
280
     0
281
     0
  0
CLASS
  1
ACDBPLACEHOLDER
  2
AcDbPlaceHolder
  3
ObjectDBX Classes
 90
        0
280
     0
281
     0
  0
CLASS
  1
LAYOUT
  2
AcDbLayout
  3
ObjectDBX Classes
 90
        0
280
     0
281
     0
  0
ENDSEC
  0
SECTION
  2
TABLES
  0
TABLE
  2
VPORT
  5
8
330
0
100
AcDbSymbolTable
 70
     1
  0
VPORT
  5
29
330
8
100
AcDbSymbolTableRecord
100
AcDbViewportTableRecord
  2
*Active
 70
     0
 10
0.0
 20
0.0
 11
1.0
 21
1.0
 12
132.0835640157
 22
88.2871548029
 13
0.0
 23
0.0
 14
10.0
 24
10.0
 15
10.0
 25
10.0
 16
0.0
 26
0.0
 36
1.0
 17
0.0
 27
0.0
 37
0.0
 40
193.4711759144
 41
1.4018560836
 42
50.0
 43
0.0
 44
0.0
 50
0.0
 51
0.0
 71
     0
 72
   100
 73
     1
 74
     3
 75
     0
 76
     0
 77
     0
 78
     0
281
     0
 65
     1
110
0.0
120
0.0
130
0.0
111
1.0
121
0.0
131
0.0
112
0.0
122
1.0
132
0.0
 79
     0
146
0.0
  0
ENDTAB
  0
TABLE
  2
LTYPE
  5
5
330
0
100
AcDbSymbolTable
 70
     6
  0
LTYPE
  5
14
330
5
100
AcDbSymbolTableRecord
100
AcDbLinetypeTableRecord
  2
ByBlock
 70
     0
  3

 72
    65
 73
     0
 40
0.0
  0
LTYPE
  5
15
330
5
100
AcDbSymbolTableRecord
100
AcDbLinetypeTableRecord
  2
ByLayer
 70
     0
  3

 72
    65
 73
     0
 40
0.0
  0
LTYPE
  5
16
330
5
100
AcDbSymbolTableRecord
100
AcDbLinetypeTableRecord
  2
Continuous
 70
     0
  3
Solid line
 72
    65
 73
     0
 40
0.0
  0
LTYPE
  5
6A
330
5
100
AcDbSymbolTableRecord
100
AcDbLinetypeTableRecord
  2
HIDDEN
 70
     0
  3
Hidden __ __ __ __ __ __ __ __ __ __ __ __ __ __
 72
    65
 73
     2
 40
1.905
 49
1.27
 74
     0
 49
-0.635
 74
     0
  0
LTYPE
  5
6B
330
5
100
AcDbSymbolTableRecord
100
AcDbLinetypeTableRecord
  2
PHANTOM
 70
     0
  3
Phantom ______  __  __  ______  __  __  ______
 72
    65
 73
     6
 40
12.7
 49
6.35
 74
     0
 49
-1.27
 74
     0
 49
1.27
 74
     0
 49
-1.27
 74
     0
 49
1.27
 74
     0
 49
-1.27
 74
     0
  0
LTYPE
  5
6C
330
5
100
AcDbSymbolTableRecord
100
AcDbLinetypeTableRecord
  2
CENTER
 70
     0
  3
Center ____ _ ____ _ ____ _ ____ _ ____ _ ____
 72
    65
 73
     4
 40
10.16
 49
6.35
 74
     0
 49
-1.27
 74
     0
 49
1.27
 74
     0
 49
-1.27
 74
     0
  0
LTYPE
  5
6D
330
5
100
AcDbSymbolTableRecord
100
AcDbLinetypeTableRecord
  2
CENTERX2
 70
     0
  3
Center (2x) ________  __  ________  __  _____
 72
    65
 73
     4
 40
20.32
 49
12.7
 74
     0
 49
-2.54
 74
     0
 49
2.54
 74
     0
 49
-2.54
 74
     0
  0
LTYPE
  5
6E
330
5
100
AcDbSymbolTableRecord
100
AcDbLinetypeTableRecord
  2
DOT2
 70
     0
  3
Dot (.5x) ........................................
 72
    65
 73
     2
 40
0.635
 49
0.0
 74
     0
 49
-0.635
 74
     0
  0
ENDTAB
  0
TABLE
  2
LAYER
  5
2
330
0
100
AcDbSymbolTable
 70
     1
  0
LAYER
  5
10
330
2
100
AcDbSymbolTableRecord
100
AcDbLayerTableRecord
  2
0
 70
     0
 62
     7
  6
Continuous
370
    -3
390
F
  0
ENDTAB
  0
TABLE
  2
STYLE
  5
3
330
0
100
AcDbSymbolTable
 70
     1
  0
STYLE
  5
11
330
3
100
AcDbSymbolTableRecord
100
AcDbTextStyleTableRecord
  2
Standard
 70
     0
 40
0.0
 41
1.0
 50
0.0
 71
     0
 42
3.5
  3
txt
  4

  0
ENDTAB
  0
TABLE
  2
VIEW
  5
6
330
0
100
AcDbSymbolTable
 70
     0
  0
ENDTAB
  0
TABLE
  2
UCS
  5
7
330
0
100
AcDbSymbolTable
 70
     0
  0
ENDTAB
  0
TABLE
  2
APPID
  5
9
330
0
100
AcDbSymbolTable
 70
     1
  0
APPID
  5
12
330
9
100
AcDbSymbolTableRecord
100
AcDbRegAppTableRecord
  2
ACAD
 70
     0
  0
ENDTAB
  0
TABLE
  2
DIMSTYLE
  5
A
330
0
100
AcDbSymbolTable
 70
     1
100
AcDbDimStyleTable
  0
DIMSTYLE
105
27
330
A
100
AcDbSymbolTableRecord
100
AcDbDimStyleTableRecord
  2
ISO-25
 70
     0
 41
2.5
 42
0.625
 43
3.75
 44
1.25
 73
     0
 74
     0
 77
     1
 78
     8
140
2.5
141
2.5
143
0.0393700787
147
0.625
171
     3
172
     1
178
     0
271
     2
272
     2
274
     3
278
    44
283
     0
284
     8
340
11
  0
ENDTAB
  0
TABLE
  2
BLOCK_RECORD
  5
1
330
0
100
AcDbSymbolTable
 70
     1
  0
BLOCK_RECORD
  5
1F
330
1
100
AcDbSymbolTableRecord
100
AcDbBlockTableRecord
  2
*Model_Space
340
22
  0
BLOCK_RECORD
  5
1B
330
1
100
AcDbSymbolTableRecord
100
AcDbBlockTableRecord
  2
*Paper_Space
340
1E
  0
BLOCK_RECORD
  5
23
330
1
100
AcDbSymbolTableRecord
100
AcDbBlockTableRecord
  2
*Paper_Space0
340
26
  0
ENDTAB
  0
ENDSEC
  0
SECTION
  2
BLOCKS
  0
BLOCK
  5
20
330
1F
100
AcDbEntity
  8
0
100
AcDbBlockBegin
  2
*Model_Space
 70
     0
 10
0.0
 20
0.0
 30
0.0
  3
*Model_Space
  1
*Model_Space
  0
ENDBLK
  5
21
330
1F
100
AcDbEntity
  8
0
100
AcDbBlockEnd
  0
BLOCK
  5
1C
330
1B
100
AcDbEntity
 67
     1
  8
0
100
AcDbBlockBegin
  2
*Paper_Space
 70
     0
 10
0.0
 20
0.0
 30
0.0
  3
*Paper_Space
  1
*Paper_Space
  0
ENDBLK
  5
1D
330
1B
100
AcDbEntity
 67
     1
  8
0
100
AcDbBlockEnd
  0
BLOCK
  5
24
330
23
100
AcDbEntity
  8
0
100
AcDbBlockBegin
  2
*Paper_Space0
 70
     0
 10
0.0
 20
0.0
 30
0.0
  3
*Paper_Space0
  1
*Paper_Space0
  0
ENDBLK
  5
25
330
23
100
AcDbEntity
  8
0
100
AcDbBlockEnd
  0
ENDSEC
  0
SECTION
  2
ENTITIES
  0
LWPOLYLINE
  5
6F
330
1F
100
AcDbEntity
  8
0
  6
Continuous
 62
     7
370
    15
100
AcDbPolyline
 90
       17
 70
   128
 43
0.0
 10
170.1592236703
 20
44.6306290329
 10
170.3455895624
 20
44.655620836
 10
170.5224657233
 20
44.7378853219
 10
170.6629243608
 20
44.8648984683
 10
170.7455819207
 20
45.017323675
 10
170.7578545388
 20
45.1719555861
 10
170.6978738202
 20
45.3052528949
 10
170.5747712857
 20
45.3969222944
 10
170.40728818
 20
45.4330079495
 10
170.2209222879
 20
45.4080161464
 10
170.0440461271
 20
45.3257516606
 10
169.9035874895
 20
45.1987385142
 10
169.8209299296
 20
45.0463133074
 10
169.8086573115
 20
44.8916813963
 10
169.8686380301
 20
44.7583840875
 10
169.9917405647
 20
44.666714688
 10
170.1592236703
 20
44.6306290329
  0
LWPOLYLINE
  5
70
330
1F
100
AcDbEntity
  8
0
  6
Continuous
 62
     7
370
    15
100
AcDbPolyline
 90
       17
 70
   128
 43
0.0
 10
175.1205138645
 20
60.6782073655
 10
175.3068797566
 20
60.7031991686
 10
175.4837559174
 20
60.7854636545
 10
175.624214555
 20
60.9124768009
 10
175.7068721149
 20
61.0649020077
 10
175.719144733
 20
61.2195339188
 10
175.6591640144
 20
61.3528312275
 10
175.5360614798
 20
61.444500627
 10
175.3685783742
 20
61.4805862822
 10
175.1822124821
 20
61.4555944791
 10
175.0053363213
 20
61.3733299932
 10
174.8648776837
 20
61.2463168468
 10
174.7822201238
 20
61.09389164
 10
174.7699475057
 20
60.9392597289
 10
174.8299282243
 20
60.8059624202
 10
174.9530307589
 20
60.7142930207
 10
175.1205138645
 20
60.6782073655
  0
LWPOLYLINE
  5
71
330
1F
100
AcDbEntity
  8
0
  6
Continuous
 62
     7
370
    15
100
AcDbPolyline
 90
       17
 70
   128
 43
0.0
 10
180.0818040587
 20
76.7257856982
 10
180.2681699507
 20
76.7507775013
 10
180.4450461116
 20
76.8330419871
 10
180.5855047492
 20
76.9600551335
 10
180.6681623091
 20
77.1124803403
 10
180.6804349272
 20
77.2671122514
 10
180.6204542086
 20
77.4004095602
 10
180.497351674
 20
77.4920789597
 10
180.3298685684
 20
77.5281646148
 10
180.1435026763
 20
77.5031728117
 10
179.9666265154
 20
77.4209083258
 10
179.8261678779
 20
77.2938951794
 10
179.743510318
 20
77.1414699727
 10
179.7312376999
 20
76.9868380615
 10
179.7912184184
 20
76.8535407528
 10
179.914320953
 20
76.7618713533
 10
180.0818040587
 20
76.7257856982
  0
LWPOLYLINE
  5
72
330
1F
100
AcDbEntity
  8
0
  6
Continuous
 62
     7
370
    15
100
AcDbPolyline
 90
       17
 70
   128
 43
0.0
 10
185.0430942529
 20
92.7733640308
 10
185.2294601449
 20
92.7983558339
 10
185.4063363058
 20
92.8806203198
 10
185.5467949433
 20
93.0076334662
 10
185.6294525033
 20
93.1600586729
 10
185.6417251214
 20
93.314690584
 10
185.5817444028
 20
93.4479878928
 10
185.4586418682
 20
93.5396572923
 10
185.2911587626
 20
93.5757429474
 10
185.1047928705
 20
93.5507511443
 10
184.9279167096
 20
93.4684866584
 10
184.7874580721
 20
93.341473512
 10
184.7048005121
 20
93.1890483053
 10
184.692527894
 20
93.0344163942
 10
184.7525086126
 20
92.9011190854
 10
184.8756111472
 20
92.8094496859
 10
185.0430942529
 20
92.7733640308
  0
LWPOLYLINE
  5
73
330
1F
100
AcDbEntity
  8
0
  6
Continuous
 62
     7
370
    15
100
AcDbPolyline
 90
       17
 70
   128
 43
0.0
 10
190.004384447
 20
108.8209423634
 10
190.1907503391
 20
108.8459341665
 10
190.3676265
 20
108.9281986524
 10
190.5080851375
 20
109.0552117988
 10
190.5907426975
 20
109.2076370055
 10
190.6030153155
 20
109.3622689167
 10
190.543034597
 20
109.4955662254
 10
190.4199320624
 20
109.5872356249
 10
190.2524489567
 20
109.62332128
 10
190.0660830647
 20
109.5983294769
 10
189.8892069038
 20
109.5160649911
 10
189.7487482662
 20
109.3890518447
 10
189.6660907063
 20
109.2366266379
 10
189.6538180882
 20
109.0819947268
 10
189.7137988068
 20
108.948697418
 10
189.8369013414
 20
108.8570280185
 10
190.004384447
 20
108.8209423634
  0
LWPOLYLINE
  5
74
330
1F
100
AcDbEntity
  8
0
  6
Continuous
 62
     7
370
    15
100
AcDbPolyline
 90
       17
 70
   128
 43
0.0
 10
194.9656746412
 20
124.868520696
 10
195.1520405333
 20
124.8935124991
 10
195.3289166942
 20
124.975776985
 10
195.4693753317
 20
125.1027901314
 10
195.5520328916
 20
125.2552153382
 10
195.5643055097
 20
125.4098472493
 10
195.5043247911
 20
125.543144558
 10
195.3812222566
 20
125.6348139575
 10
195.2137391509
 20
125.6708996127
 10
195.0273732588
 20
125.6459078096
 10
194.850497098
 20
125.5636433237
 10
194.7100384604
 20
125.4366301773
 10
194.6273809005
 20
125.2842049705
 10
194.6151082824
 20
125.1295730594
 10
194.675089001
 20
124.9962757507
 10
194.7981915356
 20
124.9046063512
 10
194.9656746412
 20
124.868520696
  0
LWPOLYLINE
  5
75
330
1F
100
AcDbEntity
  8
0
  6
Continuous
 62
     7
370
    15
100
AcDbPolyline
 90
       17
 70
   128
 43
0.0
 10
199.9269648354
 20
140.9160990287
 10
200.1133307275
 20
140.9410908318
 10
200.2902068883
 20
141.0233553176
 10
200.4306655259
 20
141.150368464
 10
200.5133230858
 20
141.3027936708
 10
200.5255957039
 20
141.4574255819
 10
200.4656149853
 20
141.5907228907
 10
200.3425124507
 20
141.6823922902
 10
200.1750293451
 20
141.7184779453
 10
199.988663453
 20
141.6934861422
 10
199.8117872922
 20
141.6112216563
 10
199.6713286546
 20
141.4842085099
 10
199.5886710947
 20
141.3317833032
 10
199.5763984766
 20
141.177151392
 10
199.6363791952
 20
141.0438540833
 10
199.7594817298
 20
140.9521846838
 10
199.9269648354
 20
140.9160990287
  0
LWPOLYLINE
  5
76
330
1F
100
AcDbEntity
  8
0
  6
Continuous
 62
     7
370
    15
100
AcDbPolyline
 90
       17
 70
   128
 43
0.0
 10
151.6661838477
 20
45.2104216807
 10
151.8525497397
 20
45.2354134838
 10
152.0294259006
 20
45.3176779697
 10
152.1698845382
 20
45.444691116
 10
152.2525420981
 20
45.5971163228
 10
152.2648147162
 20
45.7517482339
 10
152.2048339976
 20
45.8850455427
 10
152.081731463
 20
45.9767149422
 10
151.9142483574
 20
46.0128005973
 10
151.7278824653
 20
45.9878087942
 10
151.5510063044
 20
45.9055443083
 10
151.4105476669
 20
45.7785311619
 10
151.3278901069
 20
45.6261059552
 10
151.3156174889
 20
45.4714740441
 10
151.3755982074
 20
45.3381767353
 10
151.498700742
 20
45.2465073358
 10
151.6661838477
 20
45.2104216807
  0
LWPOLYLINE
  5
77
330
1F
100
AcDbEntity
  8
0
  6
Continuous
 62
     7
370
    15
100
AcDbPolyline
 90
       17
 70
   128
 43
0.0
 10
156.6274740418
 20
61.2580000133
 10
156.8138399339
 20
61.2829918164
 10
156.9907160948
 20
61.3652563023
 10
157.1311747323
 20
61.4922694487
 10
157.2138322923
 20
61.6446946554
 10
157.2261049104
 20
61.7993265665
 10
157.1661241918
 20
61.9326238753
 10
157.0430216572
 20
62.0242932748
 10
156.8755385515
 20
62.0603789299
 10
156.6891726595
 20
62.0353871268
 10
156.5122964986
 20
61.953122641
 10
156.3718378611
 20
61.8261094946
 10
156.2891803011
 20
61.6736842878
 10
156.276907683
 20
61.5190523767
 10
156.3368884016
 20
61.3857550679
 10
156.4599909362
 20
61.2940856684
 10
156.6274740418
 20
61.2580000133
  0
LWPOLYLINE
  5
78
330
1F
100
AcDbEntity
  8
0
  6
Continuous
 62
     7
370
    15
100
AcDbPolyline
 90
       17
 70
   128
 43
0.0
 10
161.588764236
 20
77.3055783459
 10
161.7751301281
 20
77.330570149
 10
161.952006289
 20
77.4128346349
 10
162.0924649265
 20
77.5398477813
 10
162.1751224864
 20
77.692272988
 10
162.1873951045
 20
77.8469048992
 10
162.127414386
 20
77.9802022079
 10
162.0043118514
 20
78.0718716074
 10
161.8368287457
 20
78.1079572626
 10
161.6504628537
 20
78.0829654595
 10
161.4735866928
 20
78.0007009736
 10
161.3331280552
 20
77.8736878272
 10
161.2504704953
 20
77.7212626204
 10
161.2381978772
 20
77.5666307093
 10
161.2981785958
 20
77.4333334006
 10
161.4212811304
 20
77.3416640011
 10
161.588764236
 20
77.3055783459
  0
LWPOLYLINE
  5
79
330
1F
100
AcDbEntity
  8
0
  6
Continuous
 62
     7
370
    15
100
AcDbPolyline
 90
       17
 70
   128
 43
0.0
 10
166.5500544302
 20
93.3531566786
 10
166.7364203223
 20
93.3781484817
 10
166.9132964831
 20
93.4604129675
 10
167.0537551207
 20
93.5874261139
 10
167.1364126806
 20
93.7398513207
 10
167.1486852987
 20
93.8944832318
 10
167.0887045801
 20
94.0277805406
 10
166.9656020455
 20
94.1194499401
 10
166.7981189399
 20
94.1555355952
 10
166.6117530478
 20
94.1305437921
 10
166.434876887
 20
94.0482793062
 10
166.2944182494
 20
93.9212661598
 10
166.2117606895
 20
93.7688409531
 10
166.1994880714
 20
93.6142090419
 10
166.25946879
 20
93.4809117332
 10
166.3825713246
 20
93.3892423337
 10
166.5500544302
 20
93.3531566786
  0
LWPOLYLINE
  5
7A
330
1F
100
AcDbEntity
  8
0
  6
Continuous
 62
     7
370
    15
100
AcDbPolyline
 90
       17
 70
   128
 43
0.0
 10
171.5113446244
 20
109.4007350112
 10
171.6977105165
 20
109.4257268143
 10
171.8745866773
 20
109.5079913002
 10
172.0150453149
 20
109.6350044465
 10
172.0977028748
 20
109.7874296533
 10
172.1099754929
 20
109.9420615644
 10
172.0499947743
 20
110.0753588732
 10
171.9268922397
 20
110.1670282727
 10
171.7594091341
 20
110.2031139278
 10
171.573043242
 20
110.1781221247
 10
171.3961670811
 20
110.0958576388
 10
171.2557084436
 20
109.9688444924
 10
171.1730508837
 20
109.8164192857
 10
171.1607782656
 20
109.6617873746
 10
171.2207589842
 20
109.5284900658
 10
171.3438615187
 20
109.4368206663
 10
171.5113446244
 20
109.4007350112
  0
LWPOLYLINE
  5
7B
330
1F
100
AcDbEntity
  8
0
  6
Continuous
 62
     7
370
    15
100
AcDbPolyline
 90
       17
 70
   128
 43
0.0
 10
176.4726348186
 20
125.4483133438
 10
176.6590007106
 20
125.4733051469
 10
176.8358768715
 20
125.5555696328
 10
176.9763355091
 20
125.6825827792
 10
177.058993069
 20
125.8350079859
 10
177.0712656871
 20
125.989639897
 10
177.0112849685
 20
126.1229372058
 10
176.8881824339
 20
126.2146066053
 10
176.7206993283
 20
126.2506922604
 10
176.5343334362
 20
126.2257004573
 10
176.3574572753
 20
126.1434359715
 10
176.2169986378
 20
126.0164228251
 10
176.1343410778
 20
125.8639976183
 10
176.1220684598
 20
125.7093657072
 10
176.1820491783
 20
125.5760683984
 10
176.3051517129
 20
125.4843989989
 10
176.4726348186
 20
125.4483133438
  0
LWPOLYLINE
  5
7C
330
1F
100
AcDbEntity
  8
0
  6
Continuous
 62
     7
370
    15
100
AcDbPolyline
 90
       17
 70
   128
 43
0.0
 10
181.4339250127
 20
141.4958916764
 10
181.6202909048
 20
141.5208834795
 10
181.7971670657
 20
141.6031479654
 10
181.9376257032
 20
141.7301611118
 10
182.0202832632
 20
141.8825863186
 10
182.0325558813
 20
142.0372182297
 10
181.9725751627
 20
142.1705155384
 10
181.8494726281
 20
142.2621849379
 10
181.6819895225
 20
142.2982705931
 10
181.4956236304
 20
142.27327879
 10
181.3187474695
 20
142.1910143041
 10
181.178288832
 20
142.0640011577
 10
181.095631272
 20
141.9115759509
 10
181.0833586539
 20
141.7569440398
 10
181.1433393725
 20
141.6236467311
 10
181.2664419071
 20
141.5319773316
 10
181.4339250127
 20
141.4958916764
  0
LWPOLYLINE
  5
7D
330
1F
100
AcDbEntity
  8
0
  6
Continuous
 62
     7
370
    15
100
AcDbPolyline
 90
       17
 70
   128
 43
0.0
 10
133.173144025
 20
45.7902143284
 10
133.3595099171
 20
45.8152061316
 10
133.536386078
 20
45.8974706174
 10
133.6768447155
 20
46.0244837638
 10
133.7595022754
 20
46.1769089706
 10
133.7717748935
 20
46.3315408817
 10
133.7117941749
 20
46.4648381905
 10
133.5886916403
 20
46.5565075899
 10
133.4212085347
 20
46.5925932451
 10
133.2348426426
 20
46.567601442
 10
133.0579664818
 20
46.4853369561
 10
132.9175078442
 20
46.3583238097
 10
132.8348502843
 20
46.205898603
 10
132.8225776662
 20
46.0512666918
 10
132.8825583848
 20
45.9179693831
 10
133.0056609194
 20
45.8262999836
 10
133.173144025
 20
45.7902143284
  0
LWPOLYLINE
  5
7E
330
1F
100
AcDbEntity
  8
0
  6
Continuous
 62
     7
370
    15
100
AcDbPolyline
 90
       17
 70
   128
 43
0.0
 10
138.1344342192
 20
61.8377926611
 10
138.3208001113
 20
61.8627844642
 10
138.4976762721
 20
61.9450489501
 10
138.6381349097
 20
62.0720620964
 10
138.7207924696
 20
62.2244873032
 10
138.7330650877
 20
62.3791192143
 10
138.6730843691
 20
62.5124165231
 10
138.5499818345
 20
62.6040859226
 10
138.3824987289
 20
62.6401715777
 10
138.1961328368
 20
62.6151797746
 10
138.019256676
 20
62.5329152887
 10
137.8787980384
 20
62.4059021423
 10
137.7961404785
 20
62.2534769356
 10
137.7838678604
 20
62.0988450245
 10
137.843848579
 20
61.9655477157
 10
137.9669511136
 20
61.8738783162
 10
138.1344342192
 20
61.8377926611
  0
LWPOLYLINE
  5
7F
330
1F
100
AcDbEntity
  8
0
  6
Continuous
 62
     7
370
    15
100
AcDbPolyline
 90
       17
 70
   128
 43
0.0
 10
143.0957244134
 20
77.8853709937
 10
143.2820903054
 20
77.9103627968
 10
143.4589664663
 20
77.9926272827
 10
143.5994251039
 20
78.1196404291
 10
143.6820826638
 20
78.2720656358
 10
143.6943552819
 20
78.4266975469
 10
143.6343745633
 20
78.5599948557
 10
143.5112720287
 20
78.6516642552
 10
143.3437889231
 20
78.6877499103
 10
143.157423031
 20
78.6627581072
 10
142.9805468701
 20
78.5804936214
 10
142.8400882326
 20
78.453480475
 10
142.7574306727
 20
78.3010552682
 10
142.7451580546
 20
78.1464233571
 10
142.8051387731
 20
78.0131260483
 10
142.9282413077
 20
77.9214566488
 10
143.0957244134
 20
77.8853709937
  0
LWPOLYLINE
  5
80
330
1F
100
AcDbEntity
  8
0
  6
Continuous
 62
     7
370
    15
100
AcDbPolyline
 90
       17
 70
   128
 43
0.0
 10
148.0570146075
 20
93.9329493263
 10
148.2433804996
 20
93.9579411294
 10
148.4202566605
 20
94.0402056153
 10
148.560715298
 20
94.1672187617
 10
148.643372858
 20
94.3196439684
 10
148.6556454761
 20
94.4742758796
 10
148.5956647575
 20
94.6075731883
 10
148.4725622229
 20
94.6992425878
 10
148.3050791173
 20
94.735328243
 10
148.1187132252
 20
94.7103364399
 10
147.9418370643
 20
94.628071954
 10
147.8013784268
 20
94.5010588076
 10
147.7187208668
 20
94.3486336008
 10
147.7064482487
 20
94.1940016897
 10
147.7664289673
 20
94.0607043809
 10
147.8895315019
 20
93.9690349815
 10
148.0570146075
 20
93.9329493263
  0
LWPOLYLINE
  5
81
330
1F
100
AcDbEntity
  8
0
  6
Continuous
 62
     7
370
    15
100
AcDbPolyline
 90
       17
 70
   128
 43
0.0
 10
153.0183048017
 20
109.980527659
 10
153.2046706938
 20
110.0055194621
 10
153.3815468547
 20
110.0877839479
 10
153.5220054922
 20
110.2147970943
 10
153.6046630522
 20
110.3672223011
 10
153.6169356702
 20
110.5218542122
 10
153.5569549517
 20
110.655151521
 10
153.4338524171
 20
110.7468209205
 10
153.2663693114
 20
110.7829065756
 10
153.0800034194
 20
110.7579147725
 10
152.9031272585
 20
110.6756502866
 10
152.7626686209
 20
110.5486371402
 10
152.680011061
 20
110.3962119335
 10
152.6677384429
 20
110.2415800223
 10
152.7277191615
 20
110.1082827136
 10
152.8508216961
 20
110.0166133141
 10
153.0183048017
 20
109.980527659
  0
LWPOLYLINE
  5
82
330
1F
100
AcDbEntity
  8
0
  6
Continuous
 62
     7
370
    15
100
AcDbPolyline
 90
       17
 70
   128
 43
0.0
 10
157.9795949959
 20
126.0281059916
 10
158.165960888
 20
126.0530977947
 10
158.3428370489
 20
126.1353622806
 10
158.4832956864
 20
126.2623754269
 10
158.5659532463
 20
126.4148006337
 10
158.5782258644
 20
126.5694325448
 10
158.5182451458
 20
126.7027298536
 10
158.3951426113
 20
126.7943992531
 10
158.2276595056
 20
126.8304849082
 10
158.0412936135
 20
126.8054931051
 10
157.8644174527
 20
126.7232286192
 10
157.7239588151
 20
126.5962154728
 10
157.6413012552
 20
126.4437902661
 10
157.6290286371
 20
126.289158355
 10
157.6890093557
 20
126.1558610462
 10
157.8121118903
 20
126.0641916467
 10
157.9795949959
 20
126.0281059916
  0
LWPOLYLINE
  5
83
330
1F
100
AcDbEntity
  8
0
  6
Continuous
 62
     7
370
    15
100
AcDbPolyline
 90
       17
 70
   128
 43
0.0
 10
162.9408851901
 20
142.0756843242
 10
163.1272510822
 20
142.1006761273
 10
163.304127243
 20
142.1829406132
 10
163.4445858806
 20
142.3099537596
 10
163.5272434405
 20
142.4623789663
 10
163.5395160586
 20
142.6170108774
 10
163.47953534
 20
142.7503081862
 10
163.3564328054
 20
142.8419775857
 10
163.1889496998
 20
142.8780632408
 10
163.0025838077
 20
142.8530714377
 10
162.8257076469
 20
142.7708069519
 10
162.6852490093
 20
142.6437938055
 10
162.6025914494
 20
142.4913685987
 10
162.5903188313
 20
142.3367366876
 10
162.6502995499
 20
142.2034393788
 10
162.7734020845
 20
142.1117699793
 10
162.9408851901
 20
142.0756843242
  0
LWPOLYLINE
  5
84
330
1F
100
AcDbEntity
  8
0
  6
Continuous
 62
     7
370
    15
100
AcDbPolyline
 90
       17
 70
   128
 43
0.0
 10
114.6801042024
 20
46.3700069762
 10
114.8664700944
 20
46.3949987793
 10
115.0433462553
 20
46.4772632652
 10
115.1838048929
 20
46.6042764116
 10
115.2664624528
 20
46.7567016183
 10
115.2787350709
 20
46.9113335295
 10
115.2187543523
 20
47.0446308382
 10
115.0956518177
 20
47.1363002377
 10
114.9281687121
 20
47.1723858929
 10
114.74180282
 20
47.1473940897
 10
114.5649266591
 20
47.0651296039
 10
114.4244680216
 20
46.9381164575
 10
114.3418104616
 20
46.7856912507
 10
114.3295378435
 20
46.6310593396
 10
114.3895185621
 20
46.4977620308
 10
114.5126210967
 20
46.4060926314
 10
114.6801042024
 20
46.3700069762
  0
LWPOLYLINE
  5
85
330
1F
100
AcDbEntity
  8
0
  6
Continuous
 62
     7
370
    15
100
AcDbPolyline
 90
       17
 70
   128
 43
0.0
 10
119.6413943965
 20
62.4175853088
 10
119.8277602886
 20
62.442577112
 10
120.0046364495
 20
62.5248415978
 10
120.145095087
 20
62.6518547442
 10
120.227752647
 20
62.804279951
 10
120.2400252651
 20
62.9589118621
 10
120.1800445465
 20
63.0922091709
 10
120.0569420119
 20
63.1838785703
 10
119.8894589062
 20
63.2199642255
 10
119.7030930142
 20
63.1949724224
 10
119.5262168533
 20
63.1127079365
 10
119.3857582158
 20
62.9856947901
 10
119.3031006558
 20
62.8332695834
 10
119.2908280377
 20
62.6786376722
 10
119.3508087563
 20
62.5453403635
 10
119.4739112909
 20
62.453670964
 10
119.6413943965
 20
62.4175853088
  0
LWPOLYLINE
  5
86
330
1F
100
AcDbEntity
  8
0
  6
Continuous
 62
     7
370
    15
100
AcDbPolyline
 90
       17
 70
   128
 43
0.0
 10
124.6026845907
 20
78.4651636415
 10
124.7890504828
 20
78.4901554446
 10
124.9659266437
 20
78.5724199304
 10
125.1063852812
 20
78.6994330768
 10
125.1890428411
 20
78.8518582836
 10
125.2013154592
 20
79.0064901947
 10
125.1413347406
 20
79.1397875035
 10
125.0182322061
 20
79.231456903
 10
124.8507491004
 20
79.2675425581
 10
124.6643832083
 20
79.242550755
 10
124.4875070475
 20
79.1602862691
 10
124.3470484099
 20
79.0332731227
 10
124.26439085
 20
78.880847916
 10
124.2521182319
 20
78.7262160049
 10
124.3120989505
 20
78.5929186961
 10
124.4352014851
 20
78.5012492966
 10
124.6026845907
 20
78.4651636415
  0
LWPOLYLINE
  5
87
330
1F
100
AcDbEntity
  8
0
  6
Continuous
 62
     7
370
    15
100
AcDbPolyline
 90
       17
 70
   128
 43
0.0
 10
129.5639747849
 20
94.5127419741
 10
129.750340677
 20
94.5377337772
 10
129.9272168378
 20
94.6199982631
 10
130.0676754754
 20
94.7470114095
 10
130.1503330353
 20
94.8994366162
 10
130.1626056534
 20
95.0540685273
 10
130.1026249348
 20
95.1873658361
 10
129.9795224002
 20
95.2790352356
 10
129.8120392946
 20
95.3151208907
 10
129.6256734025
 20
95.2901290876
 10
129.4487972417
 20
95.2078646018
 10
129.3083386041
 20
95.0808514554
 10
129.2256810442
 20
94.9284262486
 10
129.2134084261
 20
94.7737943375
 10
129.2733891447
 20
94.6404970287
 10
129.3964916793
 20
94.5488276292
 10
129.5639747849
 20
94.5127419741
  0
LWPOLYLINE
  5
88
330
1F
100
AcDbEntity
  8
0
  6
Continuous
 62
     7
370
    15
100
AcDbPolyline
 90
       17
 70
   128
 43
0.0
 10
134.5252649791
 20
110.5603203067
 10
134.7116308712
 20
110.5853121098
 10
134.888507032
 20
110.6675765957
 10
135.0289656696
 20
110.7945897421
 10
135.1116232295
 20
110.9470149488
 10
135.1238958476
 20
111.10164686
 10
135.063915129
 20
111.2349441687
 10
134.9408125944
 20
111.3266135682
 10
134.7733294888
 20
111.3626992234
 10
134.5869635967
 20
111.3377074202
 10
134.4100874358
 20
111.2554429344
 10
134.2696287983
 20
111.128429788
 10
134.1869712384
 20
110.9760045812
 10
134.1746986203
 20
110.8213726701
 10
134.2346793389
 20
110.6880753613
 10
134.3577818734
 20
110.5964059619
 10
134.5252649791
 20
110.5603203067
  0
LWPOLYLINE
  5
89
330
1F
100
AcDbEntity
  8
0
  6
Continuous
 62
     7
370
    15
100
AcDbPolyline
 90
       17
 70
   128
 43
0.0
 10
139.4865551733
 20
126.6078986393
 10
139.6729210653
 20
126.6328904425
 10
139.8497972262
 20
126.7151549283
 10
139.9902558638
 20
126.8421680747
 10
140.0729134237
 20
126.9945932815
 10
140.0851860418
 20
127.1492251926
 10
140.0252053232
 20
127.2825225014
 10
139.9021027886
 20
127.3741919008
 10
139.734619683
 20
127.410277556
 10
139.5482537909
 20
127.3852857529
 10
139.37137763
 20
127.303021267
 10
139.2309189925
 20
127.1760081206
 10
139.1482614325
 20
127.0235829139
 10
139.1359888145
 20
126.8689510027
 10
139.195969533
 20
126.735653694
 10
139.3190720676
 20
126.6439842945
 10
139.4865551733
 20
126.6078986393
  0
LWPOLYLINE
  5
8A
330
1F
100
AcDbEntity
  8
0
  6
Continuous
 62
     7
370
    15
100
AcDbPolyline
 90
       17
 70
   128
 43
0.0
 10
144.4478453674
 20
142.655476972
 10
144.6342112595
 20
142.6804687751
 10
144.8110874204
 20
142.762733261
 10
144.9515460579
 20
142.8897464073
 10
145.0342036179
 20
143.0421716141
 10
145.046476236
 20
143.1968035252
 10
144.9864955174
 20
143.330100834
 10
144.8633929828
 20
143.4217702335
 10
144.6959098771
 20
143.4578558886
 10
144.5095439851
 20
143.4328640855
 10
144.3326678242
 20
143.3505995996
 10
144.1922091867
 20
143.2235864532
 10
144.1095516267
 20
143.0711612465
 10
144.0972790086
 20
142.9165293354
 10
144.1572597272
 20
142.7832320266
 10
144.2803622618
 20
142.6915626271
 10
144.4478453674
 20
142.655476972
  0
LWPOLYLINE
  5
8B
330
1F
100
AcDbEntity
  8
0
  6
Continuous
 62
     7
370
    15
100
AcDbPolyline
 90
       17
 70
   128
 43
0.0
 10
96.1870643797
 20
46.949799624
 10
96.3734302718
 20
46.9747914271
 10
96.5503064327
 20
47.057055913
 10
96.6907650702
 20
47.1840690594
 10
96.7734226301
 20
47.3364942661
 10
96.7856952482
 20
47.4911261772
 10
96.7257145296
 20
47.624423486
 10
96.602611995
 20
47.7160928855
 10
96.4351288894
 20
47.7521785406
 10
96.2487629973
 20
47.7271867375
 10
96.0718868365
 20
47.6449222516
 10
95.9314281989
 20
47.5179091053
 10
95.848770639
 20
47.3654838985
 10
95.8364980209
 20
47.2108519874
 10
95.8964787395
 20
47.0775546786
 10
96.0195812741
 20
46.9858852791
 10
96.1870643797
 20
46.949799624
  0
LWPOLYLINE
  5
8C
330
1F
100
AcDbEntity
  8
0
  6
Continuous
 62
     7
370
    15
100
AcDbPolyline
 90
       17
 70
   128
 43
0.0
 10
101.1483545739
 20
62.9973779566
 10
101.334720466
 20
63.0223697597
 10
101.5115966268
 20
63.1046342456
 10
101.6520552644
 20
63.231647392
 10
101.7347128243
 20
63.3840725987
 10
101.7469854424
 20
63.5387045099
 10
101.6870047238
 20
63.6720018186
 10
101.5639021892
 20
63.7636712181
 10
101.3964190836
 20
63.7997568732
 10
101.2100531915
 20
63.7747650701
 10
101.0331770307
 20
63.6925005843
 10
100.8927183931
 20
63.5654874379
 10
100.8100608332
 20
63.4130622311
 10
100.7977882151
 20
63.25843032
 10
100.8577689337
 20
63.1251330112
 10
100.9808714683
 20
63.0334636117
 10
101.1483545739
 20
62.9973779566
  0
LWPOLYLINE
  5
8D
330
1F
100
AcDbEntity
  8
0
  6
Continuous
 62
     7
370
    15
100
AcDbPolyline
 90
       17
 70
   128
 43
0.0
 10
106.1096447681
 20
79.0449562892
 10
106.2960106601
 20
79.0699480923
 10
106.472886821
 20
79.1522125782
 10
106.6133454586
 20
79.2792257246
 10
106.6960030185
 20
79.4316509314
 10
106.7082756366
 20
79.5862828425
 10
106.648294918
 20
79.7195801513
 10
106.5251923834
 20
79.8112495507
 10
106.3577092778
 20
79.8473352059
 10
106.1713433857
 20
79.8223434028
 10
105.9944672248
 20
79.7400789169
 10
105.8540085873
 20
79.6130657705
 10
105.7713510274
 20
79.4606405638
 10
105.7590784093
 20
79.3060086526
 10
105.8190591278
 20
79.1727113439
 10
105.9421616624
 20
79.0810419444
 10
106.1096447681
 20
79.0449562892
  0
LWPOLYLINE
  5
8E
330
1F
100
AcDbEntity
  8
0
  6
Continuous
 62
     7
370
    15
100
AcDbPolyline
 90
       17
 70
   128
 43
0.0
 10
111.0709349622
 20
95.0925346219
 10
111.2573008543
 20
95.117526425
 10
111.4341770152
 20
95.1997909108
 10
111.5746356527
 20
95.3268040572
 10
111.6572932127
 20
95.479229264
 10
111.6695658308
 20
95.6338611751
 10
111.6095851122
 20
95.7671584839
 10
111.4864825776
 20
95.8588278834
 10
111.318999472
 20
95.8949135385
 10
111.1326335799
 20
95.8699217354
 10
110.955757419
 20
95.7876572495
 10
110.8152987815
 20
95.6606441031
 10
110.7326412215
 20
95.5082188964
 10
110.7203686034
 20
95.3535869853
 10
110.780349322
 20
95.2202896765
 10
110.9034518566
 20
95.128620277
 10
111.0709349622
 20
95.0925346219
  0
LWPOLYLINE
  5
8F
330
1F
100
AcDbEntity
  8
0
  6
Continuous
 62
     7
370
    15
100
AcDbPolyline
 90
       17
 70
   128
 43
0.0
 10
116.0322251564
 20
111.1401129545
 10
116.2185910485
 20
111.1651047576
 10
116.3954672094
 20
111.2473692435
 10
116.5359258469
 20
111.3743823899
 10
116.6185834068
 20
111.5268075966
 10
116.6308560249
 20
111.6814395077
 10
116.5708753064
 20
111.8147368165
 10
116.4477727718
 20
111.906406216
 10
116.2802896661
 20
111.9424918711
 10
116.0939237741
 20
111.917500068
 10
115.9170476132
 20
111.8352355821
 10
115.7765889756
 20
111.7082224358
 10
115.6939314157
 20
111.555797229
 10
115.6816587976
 20
111.4011653179
 10
115.7416395162
 20
111.2678680091
 10
115.8647420508
 20
111.1761986096
 10
116.0322251564
 20
111.1401129545
  0
LWPOLYLINE
  5
90
330
1F
100
AcDbEntity
  8
0
  6
Continuous
 62
     7
370
    15
100
AcDbPolyline
 90
       17
 70
   128
 43
0.0
 10
120.9935153506
 20
127.1876912871
 10
121.1798812427
 20
127.2126830902
 10
121.3567574036
 20
127.2949475761
 10
121.4972160411
 20
127.4219607225
 10
121.579873601
 20
127.5743859292
 10
121.5921462191
 20
127.7290178404
 10
121.5321655005
 20
127.8623151491
 10
121.4090629659
 20
127.9539845486
 10
121.2415798603
 20
127.9900702038
 10
121.0552139682
 20
127.9650784006
 10
120.8783378074
 20
127.8828139148
 10
120.7378791698
 20
127.7558007684
 10
120.6552216099
 20
127.6033755616
 10
120.6429489918
 20
127.4487436505
 10
120.7029297104
 20
127.3154463417
 10
120.826032245
 20
127.2237769423
 10
120.9935153506
 20
127.1876912871
  0
LWPOLYLINE
  5
91
330
1F
100
AcDbEntity
  8
0
  6
Continuous
 62
     7
370
    15
100
AcDbPolyline
 90
       17
 70
   128
 43
0.0
 10
125.9548055448
 20
143.2352696197
 10
126.1411714369
 20
143.2602614229
 10
126.3180475977
 20
143.3425259087
 10
126.4585062353
 20
143.4695390551
 10
126.5411637952
 20
143.6219642619
 10
126.5534364133
 20
143.776596173
 10
126.4934556947
 20
143.9098934818
 10
126.3703531601
 20
144.0015628812
 10
126.2028700545
 20
144.0376485364
 10
126.0165041624
 20
144.0126567333
 10
125.8396280016
 20
143.9303922474
 10
125.699169364
 20
143.803379101
 10
125.6165118041
 20
143.6509538943
 10
125.604239186
 20
143.4963219831
 10
125.6642199046
 20
143.3630246744
 10
125.7873224392
 20
143.2713552749
 10
125.9548055448
 20
143.2352696197
  0
LWPOLYLINE
  5
92
330
1F
100
AcDbEntity
  8
0
  6
Continuous
 62
     7
370
    15
100
AcDbPolyline
 90
       17
 70
   128
 43
0.0
 10
77.6940245571
 20
47.5295922718
 10
77.8803904491
 20
47.5545840749
 10
78.05726661
 20
47.6368485607
 10
78.1977252475
 20
47.7638617071
 10
78.2803828075
 20
47.9162869139
 10
78.2926554256
 20
48.070918825
 10
78.232674707
 20
48.2042161338
 10
78.1095721724
 20
48.2958855333
 10
77.9420890668
 20
48.3319711884
 10
77.7557231747
 20
48.3069793853
 10
77.5788470138
 20
48.2247148994
 10
77.4383883763
 20
48.097701753
 10
77.3557308163
 20
47.9452765463
 10
77.3434581982
 20
47.7906446352
 10
77.4034389168
 20
47.6573473264
 10
77.5265414514
 20
47.5656779269
 10
77.6940245571
 20
47.5295922718
  0
LWPOLYLINE
  5
93
330
1F
100
AcDbEntity
  8
0
  6
Continuous
 62
     7
370
    15
100
AcDbPolyline
 90
       17
 70
   128
 43
0.0
 10
82.6553147512
 20
63.5771706044
 10
82.8416806433
 20
63.6021624075
 10
83.0185568042
 20
63.6844268934
 10
83.1590154417
 20
63.8114400398
 10
83.2416730017
 20
63.9638652465
 10
83.2539456198
 20
64.1184971576
 10
83.1939649012
 20
64.2517944664
 10
83.0708623666
 20
64.3434638659
 10
82.9033792609
 20
64.379549521
 10
82.7170133689
 20
64.3545577179
 10
82.540137208
 20
64.272293232
 10
82.3996785705
 20
64.1452800856
 10
82.3170210105
 20
63.9928548789
 10
82.3047483924
 20
63.8382229678
 10
82.364729111
 20
63.704925659
 10
82.4878316456
 20
63.6132562595
 10
82.6553147512
 20
63.5771706044
  0
LWPOLYLINE
  5
94
330
1F
100
AcDbEntity
  8
0
  6
Continuous
 62
     7
370
    15
100
AcDbPolyline
 90
       17
 70
   128
 43
0.0
 10
87.6166049454
 20
79.624748937
 10
87.8029708375
 20
79.6497407401
 10
87.9798469984
 20
79.732005226
 10
88.1203056359
 20
79.8590183724
 10
88.2029631958
 20
80.0114435791
 10
88.2152358139
 20
80.1660754903
 10
88.1552550953
 20
80.299372799
 10
88.0321525608
 20
80.3910421985
 10
87.8646694551
 20
80.4271278536
 10
87.678303563
 20
80.4021360505
 10
87.5014274022
 20
80.3198715647
 10
87.3609687646
 20
80.1928584183
 10
87.2783112047
 20
80.0404332115
 10
87.2660385866
 20
79.8858013004
 10
87.3260193052
 20
79.7525039916
 10
87.4491218398
 20
79.6608345921
 10
87.6166049454
 20
79.624748937
  0
LWPOLYLINE
  5
95
330
1F
100
AcDbEntity
  8
0
  6
Continuous
 62
     7
370
    15
100
AcDbPolyline
 90
       17
 70
   128
 43
0.0
 10
92.5778951396
 20
95.6723272696
 10
92.7642610317
 20
95.6973190727
 10
92.9411371925
 20
95.7795835586
 10
93.0815958301
 20
95.906596705
 10
93.16425339
 20
96.0590219118
 10
93.1765260081
 20
96.2136538229
 10
93.1165452895
 20
96.3469511316
 10
92.9934427549
 20
96.4386205311
 10
92.8259596493
 20
96.4747061863
 10
92.6395937572
 20
96.4497143832
 10
92.4627175964
 20
96.3674498973
 10
92.3222589588
 20
96.2404367509
 10
92.2396013989
 20
96.0880115441
 10
92.2273287808
 20
95.933379633
 10
92.2873094994
 20
95.8000823243
 10
92.410412034
 20
95.7084129248
 10
92.5778951396
 20
95.6723272696
  0
LWPOLYLINE
  5
96
330
1F
100
AcDbEntity
  8
0
  6
Continuous
 62
     7
370
    15
100
AcDbPolyline
 90
       17
 70
   128
 43
0.0
 10
97.5391853338
 20
111.7199056023
 10
97.7255512259
 20
111.7448974054
 10
97.9024273867
 20
111.8271618912
 10
98.0428860243
 20
111.9541750376
 10
98.1255435842
 20
112.1066002444
 10
98.1378162023
 20
112.2612321555
 10
98.0778354837
 20
112.3945294643
 10
97.9547329491
 20
112.4861988638
 10
97.7872498435
 20
112.5222845189
 10
97.6008839514
 20
112.4972927158
 10
97.4240077905
 20
112.4150282299
 10
97.283549153
 20
112.2880150835
 10
97.2008915931
 20
112.1355898768
 10
97.188618975
 20
111.9809579657
 10
97.2485996936
 20
111.8476606569
 10
97.3717022281
 20
111.7559912574
 10
97.5391853338
 20
111.7199056023
  0
LWPOLYLINE
  5
97
330
1F
100
AcDbEntity
  8
0
  6
Continuous
 62
     7
370
    15
100
AcDbPolyline
 90
       17
 70
   128
 43
0.0
 10
102.500475528
 20
127.7674839349
 10
102.68684142
 20
127.792475738
 10
102.8637175809
 20
127.8747402239
 10
103.0041762185
 20
128.0017533703
 10
103.0868337784
 20
128.154178577
 10
103.0991063965
 20
128.3088104881
 10
103.0391256779
 20
128.4421077969
 10
102.9160231433
 20
128.5337771964
 10
102.7485400377
 20
128.5698628515
 10
102.5621741456
 20
128.5448710484
 10
102.3852979847
 20
128.4626065625
 10
102.2448393472
 20
128.3355934162
 10
102.1621817872
 20
128.1831682094
 10
102.1499091691
 20
128.0285362983
 10
102.2098898877
 20
127.8952389895
 10
102.3329924223
 20
127.80356959
 10
102.500475528
 20
127.7674839349
  0
LWPOLYLINE
  5
98
330
1F
100
AcDbEntity
  8
0
  6
Continuous
 62
     7
370
    15
100
AcDbPolyline
 90
       17
 70
   128
 43
0.0
 10
107.4617657221
 20
143.8150622675
 10
107.6481316142
 20
143.8400540706
 10
107.8250077751
 20
143.9223185565
 10
107.9654664126
 20
144.0493317029
 10
108.0481239726
 20
144.2017569096
 10
108.0603965907
 20
144.3563888208
 10
108.0004158721
 20
144.4896861295
 10
107.8773133375
 20
144.581355529
 10
107.7098302318
 20
144.6174411841
 10
107.5234643398
 20
144.592449381
 10
107.3465881789
 20
144.5101848952
 10
107.2061295414
 20
144.3831717488
 10
107.1234719814
 20
144.230746542
 10
107.1111993633
 20
144.0761146309
 10
107.1711800819
 20
143.9428173221
 10
107.2942826165
 20
143.8511479226
 10
107.4617657221
 20
143.8150622675
  0
LWPOLYLINE
  5
99
330
1F
100
AcDbEntity
  8
0
  6
Continuous
 62
     7
370
    15
100
AcDbPolyline
 90
       17
 70
   128
 43
0.0
 10
59.2009847344
 20
48.1093849195
 10
59.3873506265
 20
48.1343767226
 10
59.5642267873
 20
48.2166412085
 10
59.7046854249
 20
48.3436543549
 10
59.7873429848
 20
48.4960795617
 10
59.7996156029
 20
48.6507114728
 10
59.7396348843
 20
48.7840087815
 10
59.6165323497
 20
48.875678181
 10
59.4490492441
 20
48.9117638362
 10
59.262683352
 20
48.8867720331
 10
59.0858071912
 20
48.8045075472
 10
58.9453485536
 20
48.6774944008
 10
58.8626909937
 20
48.525069194
 10
58.8504183756
 20
48.3704372829
 10
58.9103990942
 20
48.2371399742
 10
59.0335016288
 20
48.1454705747
 10
59.2009847344
 20
48.1093849195
  0
LWPOLYLINE
  5
9A
330
1F
100
AcDbEntity
  8
0
  6
Continuous
 62
     7
370
    15
100
AcDbPolyline
 90
       17
 70
   128
 43
0.0
 10
64.1622749286
 20
64.1569632522
 10
64.3486408207
 20
64.1819550553
 10
64.5255169815
 20
64.2642195411
 10
64.6659756191
 20
64.3912326875
 10
64.748633179
 20
64.5436578943
 10
64.7609057971
 20
64.6982898054
 10
64.7009250785
 20
64.8315871142
 10
64.5778225439
 20
64.9232565137
 10
64.4103394383
 20
64.9593421688
 10
64.2239735462
 20
64.9343503657
 10
64.0470973853
 20
64.8520858798
 10
63.9066387478
 20
64.7250727334
 10
63.8239811879
 20
64.5726475267
 10
63.8117085698
 20
64.4180156155
 10
63.8716892884
 20
64.2847183068
 10
63.994791823
 20
64.1930489073
 10
64.1622749286
 20
64.1569632522
  0
LWPOLYLINE
  5
9B
330
1F
100
AcDbEntity
  8
0
  6
Continuous
 62
     7
370
    15
100
AcDbPolyline
 90
       17
 70
   128
 43
0.0
 10
69.1235651228
 20
80.2045415848
 10
69.3099310148
 20
80.2295333879
 10
69.4868071757
 20
80.3117978738
 10
69.6272658133
 20
80.4388110202
 10
69.7099233732
 20
80.5912362269
 10
69.7221959913
 20
80.745868138
 10
69.6622152727
 20
80.8791654468
 10
69.5391127381
 20
80.9708348463
 10
69.3716296325
 20
81.0069205014
 10
69.1852637404
 20
80.9819286983
 10
69.0083875795
 20
80.8996642124
 10
68.867928942
 20
80.772651066
 10
68.7852713821
 20
80.6202258593
 10
68.772998764
 20
80.4655939482
 10
68.8329794825
 20
80.3322966394
 10
68.9560820171
 20
80.2406272399
 10
69.1235651228
 20
80.2045415848
  0
LWPOLYLINE
  5
9C
330
1F
100
AcDbEntity
  8
0
  6
Continuous
 62
     7
370
    15
100
AcDbPolyline
 90
       17
 70
   128
 43
0.0
 10
74.0848553169
 20
96.2521199174
 10
74.271221209
 20
96.2771117205
 10
74.4480973699
 20
96.3593762064
 10
74.5885560074
 20
96.4863893528
 10
74.6712135674
 20
96.6388145595
 10
74.6834861855
 20
96.7934464707
 10
74.6235054669
 20
96.9267437794
 10
74.5004029323
 20
97.0184131789
 10
74.3329198267
 20
97.054498834
 10
74.1465539346
 20
97.0295070309
 10
73.9696777737
 20
96.9472425451
 10
73.8292191362
 20
96.8202293987
 10
73.7465615762
 20
96.6678041919
 10
73.7342889581
 20
96.5131722808
 10
73.7942696767
 20
96.379874972
 10
73.9173722113
 20
96.2882055725
 10
74.0848553169
 20
96.2521199174
  0
LWPOLYLINE
  5
9D
330
1F
100
AcDbEntity
  8
0
  6
Continuous
 62
     7
370
    15
100
AcDbPolyline
 90
       17
 70
   128
 43
0.0
 10
79.0461455111
 20
112.29969825
 10
79.2325114032
 20
112.3246900531
 10
79.4093875641
 20
112.406954539
 10
79.5498462016
 20
112.5339676854
 10
79.6325037615
 20
112.6863928922
 10
79.6447763796
 20
112.8410248033
 10
79.5847956611
 20
112.974322112
 10
79.4616931265
 20
113.0659915115
 10
79.2942100208
 20
113.1020771667
 10
79.1078441288
 20
113.0770853636
 10
78.9309679679
 20
112.9948208777
 10
78.7905093303
 20
112.8678077313
 10
78.7078517704
 20
112.7153825245
 10
78.6955791523
 20
112.5607506134
 10
78.7555598709
 20
112.4274533047
 10
78.8786624055
 20
112.3357839052
 10
79.0461455111
 20
112.29969825
  0
LWPOLYLINE
  5
1A2
330
1F
100
AcDbEntity
  8
0
  6
Continuous
 62
     7
370
    15
100
AcDbPolyline
 90
       17
 70
   128
 43
0.0
 10
88.9687258995
 20
144.3948549153
 10
89.1550917916
 20
144.4198467184
 10
89.3319679524
 20
144.5021112043
 10
89.47242659
 20
144.6291243507
 10
89.5550841499
 20
144.7815495574
 10
89.567356768
 20
144.9361814685
 10
89.5073760494
 20
145.0694787773
 10
89.3842735148
 20
145.1611481768
 10
89.2167904092
 20
145.1972338319
 10
89.0304245171
 20
145.1722420288
 10
88.8535483563
 20
145.0899775429
 10
88.7130897187
 20
144.9629643966
 10
88.6304321588
 20
144.8105391898
 10
88.6181595407
 20
144.6559072787
 10
88.6781402593
 20
144.5226099699
 10
88.8012427939
 20
144.4309405704
 10
88.9687258995
 20
144.3948549153
  0
LWPOLYLINE
  5
1A3
330
1F
100
AcDbEntity
  8
0
  6
Continuous
 62
     7
370
    15
100
AcDbPolyline
 90
       17
 70
   128
 43
0.0
 10
84.0074357053
 20
128.3472765827
 10
84.1938015974
 20
128.3722683858
 10
84.3706777583
 20
128.4545328716
 10
84.5111363958
 20
128.581546018
 10
84.5937939557
 20
128.7339712248
 10
84.6060665738
 20
128.8886031359
 10
84.5460858552
 20
129.0219004447
 10
84.4229833206
 20
129.1135698442
 10
84.255500215
 20
129.1496554993
 10
84.0691343229
 20
129.1246636962
 10
83.8922581621
 20
129.0423992103
 10
83.7517995245
 20
128.9153860639
 10
83.6691419646
 20
128.7629608572
 10
83.6568693465
 20
128.6083289461
 10
83.7168500651
 20
128.4750316373
 10
83.8399525997
 20
128.3833622378
 10
84.0074357053
 20
128.3472765827
  0
LINE
  5
1E9
330
1F
100
AcDbEntity
  8
0
  6
Continuous
 62
     7
370
    15
100
AcDbLine
 10
177.0717539227
 20
32.261564511
 30
0.0
 11
181.6950138784
 21
32.116616349
 31
0.0
  0
LINE
  5
1EA
330
1F
100
AcDbEntity
  8
0
  6
Continuous
 62
     7
370
    15
100
AcDbLine
 10
181.6950138784
 20
32.116616349
 30
0.0
 11
182.0671106429
 21
33.320184724
 31
0.0
  0
LINE
  5
1EB
330
1F
100
AcDbEntity
  8
0
  6
Continuous
 62
     7
370
    15
100
AcDbLine
 10
182.0671106429
 20
33.320184724
 30
0.0
 11
177.4438506873
 21
33.4651328859
 31
0.0
  0
LINE
  5
1EC
330
1F
100
AcDbEntity
  8
0
  6
Continuous
 62
     7
370
    15
100
AcDbLine
 10
177.4438506873
 20
33.4651328859
 30
0.0
 11
177.0717539227
 21
32.261564511
 31
0.0
  0
LINE
  5
1ED
330
1F
100
AcDbEntity
  8
0
  6
Continuous
 62
     7
370
    15
100
AcDbLine
 10
182.0330441169
 20
48.3091428436
 30
0.0
 11
186.6563040725
 21
48.1641946817
 31
0.0
  0
LINE
  5
1EE
330
1F
100
AcDbEntity
  8
0
  6
Continuous
 62
     7
370
    15
100
AcDbLine
 10
186.6563040725
 20
48.1641946817
 30
0.0
 11
187.0284008371
 21
49.3677630566
 31
0.0
  0
LINE
  5
1EF
330
1F
100
AcDbEntity
  8
0
  6
Continuous
 62
     7
370
    15
100
AcDbLine
 10
187.0284008371
 20
49.3677630566
 30
0.0
 11
182.4051408814
 21
49.5127112185
 31
0.0
  0
LINE
  5
1F0
330
1F
100
AcDbEntity
  8
0
  6
Continuous
 62
     7
370
    15
100
AcDbLine
 10
182.4051408814
 20
49.5127112185
 30
0.0
 11
182.0330441169
 21
48.3091428436
 31
0.0
  0
LINE
  5
1F1
330
1F
100
AcDbEntity
  8
0
  6
Continuous
 62
     7
370
    15
100
AcDbLine
 10
186.9943343111
 20
64.3567211762
 30
0.0
 11
191.6175942667
 21
64.2117730143
 31
0.0
  0
LINE
  5
1F2
330
1F
100
AcDbEntity
  8
0
  6
Continuous
 62
     7
370
    15
100
AcDbLine
 10
191.6175942667
 20
64.2117730143
 30
0.0
 11
191.9896910313
 21
65.4153413892
 31
0.0
  0
LINE
  5
1F3
330
1F
100
AcDbEntity
  8
0
  6
Continuous
 62
     7
370
    15
100
AcDbLine
 10
191.9896910313
 20
65.4153413892
 30
0.0
 11
187.3664310756
 21
65.5602895512
 31
0.0
  0
LINE
  5
1F4
330
1F
100
AcDbEntity
  8
0
  6
Continuous
 62
     7
370
    15
100
AcDbLine
 10
187.3664310756
 20
65.5602895512
 30
0.0
 11
186.9943343111
 21
64.3567211762
 31
0.0
  0
LINE
  5
1F5
330
1F
100
AcDbEntity
  8
0
  6
Continuous
 62
     7
370
    15
100
AcDbLine
 10
191.9556245052
 20
80.4042995088
 30
0.0
 11
196.5788844609
 21
80.2593513469
 31
0.0
  0
LINE
  5
1F6
330
1F
100
AcDbEntity
  8
0
  6
Continuous
 62
     7
370
    15
100
AcDbLine
 10
196.5788844609
 20
80.2593513469
 30
0.0
 11
196.9509812255
 21
81.4629197218
 31
0.0
  0
LINE
  5
1F7
330
1F
100
AcDbEntity
  8
0
  6
Continuous
 62
     7
370
    15
100
AcDbLine
 10
196.9509812255
 20
81.4629197218
 30
0.0
 11
192.3277212698
 21
81.6078678838
 31
0.0
  0
LINE
  5
1F8
330
1F
100
AcDbEntity
  8
0
  6
Continuous
 62
     7
370
    15
100
AcDbLine
 10
192.3277212698
 20
81.6078678838
 30
0.0
 11
191.9556245052
 21
80.4042995088
 31
0.0
  0
LINE
  5
1F9
330
1F
100
AcDbEntity
  8
0
  6
Continuous
 62
     7
370
    15
100
AcDbLine
 10
196.9169146994
 20
96.4518778415
 30
0.0
 11
201.5401746551
 21
96.3069296795
 31
0.0
  0
LINE
  5
1FA
330
1F
100
AcDbEntity
  8
0
  6
Continuous
 62
     7
370
    15
100
AcDbLine
 10
201.5401746551
 20
96.3069296795
 30
0.0
 11
201.9122714196
 21
97.5104980545
 31
0.0
  0
LINE
  5
1FB
330
1F
100
AcDbEntity
  8
0
  6
Continuous
 62
     7
370
    15
100
AcDbLine
 10
201.9122714196
 20
97.5104980545
 30
0.0
 11
197.289011464
 21
97.6554462164
 31
0.0
  0
LINE
  5
1FC
330
1F
100
AcDbEntity
  8
0
  6
Continuous
 62
     7
370
    15
100
AcDbLine
 10
197.289011464
 20
97.6554462164
 30
0.0
 11
196.9169146994
 21
96.4518778415
 31
0.0
  0
LINE
  5
1FD
330
1F
100
AcDbEntity
  8
0
  6
Continuous
 62
     7
370
    15
100
AcDbLine
 10
201.8782048936
 20
112.4994561741
 30
0.0
 11
206.5014648493
 21
112.3545080122
 31
0.0
  0
LINE
  5
1FE
330
1F
100
AcDbEntity
  8
0
  6
Continuous
 62
     7
370
    15
100
AcDbLine
 10
206.5014648493
 20
112.3545080122
 30
0.0
 11
206.8735616138
 21
113.5580763871
 31
0.0
  0
LINE
  5
1FF
330
1F
100
AcDbEntity
  8
0
  6
Continuous
 62
     7
370
    15
100
AcDbLine
 10
206.8735616138
 20
113.5580763871
 30
0.0
 11
202.2503016582
 21
113.703024549
 31
0.0
  0
LINE
  5
200
330
1F
100
AcDbEntity
  8
0
  6
Continuous
 62
     7
370
    15
100
AcDbLine
 10
202.2503016582
 20
113.703024549
 30
0.0
 11
201.8782048936
 21
112.4994561741
 31
0.0
  0
LINE
  5
201
330
1F
100
AcDbEntity
  8
0
  6
Continuous
 62
     7
370
    15
100
AcDbLine
 10
206.8394950878
 20
128.5470345067
 30
0.0
 11
211.4627550434
 21
128.4020863448
 31
0.0
  0
LINE
  5
202
330
1F
100
AcDbEntity
  8
0
  6
Continuous
 62
     7
370
    15
100
AcDbLine
 10
211.4627550434
 20
128.4020863448
 30
0.0
 11
211.834851808
 21
129.6056547197
 31
0.0
  0
LINE
  5
203
330
1F
100
AcDbEntity
  8
0
  6
Continuous
 62
     7
370
    15
100
AcDbLine
 10
211.834851808
 20
129.6056547197
 30
0.0
 11
207.2115918523
 21
129.7506028817
 31
0.0
  0
LINE
  5
204
330
1F
100
AcDbEntity
  8
0
  6
Continuous
 62
     7
370
    15
100
AcDbLine
 10
207.2115918523
 20
129.7506028817
 30
0.0
 11
206.8394950878
 21
128.5470345067
 31
0.0
  0
LINE
  5
205
330
1F
100
AcDbEntity
  8
0
  6
Continuous
 62
     7
370
    15
100
AcDbLine
 10
211.800785282
 20
144.5946128393
 30
0.0
 11
216.4240452376
 21
144.4496646774
 31
0.0
  0
LINE
  5
206
330
1F
100
AcDbEntity
  8
0
  6
Continuous
 62
     7
370
    15
100
AcDbLine
 10
216.4240452376
 20
144.4496646774
 30
0.0
 11
216.7961420022
 21
145.6532330524
 31
0.0
  0
LINE
  5
207
330
1F
100
AcDbEntity
  8
0
  6
Continuous
 62
     7
370
    15
100
AcDbLine
 10
216.7961420022
 20
145.6532330524
 30
0.0
 11
212.1728820465
 21
145.7981812143
 31
0.0
  0
LINE
  5
208
330
1F
100
AcDbEntity
  8
0
  6
Continuous
 62
     7
370
    15
100
AcDbLine
 10
212.1728820465
 20
145.7981812143
 30
0.0
 11
211.800785282
 21
144.5946128393
 31
0.0
  0
LINE
  5
209
330
1F
100
AcDbEntity
  8
0
  6
Continuous
 62
     7
370
    15
100
AcDbLine
 10
158.5787141
 20
32.8413571587
 30
0.0
 11
163.2019740557
 21
32.6964089968
 31
0.0
  0
LINE
  5
20A
330
1F
100
AcDbEntity
  8
0
  6
Continuous
 62
     7
370
    15
100
AcDbLine
 10
163.2019740557
 20
32.6964089968
 30
0.0
 11
163.5740708203
 21
33.8999773717
 31
0.0
  0
LINE
  5
20B
330
1F
100
AcDbEntity
  8
0
  6
Continuous
 62
     7
370
    15
100
AcDbLine
 10
163.5740708203
 20
33.8999773717
 30
0.0
 11
158.9508108646
 21
34.0449255337
 31
0.0
  0
LINE
  5
20C
330
1F
100
AcDbEntity
  8
0
  6
Continuous
 62
     7
370
    15
100
AcDbLine
 10
158.9508108646
 20
34.0449255337
 30
0.0
 11
158.5787141
 21
32.8413571587
 31
0.0
  0
LINE
  5
20D
330
1F
100
AcDbEntity
  8
0
  6
Continuous
 62
     7
370
    15
100
AcDbLine
 10
163.5400042942
 20
48.8889354914
 30
0.0
 11
168.1632642499
 21
48.7439873294
 31
0.0
  0
LINE
  5
20E
330
1F
100
AcDbEntity
  8
0
  6
Continuous
 62
     7
370
    15
100
AcDbLine
 10
168.1632642499
 20
48.7439873294
 30
0.0
 11
168.5353610145
 21
49.9475557044
 31
0.0
  0
LINE
  5
20F
330
1F
100
AcDbEntity
  8
0
  6
Continuous
 62
     7
370
    15
100
AcDbLine
 10
168.5353610145
 20
49.9475557044
 30
0.0
 11
163.9121010588
 21
50.0925038663
 31
0.0
  0
LINE
  5
210
330
1F
100
AcDbEntity
  8
0
  6
Continuous
 62
     7
370
    15
100
AcDbLine
 10
163.9121010588
 20
50.0925038663
 30
0.0
 11
163.5400042942
 21
48.8889354914
 31
0.0
  0
LINE
  5
211
330
1F
100
AcDbEntity
  8
0
  6
Continuous
 62
     7
370
    15
100
AcDbLine
 10
168.5012944884
 20
64.936513824
 30
0.0
 11
173.1245544441
 21
64.791565662
 31
0.0
  0
LINE
  5
212
330
1F
100
AcDbEntity
  8
0
  6
Continuous
 62
     7
370
    15
100
AcDbLine
 10
173.1245544441
 20
64.791565662
 30
0.0
 11
173.4966512086
 21
65.995134037
 31
0.0
  0
LINE
  5
213
330
1F
100
AcDbEntity
  8
0
  6
Continuous
 62
     7
370
    15
100
AcDbLine
 10
173.4966512086
 20
65.995134037
 30
0.0
 11
168.873391253
 21
66.1400821989
 31
0.0
  0
LINE
  5
214
330
1F
100
AcDbEntity
  8
0
  6
Continuous
 62
     7
370
    15
100
AcDbLine
 10
168.873391253
 20
66.1400821989
 30
0.0
 11
168.5012944884
 21
64.936513824
 31
0.0
  0
LINE
  5
215
330
1F
100
AcDbEntity
  8
0
  6
Continuous
 62
     7
370
    15
100
AcDbLine
 10
173.4625846826
 20
80.9840921566
 30
0.0
 11
178.0858446383
 21
80.8391439947
 31
0.0
  0
LINE
  5
216
330
1F
100
AcDbEntity
  8
0
  6
Continuous
 62
     7
370
    15
100
AcDbLine
 10
178.0858446383
 20
80.8391439947
 30
0.0
 11
178.4579414028
 21
82.0427123696
 31
0.0
  0
LINE
  5
217
330
1F
100
AcDbEntity
  8
0
  6
Continuous
 62
     7
370
    15
100
AcDbLine
 10
178.4579414028
 20
82.0427123696
 30
0.0
 11
173.8346814472
 21
82.1876605316
 31
0.0
  0
LINE
  5
218
330
1F
100
AcDbEntity
  8
0
  6
Continuous
 62
     7
370
    15
100
AcDbLine
 10
173.8346814472
 20
82.1876605316
 30
0.0
 11
173.4625846826
 21
80.9840921566
 31
0.0
  0
LINE
  5
219
330
1F
100
AcDbEntity
  8
0
  6
Continuous
 62
     7
370
    15
100
AcDbLine
 10
178.4238748768
 20
97.0316704892
 30
0.0
 11
183.0471348324
 21
96.8867223273
 31
0.0
  0
LINE
  5
21A
330
1F
100
AcDbEntity
  8
0
  6
Continuous
 62
     7
370
    15
100
AcDbLine
 10
183.0471348324
 20
96.8867223273
 30
0.0
 11
183.419231597
 21
98.0902907022
 31
0.0
  0
LINE
  5
21B
330
1F
100
AcDbEntity
  8
0
  6
Continuous
 62
     7
370
    15
100
AcDbLine
 10
183.419231597
 20
98.0902907022
 30
0.0
 11
178.7959716413
 21
98.2352388642
 31
0.0
  0
LINE
  5
21C
330
1F
100
AcDbEntity
  8
0
  6
Continuous
 62
     7
370
    15
100
AcDbLine
 10
178.7959716413
 20
98.2352388642
 30
0.0
 11
178.4238748768
 21
97.0316704892
 31
0.0
  0
LINE
  5
21D
330
1F
100
AcDbEntity
  8
0
  6
Continuous
 62
     7
370
    15
100
AcDbLine
 10
183.385165071
 20
113.0792488219
 30
0.0
 11
188.0084250266
 21
112.9343006599
 31
0.0
  0
LINE
  5
21E
330
1F
100
AcDbEntity
  8
0
  6
Continuous
 62
     7
370
    15
100
AcDbLine
 10
188.0084250266
 20
112.9343006599
 30
0.0
 11
188.3805217912
 21
114.1378690349
 31
0.0
  0
LINE
  5
21F
330
1F
100
AcDbEntity
  8
0
  6
Continuous
 62
     7
370
    15
100
AcDbLine
 10
188.3805217912
 20
114.1378690349
 30
0.0
 11
183.7572618355
 21
114.2828171968
 31
0.0
  0
LINE
  5
220
330
1F
100
AcDbEntity
  8
0
  6
Continuous
 62
     7
370
    15
100
AcDbLine
 10
183.7572618355
 20
114.2828171968
 30
0.0
 11
183.385165071
 21
113.0792488219
 31
0.0
  0
LINE
  5
221
330
1F
100
AcDbEntity
  8
0
  6
Continuous
 62
     7
370
    15
100
AcDbLine
 10
188.3464552651
 20
129.1268271545
 30
0.0
 11
192.9697152208
 21
128.9818789926
 31
0.0
  0
LINE
  5
222
330
1F
100
AcDbEntity
  8
0
  6
Continuous
 62
     7
370
    15
100
AcDbLine
 10
192.9697152208
 20
128.9818789926
 30
0.0
 11
193.3418119854
 21
130.1854473675
 31
0.0
  0
LINE
  5
223
330
1F
100
AcDbEntity
  8
0
  6
Continuous
 62
     7
370
    15
100
AcDbLine
 10
193.3418119854
 20
130.1854473675
 30
0.0
 11
188.7185520297
 21
130.3303955294
 31
0.0
  0
LINE
  5
224
330
1F
100
AcDbEntity
  8
0
  6
Continuous
 62
     7
370
    15
100
AcDbLine
 10
188.7185520297
 20
130.3303955294
 30
0.0
 11
188.3464552651
 21
129.1268271545
 31
0.0
  0
LINE
  5
225
330
1F
100
AcDbEntity
  8
0
  6
Continuous
 62
     7
370
    15
100
AcDbLine
 10
193.3077454593
 20
145.1744054871
 30
0.0
 11
197.931005415
 21
145.0294573252
 31
0.0
  0
LINE
  5
226
330
1F
100
AcDbEntity
  8
0
  6
Continuous
 62
     7
370
    15
100
AcDbLine
 10
197.931005415
 20
145.0294573252
 30
0.0
 11
198.3031021795
 21
146.2330257001
 31
0.0
  0
LINE
  5
227
330
1F
100
AcDbEntity
  8
0
  6
Continuous
 62
     7
370
    15
100
AcDbLine
 10
198.3031021795
 20
146.2330257001
 30
0.0
 11
193.6798422239
 21
146.3779738621
 31
0.0
  0
LINE
  5
228
330
1F
100
AcDbEntity
  8
0
  6
Continuous
 62
     7
370
    15
100
AcDbLine
 10
193.6798422239
 20
146.3779738621
 30
0.0
 11
193.3077454593
 21
145.1744054871
 31
0.0
  0
LINE
  5
229
330
1F
100
AcDbEntity
  8
0
  6
Continuous
 62
     7
370
    15
100
AcDbLine
 10
140.0856742774
 20
33.4211498065
 30
0.0
 11
144.7089342331
 21
33.2762016446
 31
0.0
  0
LINE
  5
22A
330
1F
100
AcDbEntity
  8
0
  6
Continuous
 62
     7
370
    15
100
AcDbLine
 10
144.7089342331
 20
33.2762016446
 30
0.0
 11
145.0810309976
 21
34.4797700195
 31
0.0
  0
LINE
  5
22B
330
1F
100
AcDbEntity
  8
0
  6
Continuous
 62
     7
370
    15
100
AcDbLine
 10
145.0810309976
 20
34.4797700195
 30
0.0
 11
140.457771042
 21
34.6247181815
 31
0.0
  0
LINE
  5
22C
330
1F
100
AcDbEntity
  8
0
  6
Continuous
 62
     7
370
    15
100
AcDbLine
 10
140.457771042
 20
34.6247181815
 30
0.0
 11
140.0856742774
 21
33.4211498065
 31
0.0
  0
LINE
  5
22D
330
1F
100
AcDbEntity
  8
0
  6
Continuous
 62
     7
370
    15
100
AcDbLine
 10
145.0469644716
 20
49.4687281391
 30
0.0
 11
149.6702244272
 21
49.3237799772
 31
0.0
  0
LINE
  5
22E
330
1F
100
AcDbEntity
  8
0
  6
Continuous
 62
     7
370
    15
100
AcDbLine
 10
149.6702244272
 20
49.3237799772
 30
0.0
 11
150.0423211918
 21
50.5273483521
 31
0.0
  0
LINE
  5
22F
330
1F
100
AcDbEntity
  8
0
  6
Continuous
 62
     7
370
    15
100
AcDbLine
 10
150.0423211918
 20
50.5273483521
 30
0.0
 11
145.4190612361
 21
50.6722965141
 31
0.0
  0
LINE
  5
230
330
1F
100
AcDbEntity
  8
0
  6
Continuous
 62
     7
370
    15
100
AcDbLine
 10
145.4190612361
 20
50.6722965141
 30
0.0
 11
145.0469644716
 21
49.4687281391
 31
0.0
  0
LINE
  5
231
330
1F
100
AcDbEntity
  8
0
  6
Continuous
 62
     7
370
    15
100
AcDbLine
 10
150.0082546658
 20
65.5163064718
 30
0.0
 11
154.6315146214
 21
65.3713583098
 31
0.0
  0
LINE
  5
232
330
1F
100
AcDbEntity
  8
0
  6
Continuous
 62
     7
370
    15
100
AcDbLine
 10
154.6315146214
 20
65.3713583098
 30
0.0
 11
155.003611386
 21
66.5749266848
 31
0.0
  0
LINE
  5
233
330
1F
100
AcDbEntity
  8
0
  6
Continuous
 62
     7
370
    15
100
AcDbLine
 10
155.003611386
 20
66.5749266848
 30
0.0
 11
150.3803514303
 21
66.7198748467
 31
0.0
  0
LINE
  5
234
330
1F
100
AcDbEntity
  8
0
  6
Continuous
 62
     7
370
    15
100
AcDbLine
 10
150.3803514303
 20
66.7198748467
 30
0.0
 11
150.0082546658
 21
65.5163064718
 31
0.0
  0
LINE
  5
235
330
1F
100
AcDbEntity
  8
0
  6
Continuous
 62
     7
370
    15
100
AcDbLine
 10
154.9695448599
 20
81.5638848044
 30
0.0
 11
159.5928048156
 21
81.4189366424
 31
0.0
  0
LINE
  5
236
330
1F
100
AcDbEntity
  8
0
  6
Continuous
 62
     7
370
    15
100
AcDbLine
 10
159.5928048156
 20
81.4189366424
 30
0.0
 11
159.9649015802
 21
82.6225050174
 31
0.0
  0
LINE
  5
237
330
1F
100
AcDbEntity
  8
0
  6
Continuous
 62
     7
370
    15
100
AcDbLine
 10
159.9649015802
 20
82.6225050174
 30
0.0
 11
155.3416416245
 21
82.7674531793
 31
0.0
  0
LINE
  5
238
330
1F
100
AcDbEntity
  8
0
  6
Continuous
 62
     7
370
    15
100
AcDbLine
 10
155.3416416245
 20
82.7674531793
 30
0.0
 11
154.9695448599
 21
81.5638848044
 31
0.0
  0
LINE
  5
239
330
1F
100
AcDbEntity
  8
0
  6
Continuous
 62
     7
370
    15
100
AcDbLine
 10
159.9308350541
 20
97.611463137
 30
0.0
 11
164.5540950098
 21
97.4665149751
 31
0.0
  0
LINE
  5
23A
330
1F
100
AcDbEntity
  8
0
  6
Continuous
 62
     7
370
    15
100
AcDbLine
 10
164.5540950098
 20
97.4665149751
 30
0.0
 11
164.9261917743
 21
98.67008335
 31
0.0
  0
LINE
  5
23B
330
1F
100
AcDbEntity
  8
0
  6
Continuous
 62
     7
370
    15
100
AcDbLine
 10
164.9261917743
 20
98.67008335
 30
0.0
 11
160.3029318187
 21
98.815031512
 31
0.0
  0
LINE
  5
23C
330
1F
100
AcDbEntity
  8
0
  6
Continuous
 62
     7
370
    15
100
AcDbLine
 10
160.3029318187
 20
98.815031512
 30
0.0
 11
159.9308350541
 21
97.611463137
 31
0.0
  0
LINE
  5
23D
330
1F
100
AcDbEntity
  8
0
  6
Continuous
 62
     7
370
    15
100
AcDbLine
 10
164.8921252483
 20
113.6590414696
 30
0.0
 11
169.515385204
 21
113.5140933077
 31
0.0
  0
LINE
  5
23E
330
1F
100
AcDbEntity
  8
0
  6
Continuous
 62
     7
370
    15
100
AcDbLine
 10
169.515385204
 20
113.5140933077
 30
0.0
 11
169.8874819685
 21
114.7176616826
 31
0.0
  0
LINE
  5
23F
330
1F
100
AcDbEntity
  8
0
  6
Continuous
 62
     7
370
    15
100
AcDbLine
 10
169.8874819685
 20
114.7176616826
 30
0.0
 11
165.2642220129
 21
114.8626098446
 31
0.0
  0
LINE
  5
240
330
1F
100
AcDbEntity
  8
0
  6
Continuous
 62
     7
370
    15
100
AcDbLine
 10
165.2642220129
 20
114.8626098446
 30
0.0
 11
164.8921252483
 21
113.6590414696
 31
0.0
  0
LINE
  5
241
330
1F
100
AcDbEntity
  8
0
  6
Continuous
 62
     7
370
    15
100
AcDbLine
 10
169.8534154425
 20
129.7066198023
 30
0.0
 11
174.4766753981
 21
129.5616716403
 31
0.0
  0
LINE
  5
242
330
1F
100
AcDbEntity
  8
0
  6
Continuous
 62
     7
370
    15
100
AcDbLine
 10
174.4766753981
 20
129.5616716403
 30
0.0
 11
174.8487721627
 21
130.7652400153
 31
0.0
  0
LINE
  5
243
330
1F
100
AcDbEntity
  8
0
  6
Continuous
 62
     7
370
    15
100
AcDbLine
 10
174.8487721627
 20
130.7652400153
 30
0.0
 11
170.225512207
 21
130.9101881772
 31
0.0
  0
LINE
  5
244
330
1F
100
AcDbEntity
  8
0
  6
Continuous
 62
     7
370
    15
100
AcDbLine
 10
170.225512207
 20
130.9101881772
 30
0.0
 11
169.8534154425
 21
129.7066198023
 31
0.0
  0
LINE
  5
245
330
1F
100
AcDbEntity
  8
0
  6
Continuous
 62
     7
370
    15
100
AcDbLine
 10
174.8147056367
 20
145.7541981349
 30
0.0
 11
179.4379655923
 21
145.6092499729
 31
0.0
  0
LINE
  5
246
330
1F
100
AcDbEntity
  8
0
  6
Continuous
 62
     7
370
    15
100
AcDbLine
 10
179.4379655923
 20
145.6092499729
 30
0.0
 11
179.8100623569
 21
146.8128183479
 31
0.0
  0
LINE
  5
247
330
1F
100
AcDbEntity
  8
0
  6
Continuous
 62
     7
370
    15
100
AcDbLine
 10
179.8100623569
 20
146.8128183479
 30
0.0
 11
175.1868024012
 21
146.9577665098
 31
0.0
  0
LINE
  5
248
330
1F
100
AcDbEntity
  8
0
  6
Continuous
 62
     7
370
    15
100
AcDbLine
 10
175.1868024012
 20
146.9577665098
 30
0.0
 11
174.8147056367
 21
145.7541981349
 31
0.0
  0
LINE
  5
249
330
1F
100
AcDbEntity
  8
0
  6
Continuous
 62
     7
370
    15
100
AcDbLine
 10
121.5926344547
 20
34.0009424543
 30
0.0
 11
126.2158944104
 21
33.8559942923
 31
0.0
  0
LINE
  5
24A
330
1F
100
AcDbEntity
  8
0
  6
Continuous
 62
     7
370
    15
100
AcDbLine
 10
126.2158944104
 20
33.8559942923
 30
0.0
 11
126.587991175
 21
35.0595626673
 31
0.0
  0
LINE
  5
24B
330
1F
100
AcDbEntity
  8
0
  6
Continuous
 62
     7
370
    15
100
AcDbLine
 10
126.587991175
 20
35.0595626673
 30
0.0
 11
121.9647312193
 21
35.2045108292
 31
0.0
  0
LINE
  5
24C
330
1F
100
AcDbEntity
  8
0
  6
Continuous
 62
     7
370
    15
100
AcDbLine
 10
121.9647312193
 20
35.2045108292
 30
0.0
 11
121.5926344547
 21
34.0009424543
 31
0.0
  0
LINE
  5
24D
330
1F
100
AcDbEntity
  8
0
  6
Continuous
 62
     7
370
    15
100
AcDbLine
 10
126.5539246489
 20
50.0485207869
 30
0.0
 11
131.1771846046
 21
49.903572625
 31
0.0
  0
LINE
  5
24E
330
1F
100
AcDbEntity
  8
0
  6
Continuous
 62
     7
370
    15
100
AcDbLine
 10
131.1771846046
 20
49.903572625
 30
0.0
 11
131.5492813692
 21
51.1071409999
 31
0.0
  0
LINE
  5
24F
330
1F
100
AcDbEntity
  8
0
  6
Continuous
 62
     7
370
    15
100
AcDbLine
 10
131.5492813692
 20
51.1071409999
 30
0.0
 11
126.9260214135
 21
51.2520891619
 31
0.0
  0
LINE
  5
250
330
1F
100
AcDbEntity
  8
0
  6
Continuous
 62
     7
370
    15
100
AcDbLine
 10
126.9260214135
 20
51.2520891619
 30
0.0
 11
126.5539246489
 21
50.0485207869
 31
0.0
  0
LINE
  5
251
330
1F
100
AcDbEntity
  8
0
  6
Continuous
 62
     7
370
    15
100
AcDbLine
 10
131.5152148431
 20
66.0960991195
 30
0.0
 11
136.1384747988
 21
65.9511509576
 31
0.0
  0
LINE
  5
252
330
1F
100
AcDbEntity
  8
0
  6
Continuous
 62
     7
370
    15
100
AcDbLine
 10
136.1384747988
 20
65.9511509576
 30
0.0
 11
136.5105715633
 21
67.1547193325
 31
0.0
  0
LINE
  5
253
330
1F
100
AcDbEntity
  8
0
  6
Continuous
 62
     7
370
    15
100
AcDbLine
 10
136.5105715633
 20
67.1547193325
 30
0.0
 11
131.8873116077
 21
67.2996674945
 31
0.0
  0
LINE
  5
254
330
1F
100
AcDbEntity
  8
0
  6
Continuous
 62
     7
370
    15
100
AcDbLine
 10
131.8873116077
 20
67.2996674945
 30
0.0
 11
131.5152148431
 21
66.0960991195
 31
0.0
  0
LINE
  5
255
330
1F
100
AcDbEntity
  8
0
  6
Continuous
 62
     7
370
    15
100
AcDbLine
 10
136.4765050373
 20
82.1436774522
 30
0.0
 11
141.099764993
 21
81.9987292902
 31
0.0
  0
LINE
  5
256
330
1F
100
AcDbEntity
  8
0
  6
Continuous
 62
     7
370
    15
100
AcDbLine
 10
141.099764993
 20
81.9987292902
 30
0.0
 11
141.4718617575
 21
83.2022976652
 31
0.0
  0
LINE
  5
257
330
1F
100
AcDbEntity
  8
0
  6
Continuous
 62
     7
370
    15
100
AcDbLine
 10
141.4718617575
 20
83.2022976652
 30
0.0
 11
136.8486018019
 21
83.3472458271
 31
0.0
  0
LINE
  5
258
330
1F
100
AcDbEntity
  8
0
  6
Continuous
 62
     7
370
    15
100
AcDbLine
 10
136.8486018019
 20
83.3472458271
 30
0.0
 11
136.4765050373
 21
82.1436774522
 31
0.0
  0
LINE
  5
259
330
1F
100
AcDbEntity
  8
0
  6
Continuous
 62
     7
370
    15
100
AcDbLine
 10
141.4377952315
 20
98.1912557848
 30
0.0
 11
146.0610551871
 21
98.0463076228
 31
0.0
  0
LINE
  5
25A
330
1F
100
AcDbEntity
  8
0
  6
Continuous
 62
     7
370
    15
100
AcDbLine
 10
146.0610551871
 20
98.0463076228
 30
0.0
 11
146.4331519517
 21
99.2498759978
 31
0.0
  0
LINE
  5
25B
330
1F
100
AcDbEntity
  8
0
  6
Continuous
 62
     7
370
    15
100
AcDbLine
 10
146.4331519517
 20
99.2498759978
 30
0.0
 11
141.809891996
 21
99.3948241597
 31
0.0
  0
LINE
  5
25C
330
1F
100
AcDbEntity
  8
0
  6
Continuous
 62
     7
370
    15
100
AcDbLine
 10
141.809891996
 20
99.3948241597
 30
0.0
 11
141.4377952315
 21
98.1912557848
 31
0.0
  0
LINE
  5
25D
330
1F
100
AcDbEntity
  8
0
  6
Continuous
 62
     7
370
    15
100
AcDbLine
 10
146.3990854256
 20
114.2388341174
 30
0.0
 11
151.0223453813
 21
114.0938859555
 31
0.0
  0
LINE
  5
25E
330
1F
100
AcDbEntity
  8
0
  6
Continuous
 62
     7
370
    15
100
AcDbLine
 10
151.0223453813
 20
114.0938859555
 30
0.0
 11
151.3944421459
 21
115.2974543304
 31
0.0
  0
LINE
  5
25F
330
1F
100
AcDbEntity
  8
0
  6
Continuous
 62
     7
370
    15
100
AcDbLine
 10
151.3944421459
 20
115.2974543304
 30
0.0
 11
146.7711821902
 21
115.4424024924
 31
0.0
  0
LINE
  5
260
330
1F
100
AcDbEntity
  8
0
  6
Continuous
 62
     7
370
    15
100
AcDbLine
 10
146.7711821902
 20
115.4424024924
 30
0.0
 11
146.3990854256
 21
114.2388341174
 31
0.0
  0
LINE
  5
261
330
1F
100
AcDbEntity
  8
0
  6
Continuous
 62
     7
370
    15
100
AcDbLine
 10
151.3603756198
 20
130.28641245
 30
0.0
 11
155.9836355755
 21
130.1414642881
 31
0.0
  0
LINE
  5
262
330
1F
100
AcDbEntity
  8
0
  6
Continuous
 62
     7
370
    15
100
AcDbLine
 10
155.9836355755
 20
130.1414642881
 30
0.0
 11
156.3557323401
 21
131.345032663
 31
0.0
  0
LINE
  5
263
330
1F
100
AcDbEntity
  8
0
  6
Continuous
 62
     7
370
    15
100
AcDbLine
 10
156.3557323401
 20
131.345032663
 30
0.0
 11
151.7324723844
 21
131.489980825
 31
0.0
  0
LINE
  5
264
330
1F
100
AcDbEntity
  8
0
  6
Continuous
 62
     7
370
    15
100
AcDbLine
 10
151.7324723844
 20
131.489980825
 30
0.0
 11
151.3603756198
 21
130.28641245
 31
0.0
  0
LINE
  5
265
330
1F
100
AcDbEntity
  8
0
  6
Continuous
 62
     7
370
    15
100
AcDbLine
 10
156.321665814
 20
146.3339907827
 30
0.0
 11
160.9449257697
 21
146.1890426207
 31
0.0
  0
LINE
  5
266
330
1F
100
AcDbEntity
  8
0
  6
Continuous
 62
     7
370
    15
100
AcDbLine
 10
160.9449257697
 20
146.1890426207
 30
0.0
 11
161.3170225342
 21
147.3926109957
 31
0.0
  0
LINE
  5
267
330
1F
100
AcDbEntity
  8
0
  6
Continuous
 62
     7
370
    15
100
AcDbLine
 10
161.3170225342
 20
147.3926109957
 30
0.0
 11
156.6937625786
 21
147.5375591576
 31
0.0
  0
LINE
  5
268
330
1F
100
AcDbEntity
  8
0
  6
Continuous
 62
     7
370
    15
100
AcDbLine
 10
156.6937625786
 20
147.5375591576
 30
0.0
 11
156.321665814
 21
146.3339907827
 31
0.0
  0
LINE
  5
269
330
1F
100
AcDbEntity
  8
0
  6
Continuous
 62
     7
370
    15
100
AcDbLine
 10
103.0995946321
 20
34.5807351021
 30
0.0
 11
107.7228545878
 21
34.4357869401
 31
0.0
  0
LINE
  5
26A
330
1F
100
AcDbEntity
  8
0
  6
Continuous
 62
     7
370
    15
100
AcDbLine
 10
107.7228545878
 20
34.4357869401
 30
0.0
 11
108.0949513523
 21
35.6393553151
 31
0.0
  0
LINE
  5
26B
330
1F
100
AcDbEntity
  8
0
  6
Continuous
 62
     7
370
    15
100
AcDbLine
 10
108.0949513523
 20
35.6393553151
 30
0.0
 11
103.4716913967
 21
35.784303477
 31
0.0
  0
LINE
  5
26C
330
1F
100
AcDbEntity
  8
0
  6
Continuous
 62
     7
370
    15
100
AcDbLine
 10
103.4716913967
 20
35.784303477
 30
0.0
 11
103.0995946321
 21
34.5807351021
 31
0.0
  0
LINE
  5
26D
330
1F
100
AcDbEntity
  8
0
  6
Continuous
 62
     7
370
    15
100
AcDbLine
 10
108.0608848263
 20
50.6283134347
 30
0.0
 11
112.6841447819
 21
50.4833652727
 31
0.0
  0
LINE
  5
26E
330
1F
100
AcDbEntity
  8
0
  6
Continuous
 62
     7
370
    15
100
AcDbLine
 10
112.6841447819
 20
50.4833652727
 30
0.0
 11
113.0562415465
 21
51.6869336477
 31
0.0
  0
LINE
  5
26F
330
1F
100
AcDbEntity
  8
0
  6
Continuous
 62
     7
370
    15
100
AcDbLine
 10
113.0562415465
 20
51.6869336477
 30
0.0
 11
108.4329815908
 21
51.8318818096
 31
0.0
  0
LINE
  5
270
330
1F
100
AcDbEntity
  8
0
  6
Continuous
 62
     7
370
    15
100
AcDbLine
 10
108.4329815908
 20
51.8318818096
 30
0.0
 11
108.0608848263
 21
50.6283134347
 31
0.0
  0
LINE
  5
271
330
1F
100
AcDbEntity
  8
0
  6
Continuous
 62
     7
370
    15
100
AcDbLine
 10
113.0221750205
 20
66.6758917673
 30
0.0
 11
117.6454349761
 21
66.5309436054
 31
0.0
  0
LINE
  5
272
330
1F
100
AcDbEntity
  8
0
  6
Continuous
 62
     7
370
    15
100
AcDbLine
 10
117.6454349761
 20
66.5309436054
 30
0.0
 11
118.0175317407
 21
67.7345119803
 31
0.0
  0
LINE
  5
273
330
1F
100
AcDbEntity
  8
0
  6
Continuous
 62
     7
370
    15
100
AcDbLine
 10
118.0175317407
 20
67.7345119803
 30
0.0
 11
113.394271785
 21
67.8794601423
 31
0.0
  0
LINE
  5
274
330
1F
100
AcDbEntity
  8
0
  6
Continuous
 62
     7
370
    15
100
AcDbLine
 10
113.394271785
 20
67.8794601423
 30
0.0
 11
113.0221750205
 21
66.6758917673
 31
0.0
  0
LINE
  5
275
330
1F
100
AcDbEntity
  8
0
  6
Continuous
 62
     7
370
    15
100
AcDbLine
 10
117.9834652146
 20
82.7234700999
 30
0.0
 11
122.6067251703
 21
82.578521938
 31
0.0
  0
LINE
  5
276
330
1F
100
AcDbEntity
  8
0
  6
Continuous
 62
     7
370
    15
100
AcDbLine
 10
122.6067251703
 20
82.578521938
 30
0.0
 11
122.9788219349
 21
83.7820903129
 31
0.0
  0
LINE
  5
277
330
1F
100
AcDbEntity
  8
0
  6
Continuous
 62
     7
370
    15
100
AcDbLine
 10
122.9788219349
 20
83.7820903129
 30
0.0
 11
118.3555619792
 21
83.9270384749
 31
0.0
  0
LINE
  5
278
330
1F
100
AcDbEntity
  8
0
  6
Continuous
 62
     7
370
    15
100
AcDbLine
 10
118.3555619792
 20
83.9270384749
 30
0.0
 11
117.9834652146
 21
82.7234700999
 31
0.0
  0
LINE
  5
279
330
1F
100
AcDbEntity
  8
0
  6
Continuous
 62
     7
370
    15
100
AcDbLine
 10
122.9447554088
 20
98.7710484326
 30
0.0
 11
127.5680153645
 21
98.6261002706
 31
0.0
  0
LINE
  5
27A
330
1F
100
AcDbEntity
  8
0
  6
Continuous
 62
     7
370
    15
100
AcDbLine
 10
127.5680153645
 20
98.6261002706
 30
0.0
 11
127.940112129
 21
99.8296686456
 31
0.0
  0
LINE
  5
27B
330
1F
100
AcDbEntity
  8
0
  6
Continuous
 62
     7
370
    15
100
AcDbLine
 10
127.940112129
 20
99.8296686456
 30
0.0
 11
123.3168521734
 21
99.9746168075
 31
0.0
  0
LINE
  5
27C
330
1F
100
AcDbEntity
  8
0
  6
Continuous
 62
     7
370
    15
100
AcDbLine
 10
123.3168521734
 20
99.9746168075
 30
0.0
 11
122.9447554088
 21
98.7710484326
 31
0.0
  0
LINE
  5
27D
330
1F
100
AcDbEntity
  8
0
  6
Continuous
 62
     7
370
    15
100
AcDbLine
 10
127.906045603
 20
114.8186267652
 30
0.0
 11
132.5293055587
 21
114.6736786032
 31
0.0
  0
LINE
  5
27E
330
1F
100
AcDbEntity
  8
0
  6
Continuous
 62
     7
370
    15
100
AcDbLine
 10
132.5293055587
 20
114.6736786032
 30
0.0
 11
132.9014023232
 21
115.8772469782
 31
0.0
  0
LINE
  5
27F
330
1F
100
AcDbEntity
  8
0
  6
Continuous
 62
     7
370
    15
100
AcDbLine
 10
132.9014023232
 20
115.8772469782
 30
0.0
 11
128.2781423676
 21
116.0221951401
 31
0.0
  0
LINE
  5
280
330
1F
100
AcDbEntity
  8
0
  6
Continuous
 62
     7
370
    15
100
AcDbLine
 10
128.2781423676
 20
116.0221951401
 30
0.0
 11
127.906045603
 21
114.8186267652
 31
0.0
  0
LINE
  5
281
330
1F
100
AcDbEntity
  8
0
  6
Continuous
 62
     7
370
    15
100
AcDbLine
 10
132.8673357972
 20
130.8662050978
 30
0.0
 11
137.4905957528
 21
130.7212569359
 31
0.0
  0
LINE
  5
282
330
1F
100
AcDbEntity
  8
0
  6
Continuous
 62
     7
370
    15
100
AcDbLine
 10
137.4905957528
 20
130.7212569359
 30
0.0
 11
137.8626925174
 21
131.9248253108
 31
0.0
  0
LINE
  5
283
330
1F
100
AcDbEntity
  8
0
  6
Continuous
 62
     7
370
    15
100
AcDbLine
 10
137.8626925174
 20
131.9248253108
 30
0.0
 11
133.2394325617
 21
132.0697734728
 31
0.0
  0
LINE
  5
284
330
1F
100
AcDbEntity
  8
0
  6
Continuous
 62
     7
370
    15
100
AcDbLine
 10
133.2394325617
 20
132.0697734728
 30
0.0
 11
132.8673357972
 21
130.8662050978
 31
0.0
  0
LINE
  5
285
330
1F
100
AcDbEntity
  8
0
  6
Continuous
 62
     7
370
    15
100
AcDbLine
 10
137.8286259914
 20
146.9137834304
 30
0.0
 11
142.451885947
 21
146.7688352685
 31
0.0
  0
LINE
  5
286
330
1F
100
AcDbEntity
  8
0
  6
Continuous
 62
     7
370
    15
100
AcDbLine
 10
142.451885947
 20
146.7688352685
 30
0.0
 11
142.8239827116
 21
147.9724036434
 31
0.0
  0
LINE
  5
287
330
1F
100
AcDbEntity
  8
0
  6
Continuous
 62
     7
370
    15
100
AcDbLine
 10
142.8239827116
 20
147.9724036434
 30
0.0
 11
138.2007227559
 21
148.1173518054
 31
0.0
  0
LINE
  5
288
330
1F
100
AcDbEntity
  8
0
  6
Continuous
 62
     7
370
    15
100
AcDbLine
 10
138.2007227559
 20
148.1173518054
 30
0.0
 11
137.8286259914
 21
146.9137834304
 31
0.0
  0
LINE
  5
289
330
1F
100
AcDbEntity
  8
0
  6
Continuous
 62
     7
370
    15
100
AcDbLine
 10
84.6065548094
 20
35.1605277498
 30
0.0
 11
89.2298147651
 21
35.0155795879
 31
0.0
  0
LINE
  5
28A
330
1F
100
AcDbEntity
  8
0
  6
Continuous
 62
     7
370
    15
100
AcDbLine
 10
89.2298147651
 20
35.0155795879
 30
0.0
 11
89.6019115297
 21
36.2191479628
 31
0.0
  0
LINE
  5
28B
330
1F
100
AcDbEntity
  8
0
  6
Continuous
 62
     7
370
    15
100
AcDbLine
 10
89.6019115297
 20
36.2191479628
 30
0.0
 11
84.978651574
 21
36.3640961248
 31
0.0
  0
LINE
  5
28C
330
1F
100
AcDbEntity
  8
0
  6
Continuous
 62
     7
370
    15
100
AcDbLine
 10
84.978651574
 20
36.3640961248
 30
0.0
 11
84.6065548094
 21
35.1605277498
 31
0.0
  0
LINE
  5
28D
330
1F
100
AcDbEntity
  8
0
  6
Continuous
 62
     7
370
    15
100
AcDbLine
 10
89.5678450036
 20
51.2081060824
 30
0.0
 11
94.1911049593
 21
51.0631579205
 31
0.0
  0
LINE
  5
28E
330
1F
100
AcDbEntity
  8
0
  6
Continuous
 62
     7
370
    15
100
AcDbLine
 10
94.1911049593
 20
51.0631579205
 30
0.0
 11
94.5632017239
 21
52.2667262955
 31
0.0
  0
LINE
  5
28F
330
1F
100
AcDbEntity
  8
0
  6
Continuous
 62
     7
370
    15
100
AcDbLine
 10
94.5632017239
 20
52.2667262955
 30
0.0
 11
89.9399417682
 21
52.4116744574
 31
0.0
  0
LINE
  5
290
330
1F
100
AcDbEntity
  8
0
  6
Continuous
 62
     7
370
    15
100
AcDbLine
 10
89.9399417682
 20
52.4116744574
 30
0.0
 11
89.5678450036
 21
51.2081060824
 31
0.0
  0
LINE
  5
291
330
1F
100
AcDbEntity
  8
0
  6
Continuous
 62
     7
370
    15
100
AcDbLine
 10
94.5291351978
 20
67.2556844151
 30
0.0
 11
99.1523951535
 21
67.1107362531
 31
0.0
  0
LINE
  5
292
330
1F
100
AcDbEntity
  8
0
  6
Continuous
 62
     7
370
    15
100
AcDbLine
 10
99.1523951535
 20
67.1107362531
 30
0.0
 11
99.524491918
 21
68.3143046281
 31
0.0
  0
LINE
  5
293
330
1F
100
AcDbEntity
  8
0
  6
Continuous
 62
     7
370
    15
100
AcDbLine
 10
99.524491918
 20
68.3143046281
 30
0.0
 11
94.9012319624
 21
68.45925279
 31
0.0
  0
LINE
  5
294
330
1F
100
AcDbEntity
  8
0
  6
Continuous
 62
     7
370
    15
100
AcDbLine
 10
94.9012319624
 20
68.45925279
 30
0.0
 11
94.5291351978
 21
67.2556844151
 31
0.0
  0
LINE
  5
295
330
1F
100
AcDbEntity
  8
0
  6
Continuous
 62
     7
370
    15
100
AcDbLine
 10
99.490425392
 20
83.3032627477
 30
0.0
 11
104.1136853476
 21
83.1583145858
 31
0.0
  0
LINE
  5
296
330
1F
100
AcDbEntity
  8
0
  6
Continuous
 62
     7
370
    15
100
AcDbLine
 10
104.1136853476
 20
83.1583145858
 30
0.0
 11
104.4857821122
 21
84.3618829607
 31
0.0
  0
LINE
  5
297
330
1F
100
AcDbEntity
  8
0
  6
Continuous
 62
     7
370
    15
100
AcDbLine
 10
104.4857821122
 20
84.3618829607
 30
0.0
 11
99.8625221565
 21
84.5068311226
 31
0.0
  0
LINE
  5
298
330
1F
100
AcDbEntity
  8
0
  6
Continuous
 62
     7
370
    15
100
AcDbLine
 10
99.8625221565
 20
84.5068311226
 30
0.0
 11
99.490425392
 21
83.3032627477
 31
0.0
  0
LINE
  5
299
330
1F
100
AcDbEntity
  8
0
  6
Continuous
 62
     7
370
    15
100
AcDbLine
 10
104.4517155862
 20
99.3508410803
 30
0.0
 11
109.0749755418
 21
99.2058929184
 31
0.0
  0
LINE
  5
29A
330
1F
100
AcDbEntity
  8
0
  6
Continuous
 62
     7
370
    15
100
AcDbLine
 10
109.0749755418
 20
99.2058929184
 30
0.0
 11
109.4470723064
 21
100.4094612933
 31
0.0
  0
LINE
  5
29B
330
1F
100
AcDbEntity
  8
0
  6
Continuous
 62
     7
370
    15
100
AcDbLine
 10
109.4470723064
 20
100.4094612933
 30
0.0
 11
104.8238123507
 21
100.5544094553
 31
0.0
  0
LINE
  5
29C
330
1F
100
AcDbEntity
  8
0
  6
Continuous
 62
     7
370
    15
100
AcDbLine
 10
104.8238123507
 20
100.5544094553
 30
0.0
 11
104.4517155862
 21
99.3508410803
 31
0.0
  0
LINE
  5
29D
330
1F
100
AcDbEntity
  8
0
  6
Continuous
 62
     7
370
    15
100
AcDbLine
 10
109.4130057803
 20
115.398419413
 30
0.0
 11
114.036265736
 21
115.253471251
 31
0.0
  0
LINE
  5
29E
330
1F
100
AcDbEntity
  8
0
  6
Continuous
 62
     7
370
    15
100
AcDbLine
 10
114.036265736
 20
115.253471251
 30
0.0
 11
114.4083625006
 21
116.457039626
 31
0.0
  0
LINE
  5
29F
330
1F
100
AcDbEntity
  8
0
  6
Continuous
 62
     7
370
    15
100
AcDbLine
 10
114.4083625006
 20
116.457039626
 30
0.0
 11
109.7851025449
 21
116.6019877879
 31
0.0
  0
LINE
  5
2A0
330
1F
100
AcDbEntity
  8
0
  6
Continuous
 62
     7
370
    15
100
AcDbLine
 10
109.7851025449
 20
116.6019877879
 30
0.0
 11
109.4130057803
 21
115.398419413
 31
0.0
  0
LINE
  5
2A1
330
1F
100
AcDbEntity
  8
0
  6
Continuous
 62
     7
370
    15
100
AcDbLine
 10
114.3742959745
 20
131.4459977456
 30
0.0
 11
118.9975559302
 21
131.3010495836
 31
0.0
  0
LINE
  5
2A2
330
1F
100
AcDbEntity
  8
0
  6
Continuous
 62
     7
370
    15
100
AcDbLine
 10
118.9975559302
 20
131.3010495836
 30
0.0
 11
119.3696526948
 21
132.5046179586
 31
0.0
  0
LINE
  5
2A3
330
1F
100
AcDbEntity
  8
0
  6
Continuous
 62
     7
370
    15
100
AcDbLine
 10
119.3696526948
 20
132.5046179586
 30
0.0
 11
114.7463927391
 21
132.6495661205
 31
0.0
  0
LINE
  5
2A4
330
1F
100
AcDbEntity
  8
0
  6
Continuous
 62
     7
370
    15
100
AcDbLine
 10
114.7463927391
 20
132.6495661205
 30
0.0
 11
114.3742959745
 21
131.4459977456
 31
0.0
  0
LINE
  5
2A5
330
1F
100
AcDbEntity
  8
0
  6
Continuous
 62
     7
370
    15
100
AcDbLine
 10
119.3355861687
 20
147.4935760782
 30
0.0
 11
123.9588461244
 21
147.3486279163
 31
0.0
  0
LINE
  5
2A6
330
1F
100
AcDbEntity
  8
0
  6
Continuous
 62
     7
370
    15
100
AcDbLine
 10
123.9588461244
 20
147.3486279163
 30
0.0
 11
124.3309428889
 21
148.5521962912
 31
0.0
  0
LINE
  5
2A7
330
1F
100
AcDbEntity
  8
0
  6
Continuous
 62
     7
370
    15
100
AcDbLine
 10
124.3309428889
 20
148.5521962912
 30
0.0
 11
119.7076829333
 21
148.6971444532
 31
0.0
  0
LINE
  5
2A8
330
1F
100
AcDbEntity
  8
0
  6
Continuous
 62
     7
370
    15
100
AcDbLine
 10
119.7076829333
 20
148.6971444532
 30
0.0
 11
119.3355861687
 21
147.4935760782
 31
0.0
  0
LINE
  5
2A9
330
1F
100
AcDbEntity
  8
0
  6
Continuous
 62
     7
370
    15
100
AcDbLine
 10
66.1135149868
 20
35.7403203976
 30
0.0
 11
70.7367749425
 21
35.5953722357
 31
0.0
  0
LINE
  5
2AA
330
1F
100
AcDbEntity
  8
0
  6
Continuous
 62
     7
370
    15
100
AcDbLine
 10
70.7367749425
 20
35.5953722357
 30
0.0
 11
71.108871707
 21
36.7989406106
 31
0.0
  0
LINE
  5
2AB
330
1F
100
AcDbEntity
  8
0
  6
Continuous
 62
     7
370
    15
100
AcDbLine
 10
71.108871707
 20
36.7989406106
 30
0.0
 11
66.4856117514
 21
36.9438887725
 31
0.0
  0
LINE
  5
2AC
330
1F
100
AcDbEntity
  8
0
  6
Continuous
 62
     7
370
    15
100
AcDbLine
 10
66.4856117514
 20
36.9438887725
 30
0.0
 11
66.1135149868
 21
35.7403203976
 31
0.0
  0
LINE
  5
2AD
330
1F
100
AcDbEntity
  8
0
  6
Continuous
 62
     7
370
    15
100
AcDbLine
 10
71.074805181
 20
51.7878987302
 30
0.0
 11
75.6980651366
 21
51.6429505683
 31
0.0
  0
LINE
  5
2AE
330
1F
100
AcDbEntity
  8
0
  6
Continuous
 62
     7
370
    15
100
AcDbLine
 10
75.6980651366
 20
51.6429505683
 30
0.0
 11
76.0701619012
 21
52.8465189432
 31
0.0
  0
LINE
  5
2AF
330
1F
100
AcDbEntity
  8
0
  6
Continuous
 62
     7
370
    15
100
AcDbLine
 10
76.0701619012
 20
52.8465189432
 30
0.0
 11
71.4469019455
 21
52.9914671052
 31
0.0
  0
LINE
  5
2B0
330
1F
100
AcDbEntity
  8
0
  6
Continuous
 62
     7
370
    15
100
AcDbLine
 10
71.4469019455
 20
52.9914671052
 30
0.0
 11
71.074805181
 21
51.7878987302
 31
0.0
  0
LINE
  5
2B1
330
1F
100
AcDbEntity
  8
0
  6
Continuous
 62
     7
370
    15
100
AcDbLine
 10
76.0360953752
 20
67.8354770628
 30
0.0
 11
80.6593553308
 21
67.6905289009
 31
0.0
  0
LINE
  5
2B2
330
1F
100
AcDbEntity
  8
0
  6
Continuous
 62
     7
370
    15
100
AcDbLine
 10
80.6593553308
 20
67.6905289009
 30
0.0
 11
81.0314520954
 21
68.8940972759
 31
0.0
  0
LINE
  5
2B3
330
1F
100
AcDbEntity
  8
0
  6
Continuous
 62
     7
370
    15
100
AcDbLine
 10
81.0314520954
 20
68.8940972759
 30
0.0
 11
76.4081921397
 21
69.0390454378
 31
0.0
  0
LINE
  5
2B4
330
1F
100
AcDbEntity
  8
0
  6
Continuous
 62
     7
370
    15
100
AcDbLine
 10
76.4081921397
 20
69.0390454378
 30
0.0
 11
76.0360953752
 21
67.8354770628
 31
0.0
  0
LINE
  5
2B5
330
1F
100
AcDbEntity
  8
0
  6
Continuous
 62
     7
370
    15
100
AcDbLine
 10
80.9973855693
 20
83.8830553955
 30
0.0
 11
85.620645525
 21
83.7381072335
 31
0.0
  0
LINE
  5
2B6
330
1F
100
AcDbEntity
  8
0
  6
Continuous
 62
     7
370
    15
100
AcDbLine
 10
85.620645525
 20
83.7381072335
 30
0.0
 11
85.9927422896
 21
84.9416756085
 31
0.0
  0
LINE
  5
2B7
330
1F
100
AcDbEntity
  8
0
  6
Continuous
 62
     7
370
    15
100
AcDbLine
 10
85.9927422896
 20
84.9416756085
 30
0.0
 11
81.3694823339
 21
85.0866237704
 31
0.0
  0
LINE
  5
2B8
330
1F
100
AcDbEntity
  8
0
  6
Continuous
 62
     7
370
    15
100
AcDbLine
 10
81.3694823339
 20
85.0866237704
 30
0.0
 11
80.9973855693
 21
83.8830553955
 31
0.0
  0
LINE
  5
2B9
330
1F
100
AcDbEntity
  8
0
  6
Continuous
 62
     7
370
    15
100
AcDbLine
 10
85.9586757635
 20
99.9306337281
 30
0.0
 11
90.5819357192
 21
99.7856855662
 31
0.0
  0
LINE
  5
2BA
330
1F
100
AcDbEntity
  8
0
  6
Continuous
 62
     7
370
    15
100
AcDbLine
 10
90.5819357192
 20
99.7856855662
 30
0.0
 11
90.9540324837
 21
100.9892539411
 31
0.0
  0
LINE
  5
2BB
330
1F
100
AcDbEntity
  8
0
  6
Continuous
 62
     7
370
    15
100
AcDbLine
 10
90.9540324837
 20
100.9892539411
 30
0.0
 11
86.3307725281
 21
101.134202103
 31
0.0
  0
LINE
  5
2BC
330
1F
100
AcDbEntity
  8
0
  6
Continuous
 62
     7
370
    15
100
AcDbLine
 10
86.3307725281
 20
101.134202103
 30
0.0
 11
85.9586757635
 21
99.9306337281
 31
0.0
  0
LINE
  5
2BD
330
1F
100
AcDbEntity
  8
0
  6
Continuous
 62
     7
370
    15
100
AcDbLine
 10
90.9199659577
 20
115.9782120607
 30
0.0
 11
95.5432259134
 21
115.8332638988
 31
0.0
  0
LINE
  5
2BE
330
1F
100
AcDbEntity
  8
0
  6
Continuous
 62
     7
370
    15
100
AcDbLine
 10
95.5432259134
 20
115.8332638988
 30
0.0
 11
95.9153226779
 21
117.0368322737
 31
0.0
  0
LINE
  5
2BF
330
1F
100
AcDbEntity
  8
0
  6
Continuous
 62
     7
370
    15
100
AcDbLine
 10
95.9153226779
 20
117.0368322737
 30
0.0
 11
91.2920627223
 21
117.1817804357
 31
0.0
  0
LINE
  5
2C0
330
1F
100
AcDbEntity
  8
0
  6
Continuous
 62
     7
370
    15
100
AcDbLine
 10
91.2920627223
 20
117.1817804357
 30
0.0
 11
90.9199659577
 21
115.9782120607
 31
0.0
  0
LINE
  5
2C1
330
1F
100
AcDbEntity
  8
0
  6
Continuous
 62
     7
370
    15
100
AcDbLine
 10
95.8812561519
 20
132.0257903934
 30
0.0
 11
100.5045161075
 21
131.8808422314
 31
0.0
  0
LINE
  5
2C2
330
1F
100
AcDbEntity
  8
0
  6
Continuous
 62
     7
370
    15
100
AcDbLine
 10
100.5045161075
 20
131.8808422314
 30
0.0
 11
100.8766128721
 21
133.0844106064
 31
0.0
  0
LINE
  5
2C3
330
1F
100
AcDbEntity
  8
0
  6
Continuous
 62
     7
370
    15
100
AcDbLine
 10
100.8766128721
 20
133.0844106064
 30
0.0
 11
96.2533529164
 21
133.2293587683
 31
0.0
  0
LINE
  5
2C4
330
1F
100
AcDbEntity
  8
0
  6
Continuous
 62
     7
370
    15
100
AcDbLine
 10
96.2533529164
 20
133.2293587683
 30
0.0
 11
95.8812561519
 21
132.0257903934
 31
0.0
  0
LINE
  5
2C5
330
1F
100
AcDbEntity
  8
0
  6
Continuous
 62
     7
370
    15
100
AcDbLine
 10
100.8425463461
 20
148.073368726
 30
0.0
 11
105.4658063017
 21
147.928420564
 31
0.0
  0
LINE
  5
2C6
330
1F
100
AcDbEntity
  8
0
  6
Continuous
 62
     7
370
    15
100
AcDbLine
 10
105.4658063017
 20
147.928420564
 30
0.0
 11
105.8379030663
 21
149.131988939
 31
0.0
  0
LINE
  5
2C7
330
1F
100
AcDbEntity
  8
0
  6
Continuous
 62
     7
370
    15
100
AcDbLine
 10
105.8379030663
 20
149.131988939
 30
0.0
 11
101.2146431106
 21
149.2769371009
 31
0.0
  0
LINE
  5
2C8
330
1F
100
AcDbEntity
  8
0
  6
Continuous
 62
     7
370
    15
100
AcDbLine
 10
101.2146431106
 20
149.2769371009
 30
0.0
 11
100.8425463461
 21
148.073368726
 31
0.0
  0
LINE
  5
2C9
330
1F
100
AcDbEntity
  8
0
  6
Continuous
 62
     7
370
    15
100
AcDbLine
 10
47.6204751641
 20
36.3201130454
 30
0.0
 11
52.2437351198
 21
36.1751648834
 31
0.0
  0
LINE
  5
2CA
330
1F
100
AcDbEntity
  8
0
  6
Continuous
 62
     7
370
    15
100
AcDbLine
 10
52.2437351198
 20
36.1751648834
 30
0.0
 11
52.6158318844
 21
37.3787332584
 31
0.0
  0
LINE
  5
2CB
330
1F
100
AcDbEntity
  8
0
  6
Continuous
 62
     7
370
    15
100
AcDbLine
 10
52.6158318844
 20
37.3787332584
 30
0.0
 11
47.9925719287
 21
37.5236814203
 31
0.0
  0
LINE
  5
2CC
330
1F
100
AcDbEntity
  8
0
  6
Continuous
 62
     7
370
    15
100
AcDbLine
 10
47.9925719287
 20
37.5236814203
 30
0.0
 11
47.6204751641
 21
36.3201130454
 31
0.0
  0
LINE
  5
2CD
330
1F
100
AcDbEntity
  8
0
  6
Continuous
 62
     7
370
    15
100
AcDbLine
 10
52.5817653583
 20
52.367691378
 30
0.0
 11
57.205025314
 21
52.222743216
 31
0.0
  0
LINE
  5
2CE
330
1F
100
AcDbEntity
  8
0
  6
Continuous
 62
     7
370
    15
100
AcDbLine
 10
57.205025314
 20
52.222743216
 30
0.0
 11
57.5771220785
 21
53.426311591
 31
0.0
  0
LINE
  5
2CF
330
1F
100
AcDbEntity
  8
0
  6
Continuous
 62
     7
370
    15
100
AcDbLine
 10
57.5771220785
 20
53.426311591
 30
0.0
 11
52.9538621229
 21
53.5712597529
 31
0.0
  0
LINE
  5
2D0
330
1F
100
AcDbEntity
  8
0
  6
Continuous
 62
     7
370
    15
100
AcDbLine
 10
52.9538621229
 20
53.5712597529
 30
0.0
 11
52.5817653583
 21
52.367691378
 31
0.0
  0
LINE
  5
2D1
330
1F
100
AcDbEntity
  8
0
  6
Continuous
 62
     7
370
    15
100
AcDbLine
 10
57.5430555525
 20
68.4152697106
 30
0.0
 11
62.1663155082
 21
68.2703215487
 31
0.0
  0
LINE
  5
2D2
330
1F
100
AcDbEntity
  8
0
  6
Continuous
 62
     7
370
    15
100
AcDbLine
 10
62.1663155082
 20
68.2703215487
 30
0.0
 11
62.5384122727
 21
69.4738899236
 31
0.0
  0
LINE
  5
2D3
330
1F
100
AcDbEntity
  8
0
  6
Continuous
 62
     7
370
    15
100
AcDbLine
 10
62.5384122727
 20
69.4738899236
 30
0.0
 11
57.9151523171
 21
69.6188380856
 31
0.0
  0
LINE
  5
2D4
330
1F
100
AcDbEntity
  8
0
  6
Continuous
 62
     7
370
    15
100
AcDbLine
 10
57.9151523171
 20
69.6188380856
 30
0.0
 11
57.5430555525
 21
68.4152697106
 31
0.0
  0
LINE
  5
2D5
330
1F
100
AcDbEntity
  8
0
  6
Continuous
 62
     7
370
    15
100
AcDbLine
 10
62.5043457467
 20
84.4628480432
 30
0.0
 11
67.1276057023
 21
84.3178998813
 31
0.0
  0
LINE
  5
2D6
330
1F
100
AcDbEntity
  8
0
  6
Continuous
 62
     7
370
    15
100
AcDbLine
 10
67.1276057023
 20
84.3178998813
 30
0.0
 11
67.4997024669
 21
85.5214682562
 31
0.0
  0
LINE
  5
2D7
330
1F
100
AcDbEntity
  8
0
  6
Continuous
 62
     7
370
    15
100
AcDbLine
 10
67.4997024669
 20
85.5214682562
 30
0.0
 11
62.8764425112
 21
85.6664164182
 31
0.0
  0
LINE
  5
2D8
330
1F
100
AcDbEntity
  8
0
  6
Continuous
 62
     7
370
    15
100
AcDbLine
 10
62.8764425112
 20
85.6664164182
 30
0.0
 11
62.5043457467
 21
84.4628480432
 31
0.0
  0
LINE
  5
2D9
330
1F
100
AcDbEntity
  8
0
  6
Continuous
 62
     7
370
    15
100
AcDbLine
 10
67.4656359409
 20
100.5104263759
 30
0.0
 11
72.0888958965
 21
100.3654782139
 31
0.0
  0
LINE
  5
2DA
330
1F
100
AcDbEntity
  8
0
  6
Continuous
 62
     7
370
    15
100
AcDbLine
 10
72.0888958965
 20
100.3654782139
 30
0.0
 11
72.4609926611
 21
101.5690465889
 31
0.0
  0
LINE
  5
2DB
330
1F
100
AcDbEntity
  8
0
  6
Continuous
 62
     7
370
    15
100
AcDbLine
 10
72.4609926611
 20
101.5690465889
 30
0.0
 11
67.8377327054
 21
101.7139947508
 31
0.0
  0
LINE
  5
2DC
330
1F
100
AcDbEntity
  8
0
  6
Continuous
 62
     7
370
    15
100
AcDbLine
 10
67.8377327054
 20
101.7139947508
 30
0.0
 11
67.4656359409
 21
100.5104263759
 31
0.0
  0
LINE
  5
2DD
330
1F
100
AcDbEntity
  8
0
  6
Continuous
 62
     7
370
    15
100
AcDbLine
 10
72.426926135
 20
116.5580047085
 30
0.0
 11
77.0501860907
 21
116.4130565466
 31
0.0
  0
LINE
  5
2DE
330
1F
100
AcDbEntity
  8
0
  6
Continuous
 62
     7
370
    15
100
AcDbLine
 10
77.0501860907
 20
116.4130565466
 30
0.0
 11
77.4222828553
 21
117.6166249215
 31
0.0
  0
LINE
  5
2DF
330
1F
100
AcDbEntity
  8
0
  6
Continuous
 62
     7
370
    15
100
AcDbLine
 10
77.4222828553
 20
117.6166249215
 30
0.0
 11
72.7990228996
 21
117.7615730834
 31
0.0
  0
LINE
  5
2E0
330
1F
100
AcDbEntity
  8
0
  6
Continuous
 62
     7
370
    15
100
AcDbLine
 10
72.7990228996
 20
117.7615730834
 30
0.0
 11
72.426926135
 21
116.5580047085
 31
0.0
  0
LINE
  5
2E1
330
1F
100
AcDbEntity
  8
0
  6
Continuous
 62
     7
370
    15
100
AcDbLine
 10
264.1671280314
 20
176.5743096059
 30
0.0
 11
55.1957780355
 21
183.1259665257
 31
0.0
  0
LINE
  5
2E2
330
1F
100
AcDbEntity
  8
0
  6
Continuous
 62
     7
370
    15
100
AcDbLine
 10
208.1045488372
 20
-4.7633255528
 30
0.0
 11
264.1671280314
 21
176.5743096059
 31
0.0
  0
LINE
  5
2E3
330
1F
100
AcDbEntity
  8
0
  6
Continuous
 62
     7
370
    15
100
AcDbLine
 10
-0.8668011588
 20
1.788331367
 30
0.0
 11
208.1045488372
 21
-4.7633255528
 31
0.0
  0
LINE
  5
2E4
330
1F
100
AcDbEntity
  8
0
  6
Continuous
 62
     7
370
    15
100
AcDbLine
 10
55.1957780355
 20
183.1259665257
 30
0.0
 11
-0.8668011588
 21
1.788331367
 31
0.0
  0
LINE
  5
2E5
330
1F
100
AcDbEntity
  8
0
  6
Continuous
 62
     7
370
    15
100
AcDbLine
 10
86.9727664791
 20
148.5082132118
 30
0.0
 11
87.3448632436
 21
149.7117815868
 31
0.0
  0
LINE
  5
2E6
330
1F
100
AcDbEntity
  8
0
  6
Continuous
 62
     7
370
    15
100
AcDbLine
 10
87.3448632436
 20
149.7117815868
 30
0.0
 11
82.721603288
 21
149.8567297487
 31
0.0
  0
LINE
  5
2E7
330
1F
100
AcDbEntity
  8
0
  6
Continuous
 62
     7
370
    15
100
AcDbLine
 10
82.721603288
 20
149.8567297487
 30
0.0
 11
82.3495065234
 21
148.6531613737
 31
0.0
  0
LINE
  5
2E8
330
1F
100
AcDbEntity
  8
0
  6
Continuous
 62
     7
370
    15
100
AcDbLine
 10
82.3495065234
 20
148.6531613737
 30
0.0
 11
86.9727664791
 21
148.5082132118
 31
0.0
  0
LINE
  5
2E9
330
1F
100
AcDbEntity
  8
0
  6
Continuous
 62
     7
370
    15
100
AcDbLine
 10
82.0114762849
 20
132.4606348792
 30
0.0
 11
82.3835730495
 21
133.6642032541
 31
0.0
  0
LINE
  5
2EA
330
1F
100
AcDbEntity
  8
0
  6
Continuous
 62
     7
370
    15
100
AcDbLine
 10
82.3835730495
 20
133.6642032541
 30
0.0
 11
77.7603130938
 21
133.8091514161
 31
0.0
  0
LINE
  5
2EB
330
1F
100
AcDbEntity
  8
0
  6
Continuous
 62
     7
370
    15
100
AcDbLine
 10
77.7603130938
 20
133.8091514161
 30
0.0
 11
77.3882163292
 21
132.6055830411
 31
0.0
  0
LINE
  5
2EC
330
1F
100
AcDbEntity
  8
0
  6
Continuous
 62
     7
370
    15
100
AcDbLine
 10
77.3882163292
 20
132.6055830411
 30
0.0
 11
82.0114762849
 21
132.4606348792
 31
0.0
  0
LINE
  5
2ED
330
1F
100
AcDbEntity
  8
0
  6
Continuous
 62
     7
370
    15
100
AcDbLine
 10
-0.8668011588
 20
1.788331367
 30
0.0
 11
0.0
 21
0.0
 31
0.0
  0
LINE
  5
2EE
330
1F
100
AcDbEntity
  8
0
  6
Continuous
 62
     7
370
    15
100
AcDbLine
 10
208.1045488372
 20
-4.7633255528
 30
0.0
 11
208.971349996
 21
-6.5516569198
 31
0.0
  0
LINE
  5
2EF
330
1F
100
AcDbEntity
  8
0
  6
Continuous
 62
     7
370
    15
100
AcDbLine
 10
0.0
 20
0.0
 30
0.0
 11
208.971349996
 21
-6.5516569198
 31
0.0
  0
LINE
  5
2F0
330
1F
100
AcDbEntity
  8
0
  6
Continuous
 62
     7
370
    15
100
AcDbLine
 10
264.1671280314
 20
176.5743096059
 30
0.0
 11
265.0339291902
 21
174.7859782389
 31
0.0
  0
LINE
  5
2F1
330
1F
100
AcDbEntity
  8
0
  6
Continuous
 62
     7
370
    15
100
AcDbLine
 10
208.971349996
 20
-6.5516569198
 30
0.0
 11
265.0339291902
 21
174.7859782389
 31
0.0
  0
LINE
  5
2F2
330
1F
100
AcDbEntity
  8
0
  6
Continuous
 62
     7
370
    15
100
AcDbLine
 10
178.0419617246
 20
32.2311466156
 30
0.0
 11
177.4438506873
 21
33.4651328859
 31
0.0
  0
LINE
  5
2F3
330
1F
100
AcDbEntity
  8
0
  6
Continuous
 62
     7
370
    15
100
AcDbLine
 10
159.5489219019
 20
32.8109392634
 30
0.0
 11
158.9508108646
 21
34.0449255337
 31
0.0
  0
LINE
  5
2F4
330
1F
100
AcDbEntity
  8
0
  6
Continuous
 62
     7
370
    15
100
AcDbLine
 10
183.0032519188
 20
48.2787249482
 30
0.0
 11
182.4051408814
 21
49.5127112185
 31
0.0
  0
LINE
  5
2F5
330
1F
100
AcDbEntity
  8
0
  6
Continuous
 62
     7
370
    15
100
AcDbLine
 10
141.0558820793
 20
33.3907319111
 30
0.0
 11
140.457771042
 21
34.6247181815
 31
0.0
  0
LINE
  5
2F6
330
1F
100
AcDbEntity
  8
0
  6
Continuous
 62
     7
370
    15
100
AcDbLine
 10
164.5102120961
 20
48.858517596
 30
0.0
 11
163.9121010588
 21
50.0925038663
 31
0.0
  0
LINE
  5
2F7
330
1F
100
AcDbEntity
  8
0
  6
Continuous
 62
     7
370
    15
100
AcDbLine
 10
187.964542113
 20
64.3263032809
 30
0.0
 11
187.3664310756
 21
65.5602895512
 31
0.0
  0
LINE
  5
2F8
330
1F
100
AcDbEntity
  8
0
  6
Continuous
 62
     7
370
    15
100
AcDbLine
 10
122.5628422566
 20
33.9705245589
 30
0.0
 11
121.9647312193
 21
35.2045108292
 31
0.0
  0
LINE
  5
2F9
330
1F
100
AcDbEntity
  8
0
  6
Continuous
 62
     7
370
    15
100
AcDbLine
 10
146.0171722735
 20
49.4383102438
 30
0.0
 11
145.4190612361
 21
50.6722965141
 31
0.0
  0
LINE
  5
2FA
330
1F
100
AcDbEntity
  8
0
  6
Continuous
 62
     7
370
    15
100
AcDbLine
 10
169.4715022903
 20
64.9060959286
 30
0.0
 11
168.873391253
 21
66.1400821989
 31
0.0
  0
LINE
  5
2FB
330
1F
100
AcDbEntity
  8
0
  6
Continuous
 62
     7
370
    15
100
AcDbLine
 10
104.069802434
 20
34.5503172067
 30
0.0
 11
103.4716913967
 21
35.784303477
 31
0.0
  0
LINE
  5
2FC
330
1F
100
AcDbEntity
  8
0
  6
Continuous
 62
     7
370
    15
100
AcDbLine
 10
192.9258323071
 20
80.3738816135
 30
0.0
 11
192.3277212698
 21
81.6078678838
 31
0.0
  0
LINE
  5
2FD
330
1F
100
AcDbEntity
  8
0
  6
Continuous
 62
     7
370
    15
100
AcDbLine
 10
127.5241324508
 20
50.0181028915
 30
0.0
 11
126.9260214135
 21
51.2520891619
 31
0.0
  0
LINE
  5
2FE
330
1F
100
AcDbEntity
  8
0
  6
Continuous
 62
     7
370
    15
100
AcDbLine
 10
150.9784624677
 20
65.4858885764
 30
0.0
 11
150.3803514303
 21
66.7198748467
 31
0.0
  0
LINE
  5
2FF
330
1F
100
AcDbEntity
  8
0
  6
Continuous
 62
     7
370
    15
100
AcDbLine
 10
85.5767626113
 20
35.1301098545
 30
0.0
 11
84.978651574
 21
36.3640961248
 31
0.0
  0
LINE
  5
300
330
1F
100
AcDbEntity
  8
0
  6
Continuous
 62
     7
370
    15
100
AcDbLine
 10
174.4327924845
 20
80.9536742612
 30
0.0
 11
173.8346814472
 21
82.1876605316
 31
0.0
  0
LINE
  5
301
330
1F
100
AcDbEntity
  8
0
  6
Continuous
 62
     7
370
    15
100
AcDbLine
 10
109.0310926282
 20
50.5978955393
 30
0.0
 11
108.4329815908
 21
51.8318818096
 31
0.0
  0
LINE
  5
302
330
1F
100
AcDbEntity
  8
0
  6
Continuous
 62
     7
370
    15
100
AcDbLine
 10
197.8871225013
 20
96.4214599461
 30
0.0
 11
197.289011464
 21
97.6554462164
 31
0.0
  0
LINE
  5
303
330
1F
100
AcDbEntity
  8
0
  6
Continuous
 62
     7
370
    15
100
AcDbLine
 10
132.485422645
 20
66.0656812242
 30
0.0
 11
131.8873116077
 21
67.2996674945
 31
0.0
  0
LINE
  5
304
330
1F
100
AcDbEntity
  8
0
  6
Continuous
 62
     7
370
    15
100
AcDbLine
 10
67.0837227887
 20
35.7099025022
 30
0.0
 11
66.4856117514
 21
36.9438887725
 31
0.0
  0
LINE
  5
305
330
1F
100
AcDbEntity
  8
0
  6
Continuous
 62
     7
370
    15
100
AcDbLine
 10
155.9397526618
 20
81.533466909
 30
0.0
 11
155.3416416245
 21
82.7674531793
 31
0.0
  0
LINE
  5
306
330
1F
100
AcDbEntity
  8
0
  6
Continuous
 62
     7
370
    15
100
AcDbLine
 10
90.5380528055
 20
51.1776881871
 30
0.0
 11
89.9399417682
 21
52.4116744574
 31
0.0
  0
LINE
  5
307
330
1F
100
AcDbEntity
  8
0
  6
Continuous
 62
     7
370
    15
100
AcDbLine
 10
179.3940826787
 20
97.0012525939
 30
0.0
 11
178.7959716413
 21
98.2352388642
 31
0.0
  0
LINE
  5
308
330
1F
100
AcDbEntity
  8
0
  6
Continuous
 62
     7
370
    15
100
AcDbLine
 10
113.9923828224
 20
66.6454738719
 30
0.0
 11
113.394271785
 21
67.8794601423
 31
0.0
  0
LINE
  5
309
330
1F
100
AcDbEntity
  8
0
  6
Continuous
 62
     7
370
    15
100
AcDbLine
 10
48.590682966
 20
36.28969515
 30
0.0
 11
47.9925719287
 21
37.5236814203
 31
0.0
  0
LINE
  5
30A
330
1F
100
AcDbEntity
  8
0
  6
Continuous
 62
     7
370
    15
100
AcDbLine
 10
202.8484126955
 20
112.4690382787
 30
0.0
 11
202.2503016582
 21
113.703024549
 31
0.0
  0
LINE
  5
30B
330
1F
100
AcDbEntity
  8
0
  6
Continuous
 62
     7
370
    15
100
AcDbLine
 10
137.4467128392
 20
82.1132595568
 30
0.0
 11
136.8486018019
 21
83.3472458271
 31
0.0
  0
LINE
  5
30C
330
1F
100
AcDbEntity
  8
0
  6
Continuous
 62
     7
370
    15
100
AcDbLine
 10
72.0450129829
 20
51.7574808349
 30
0.0
 11
71.4469019455
 21
52.9914671052
 31
0.0
  0
LINE
  5
30D
330
1F
100
AcDbEntity
  8
0
  6
Continuous
 62
     7
370
    15
100
AcDbLine
 10
160.901042856
 20
97.5810452416
 30
0.0
 11
160.3029318187
 21
98.815031512
 31
0.0
  0
LINE
  5
30E
330
1F
100
AcDbEntity
  8
0
  6
Continuous
 62
     7
370
    15
100
AcDbLine
 10
95.4993429997
 20
67.2252665197
 30
0.0
 11
94.9012319624
 21
68.45925279
 31
0.0
  0
LINE
  5
30F
330
1F
100
AcDbEntity
  8
0
  6
Continuous
 62
     7
370
    15
100
AcDbLine
 10
184.3553728728
 20
113.0488309265
 30
0.0
 11
183.7572618355
 21
114.2828171968
 31
0.0
  0
LINE
  5
310
330
1F
100
AcDbEntity
  8
0
  6
Continuous
 62
     7
370
    15
100
AcDbLine
 10
118.9536730165
 20
82.6930522046
 30
0.0
 11
118.3555619792
 21
83.9270384749
 31
0.0
  0
LINE
  5
311
330
1F
100
AcDbEntity
  8
0
  6
Continuous
 62
     7
370
    15
100
AcDbLine
 10
53.5519731602
 20
52.3372734826
 30
0.0
 11
52.9538621229
 21
53.5712597529
 31
0.0
  0
LINE
  5
312
330
1F
100
AcDbEntity
  8
0
  6
Continuous
 62
     7
370
    15
100
AcDbLine
 10
207.8097028897
 20
128.5166166114
 30
0.0
 11
207.2115918523
 21
129.7506028817
 31
0.0
  0
LINE
  5
313
330
1F
100
AcDbEntity
  8
0
  6
Continuous
 62
     7
370
    15
100
AcDbLine
 10
142.4080030334
 20
98.1608378894
 30
0.0
 11
141.809891996
 21
99.3948241597
 31
0.0
  0
LINE
  5
314
330
1F
100
AcDbEntity
  8
0
  6
Continuous
 62
     7
370
    15
100
AcDbLine
 10
77.0063031771
 20
67.8050591675
 30
0.0
 11
76.4081921397
 21
69.0390454378
 31
0.0
  0
LINE
  5
315
330
1F
100
AcDbEntity
  8
0
  6
Continuous
 62
     7
370
    15
100
AcDbLine
 10
165.8623330502
 20
113.6286235743
 30
0.0
 11
165.2642220129
 21
114.8626098446
 31
0.0
  0
LINE
  5
316
330
1F
100
AcDbEntity
  8
0
  6
Continuous
 62
     7
370
    15
100
AcDbLine
 10
100.4606331939
 20
83.2728448523
 30
0.0
 11
99.8625221565
 21
84.5068311226
 31
0.0
  0
LINE
  5
317
330
1F
100
AcDbEntity
  8
0
  6
Continuous
 62
     7
370
    15
100
AcDbLine
 10
189.316663067
 20
129.0964092591
 30
0.0
 11
188.7185520297
 21
130.3303955294
 31
0.0
  0
LINE
  5
318
330
1F
100
AcDbEntity
  8
0
  6
Continuous
 62
     7
370
    15
100
AcDbLine
 10
123.9149632107
 20
98.7406305372
 30
0.0
 11
123.3168521734
 21
99.9746168075
 31
0.0
  0
LINE
  5
319
330
1F
100
AcDbEntity
  8
0
  6
Continuous
 62
     7
370
    15
100
AcDbLine
 10
58.5132633544
 20
68.3848518153
 30
0.0
 11
57.9151523171
 21
69.6188380856
 31
0.0
  0
LINE
  5
31A
330
1F
100
AcDbEntity
  8
0
  6
Continuous
 62
     7
370
    15
100
AcDbLine
 10
212.7709930839
 20
144.564194944
 30
0.0
 11
212.1728820465
 21
145.7981812143
 31
0.0
  0
LINE
  5
31B
330
1F
100
AcDbEntity
  8
0
  6
Continuous
 62
     7
370
    15
100
AcDbLine
 10
147.3692932275
 20
114.208416222
 30
0.0
 11
146.7711821902
 21
115.4424024924
 31
0.0
  0
LINE
  5
31C
330
1F
100
AcDbEntity
  8
0
  6
Continuous
 62
     7
370
    15
100
AcDbLine
 10
81.9675933712
 20
83.8526375001
 30
0.0
 11
81.3694823339
 21
85.0866237704
 31
0.0
  0
LINE
  5
31D
330
1F
100
AcDbEntity
  8
0
  6
Continuous
 62
     7
370
    15
100
AcDbLine
 10
170.8236232444
 20
129.6762019069
 30
0.0
 11
170.225512207
 21
130.9101881772
 31
0.0
  0
LINE
  5
31E
330
1F
100
AcDbEntity
  8
0
  6
Continuous
 62
     7
370
    15
100
AcDbLine
 10
105.4219233881
 20
99.320423185
 30
0.0
 11
104.8238123507
 21
100.5544094553
 31
0.0
  0
LINE
  5
31F
330
1F
100
AcDbEntity
  8
0
  6
Continuous
 62
     7
370
    15
100
AcDbLine
 10
194.2779532612
 20
145.1439875918
 30
0.0
 11
193.6798422239
 21
146.3779738621
 31
0.0
  0
LINE
  5
320
330
1F
100
AcDbEntity
  8
0
  6
Continuous
 62
     7
370
    15
100
AcDbLine
 10
128.8762534049
 20
114.7882088698
 30
0.0
 11
128.2781423676
 21
116.0221951401
 31
0.0
  0
LINE
  5
321
330
1F
100
AcDbEntity
  8
0
  6
Continuous
 62
     7
370
    15
100
AcDbLine
 10
63.4745535486
 20
84.4324301479
 30
0.0
 11
62.8764425112
 21
85.6664164182
 31
0.0
  0
LINE
  5
322
330
1F
100
AcDbEntity
  8
0
  6
Continuous
 62
     7
370
    15
100
AcDbLine
 10
152.3305834217
 20
130.2559945547
 30
0.0
 11
151.7324723844
 21
131.489980825
 31
0.0
  0
LINE
  5
323
330
1F
100
AcDbEntity
  8
0
  6
Continuous
 62
     7
370
    15
100
AcDbLine
 10
86.9288835654
 20
99.9002158327
 30
0.0
 11
86.3307725281
 21
101.134202103
 31
0.0
  0
LINE
  5
324
330
1F
100
AcDbEntity
  8
0
  6
Continuous
 62
     7
370
    15
100
AcDbLine
 10
175.7849134386
 20
145.7237802395
 30
0.0
 11
175.1868024012
 21
146.9577665098
 31
0.0
  0
LINE
  5
325
330
1F
100
AcDbEntity
  8
0
  6
Continuous
 62
     7
370
    15
100
AcDbLine
 10
110.3832135822
 20
115.3680015176
 30
0.0
 11
109.7851025449
 21
116.6019877879
 31
0.0
  0
LINE
  5
326
330
1F
100
AcDbEntity
  8
0
  6
Continuous
 62
     7
370
    15
100
AcDbLine
 10
133.8375435991
 20
130.8357872024
 30
0.0
 11
133.2394325617
 21
132.0697734728
 31
0.0
  0
LINE
  5
327
330
1F
100
AcDbEntity
  8
0
  6
Continuous
 62
     7
370
    15
100
AcDbLine
 10
68.4358437428
 20
100.4800084805
 30
0.0
 11
67.8377327054
 21
101.7139947508
 31
0.0
  0
LINE
  5
328
330
1F
100
AcDbEntity
  8
0
  6
Continuous
 62
     7
370
    15
100
AcDbLine
 10
157.2918736159
 20
146.3035728873
 30
0.0
 11
156.6937625786
 21
147.5375591576
 31
0.0
  0
LINE
  5
329
330
1F
100
AcDbEntity
  8
0
  6
Continuous
 62
     7
370
    15
100
AcDbLine
 10
91.8901737596
 20
115.9477941654
 30
0.0
 11
91.2920627223
 21
117.1817804357
 31
0.0
  0
LINE
  5
32A
330
1F
100
AcDbEntity
  8
0
  6
Continuous
 62
     7
370
    15
100
AcDbLine
 10
115.3445037764
 20
131.4155798502
 30
0.0
 11
114.7463927391
 21
132.6495661205
 31
0.0
  0
LINE
  5
32B
330
1F
100
AcDbEntity
  8
0
  6
Continuous
 62
     7
370
    15
100
AcDbLine
 10
138.7988337933
 20
146.8833655351
 30
0.0
 11
138.2007227559
 21
148.1173518054
 31
0.0
  0
LINE
  5
32C
330
1F
100
AcDbEntity
  8
0
  6
Continuous
 62
     7
370
    15
100
AcDbLine
 10
73.3971339369
 20
116.5275868131
 30
0.0
 11
72.7990228996
 21
117.7615730834
 31
0.0
  0
LINE
  5
32D
330
1F
100
AcDbEntity
  8
0
  6
Continuous
 62
     7
370
    15
100
AcDbLine
 10
96.8514639538
 20
131.995372498
 30
0.0
 11
96.2533529164
 21
133.2293587683
 31
0.0
  0
LINE
  5
32E
330
1F
100
AcDbEntity
  8
0
  6
Continuous
 62
     7
370
    15
100
AcDbLine
 10
120.3057939706
 20
147.4631581828
 30
0.0
 11
119.7076829333
 21
148.6971444532
 31
0.0
  0
LINE
  5
32F
330
1F
100
AcDbEntity
  8
0
  6
Continuous
 62
     7
370
    15
100
AcDbLine
 10
78.3584241311
 20
132.5751651458
 30
0.0
 11
77.7603130938
 21
133.8091514161
 31
0.0
  0
LINE
  5
330
330
1F
100
AcDbEntity
  8
0
  6
Continuous
 62
     7
370
    15
100
AcDbLine
 10
101.812754148
 20
148.0429508306
 30
0.0
 11
101.2146431106
 21
149.2769371009
 31
0.0
  0
LINE
  5
331
330
1F
100
AcDbEntity
  8
0
  6
Continuous
 62
     7
370
    15
100
AcDbLine
 10
83.3197143253
 20
148.6227434784
 30
0.0
 11
82.721603288
 21
149.8567297487
 31
0.0
  0
ENDSEC
  0
SECTION
  2
OBJECTS
  0
DICTIONARY
  5
C
330
0
100
AcDbDictionary
281
     1
  3
ACAD_GROUP
350
D
  3
ACAD_LAYOUT
350
1A
  3
ACAD_MLINESTYLE
350
17
  3
ACAD_PLOTSETTINGS
350
19
  3
ACAD_PLOTSTYLENAME
350
E
  3
ACAD_SCALELIST
350
47
  0
DICTIONARY
  5
D
102
{ACAD_REACTORS
330
C
102
}
330
C
100
AcDbDictionary
281
     1
  0
DICTIONARY
  5
1A
102
{ACAD_REACTORS
330
C
102
}
330
C
100
AcDbDictionary
281
     1
  3
Layout1
350
1E
  3
Layout2
350
26
  3
Model
350
22
  0
DICTIONARY
  5
17
102
{ACAD_REACTORS
330
C
102
}
330
C
100
AcDbDictionary
281
     1
  3
Standard
350
18
  0
DICTIONARY
  5
19
102
{ACAD_REACTORS
330
C
102
}
330
C
100
AcDbDictionary
281
     1
  0
ACDBDICTIONARYWDFLT
  5
E
102
{ACAD_REACTORS
330
C
102
}
330
C
100
AcDbDictionary
281
     1
  3
Normal
350
F
100
AcDbDictionaryWithDefault
340
F
  0
DICTIONARY
  5
47
102
{ACAD_REACTORS
330
C
102
}
330
C
100
AcDbDictionary
281
     1
  3
A0
350
48
  3
A1
350
49
  3
A2
350
4A
  3
A3
350
4B
  3
A4
350
4C
  3
A5
350
4D
  3
A6
350
4E
  3
A7
350
4F
  3
A8
350
50
  3
A9
350
51
  3
B0
350
52
  3
B1
350
53
  3
B2
350
54
  3
B3
350
55
  3
B4
350
56
  3
B5
350
57
  3
B6
350
58
  3
B7
350
59
  3
B8
350
5A
  3
B9
350
5B
  3
C0
350
5C
  3
C1
350
5D
  3
C2
350
5E
  3
C3
350
5F
  3
C4
350
60
  3
C5
350
61
  3
C6
350
62
  3
C7
350
63
  3
C8
350
64
  3
C9
350
65
  3
D0
350
66
  3
D1
350
67
  3
D2
350
68
  0
LAYOUT
  5
1E
102
{ACAD_REACTORS
330
1A
102
}
330
1A
100
AcDbPlotSettings
  1

  2
none_device
  4

  6

 40
0.0
 41
0.0
 42
0.0
 43
0.0
 44
0.0
 45
0.0
 46
0.0
 47
0.0
 48
0.0
 49
0.0
140
0.0
141
0.0
142
1.0
143
1.0
 70
   688
 72
     1
 73
     0
 74
     5
  7

 75
    16
147
1.0
148
0.0
149
0.0
100
AcDbLayout
  1
Layout1
 70
     1
 71
     1
 10
0.0
 20
0.0
 11
420.0
 21
297.0
 12
0.0
 22
0.0
 32
0.0
 14
1.0000000000E+20
 24
1.0000000000E+20
 34
1.0000000000E+20
 15
-1.0000000000E+20
 25
-1.0000000000E+20
 35
-1.0000000000E+20
146
0.0
 13
0.0
 23
0.0
 33
0.0
 16
1.0
 26
0.0
 36
0.0
 17
0.0
 27
1.0
 37
0.0
 76
     0
330
1B
  0
LAYOUT
  5
26
102
{ACAD_REACTORS
330
1A
102
}
330
1A
100
AcDbPlotSettings
  1

  2
none_device
  4

  6

 40
0.0
 41
0.0
 42
0.0
 43
0.0
 44
0.0
 45
0.0
 46
0.0
 47
0.0
 48
0.0
 49
0.0
140
0.0
141
0.0
142
1.0
143
1.0
 70
   688
 72
     1
 73
     0
 74
     5
  7

 75
    16
147
1.0
148
0.0
149
0.0
100
AcDbLayout
  1
Layout2
 70
     1
 71
     2
 10
0.0
 20
0.0
 11
0.0
 21
0.0
 12
0.0
 22
0.0
 32
0.0
 14
0.0
 24
0.0
 34
0.0
 15
0.0
 25
0.0
 35
0.0
146
0.0
 13
0.0
 23
0.0
 33
0.0
 16
1.0
 26
0.0
 36
0.0
 17
0.0
 27
1.0
 37
0.0
 76
     0
330
23
  0
LAYOUT
  5
22
102
{ACAD_REACTORS
330
1A
102
}
330
1A
100
AcDbPlotSettings
  1

  2
none_device
  4
ANSI_A_(11.00_x_8.50_Inches)
  6

 40
6.35
 41
19.05
 42
6.35000508
 43
19.05000254
 44
279.4
 45
215.9
 46
-4.0513036202
 47
-2.9416322026
 48
0.0
 49
0.0
140
0.0
141
0.0
142
0.0409551338
143
1.0
 70
  1696
 72
     0
 73
     0
 74
     0
  7

 75
     0
147
0.0179189148
148
-1300.4909072572
149
0.0
100
AcDbLayout
  1
Model
 70
     1
 71
     0
 10
0.0
 20
0.0
 11
420.0
 21
297.0
 12
0.0
 22
0.0
 32
0.0
 14
-0.8668011588
 24
-6.5516569198
 34
0.0
 15
265.0339291902
 25
183.1259665257
 35
0.0
146
0.0
 13
0.0
 23
0.0
 33
0.0
 16
1.0
 26
0.0
 36
0.0
 17
0.0
 27
1.0
 37
0.0
 76
     0
330
1F
331
29
  0
MLINESTYLE
  5
18
102
{ACAD_REACTORS
330
17
102
}
330
17
100
AcDbMlineStyle
  2
Standard
 70
     0
  3

 62
   256
 51
90.0
 52
90.0
 71
     2
 49
0.5
 62
   256
  6
BYLAYER
 49
-0.5
 62
   256
  6
BYLAYER
  0
ACDBPLACEHOLDER
  5
F
102
{ACAD_REACTORS
330
E
102
}
330
E
  0
SCALE
  5
48
102
{ACAD_REACTORS
330
47
102
}
330
47
100
AcDbScale
 70
     0
300
1:1
140
1.0
141
1.0
290
     1
  0
SCALE
  5
49
102
{ACAD_REACTORS
330
47
102
}
330
47
100
AcDbScale
 70
     0
300
1:2
140
1.0
141
2.0
290
     0
  0
SCALE
  5
4A
102
{ACAD_REACTORS
330
47
102
}
330
47
100
AcDbScale
 70
     0
300
1:4
140
1.0
141
4.0
290
     0
  0
SCALE
  5
4B
102
{ACAD_REACTORS
330
47
102
}
330
47
100
AcDbScale
 70
     0
300
1:5
140
1.0
141
5.0
290
     0
  0
SCALE
  5
4C
102
{ACAD_REACTORS
330
47
102
}
330
47
100
AcDbScale
 70
     0
300
1:8
140
1.0
141
8.0
290
     0
  0
SCALE
  5
4D
102
{ACAD_REACTORS
330
47
102
}
330
47
100
AcDbScale
 70
     0
300
1:10
140
1.0
141
10.0
290
     0
  0
SCALE
  5
4E
102
{ACAD_REACTORS
330
47
102
}
330
47
100
AcDbScale
 70
     0
300
1:16
140
1.0
141
16.0
290
     0
  0
SCALE
  5
4F
102
{ACAD_REACTORS
330
47
102
}
330
47
100
AcDbScale
 70
     0
300
1:20
140
1.0
141
20.0
290
     0
  0
SCALE
  5
50
102
{ACAD_REACTORS
330
47
102
}
330
47
100
AcDbScale
 70
     0
300
1:30
140
1.0
141
30.0
290
     0
  0
SCALE
  5
51
102
{ACAD_REACTORS
330
47
102
}
330
47
100
AcDbScale
 70
     0
300
1:40
140
1.0
141
40.0
290
     0
  0
SCALE
  5
52
102
{ACAD_REACTORS
330
47
102
}
330
47
100
AcDbScale
 70
     0
300
1:50
140
1.0
141
50.0
290
     0
  0
SCALE
  5
53
102
{ACAD_REACTORS
330
47
102
}
330
47
100
AcDbScale
 70
     0
300
1:100
140
1.0
141
100.0
290
     0
  0
SCALE
  5
54
102
{ACAD_REACTORS
330
47
102
}
330
47
100
AcDbScale
 70
     0
300
2:1
140
2.0
141
1.0
290
     0
  0
SCALE
  5
55
102
{ACAD_REACTORS
330
47
102
}
330
47
100
AcDbScale
 70
     0
300
4:1
140
4.0
141
1.0
290
     0
  0
SCALE
  5
56
102
{ACAD_REACTORS
330
47
102
}
330
47
100
AcDbScale
 70
     0
300
8:1
140
8.0
141
1.0
290
     0
  0
SCALE
  5
57
102
{ACAD_REACTORS
330
47
102
}
330
47
100
AcDbScale
 70
     0
300
10:1
140
10.0
141
1.0
290
     0
  0
SCALE
  5
58
102
{ACAD_REACTORS
330
47
102
}
330
47
100
AcDbScale
 70
     0
300
100:1
140
100.0
141
1.0
290
     0
  0
SCALE
  5
59
102
{ACAD_REACTORS
330
47
102
}
330
47
100
AcDbScale
 70
     0
300
1/128" = 1'-0"
140
0.0078125
141
12.0
290
     0
  0
SCALE
  5
5A
102
{ACAD_REACTORS
330
47
102
}
330
47
100
AcDbScale
 70
     0
300
1/64" = 1'-0"
140
0.015625
141
12.0
290
     0
  0
SCALE
  5
5B
102
{ACAD_REACTORS
330
47
102
}
330
47
100
AcDbScale
 70
     0
300
1/32" = 1'-0"
140
0.03125
141
12.0
290
     0
  0
SCALE
  5
5C
102
{ACAD_REACTORS
330
47
102
}
330
47
100
AcDbScale
 70
     0
300
1/16" = 1'-0"
140
0.0625
141
12.0
290
     0
  0
SCALE
  5
5D
102
{ACAD_REACTORS
330
47
102
}
330
47
100
AcDbScale
 70
     0
300
3/32" = 1'-0"
140
0.09375
141
12.0
290
     0
  0
SCALE
  5
5E
102
{ACAD_REACTORS
330
47
102
}
330
47
100
AcDbScale
 70
     0
300
1/8" = 1'-0"
140
0.125
141
12.0
290
     0
  0
SCALE
  5
5F
102
{ACAD_REACTORS
330
47
102
}
330
47
100
AcDbScale
 70
     0
300
3/16" = 1'-0"
140
0.1875
141
12.0
290
     0
  0
SCALE
  5
60
102
{ACAD_REACTORS
330
47
102
}
330
47
100
AcDbScale
 70
     0
300
1/4" = 1'-0"
140
0.25
141
12.0
290
     0
  0
SCALE
  5
61
102
{ACAD_REACTORS
330
47
102
}
330
47
100
AcDbScale
 70
     0
300
3/8" = 1'-0"
140
0.375
141
12.0
290
     0
  0
SCALE
  5
62
102
{ACAD_REACTORS
330
47
102
}
330
47
100
AcDbScale
 70
     0
300
1/2" = 1'-0"
140
0.5
141
12.0
290
     0
  0
SCALE
  5
63
102
{ACAD_REACTORS
330
47
102
}
330
47
100
AcDbScale
 70
     0
300
3/4" = 1'-0"
140
0.75
141
12.0
290
     0
  0
SCALE
  5
64
102
{ACAD_REACTORS
330
47
102
}
330
47
100
AcDbScale
 70
     0
300
1" = 1'-0"
140
1.0
141
12.0
290
     0
  0
SCALE
  5
65
102
{ACAD_REACTORS
330
47
102
}
330
47
100
AcDbScale
 70
     0
300
1-1/2" = 1'-0"
140
1.5
141
12.0
290
     0
  0
SCALE
  5
66
102
{ACAD_REACTORS
330
47
102
}
330
47
100
AcDbScale
 70
     0
300
3" = 1'-0"
140
3.0
141
12.0
290
     0
  0
SCALE
  5
67
102
{ACAD_REACTORS
330
47
102
}
330
47
100
AcDbScale
 70
     0
300
6" = 1'-0"
140
6.0
141
12.0
290
     0
  0
SCALE
  5
68
102
{ACAD_REACTORS
330
47
102
}
330
47
100
AcDbScale
 70
     0
300
1'-0" = 1'-0"
140
12.0
141
12.0
290
     0
  0
ENDSEC
  0
EOF
