ISO-10303-21;
HEADER;
/* Generated by software containing ST-Developer
 * from STEP Tools, Inc. (www.steptools.com) 
 */

FILE_DESCRIPTION(
/* description */ (''),
/* implementation_level */ '2;1');

FILE_NAME(
/* name */ 
'C:\\Users\\Eddie the Computer\\Documents\\Course\\Third Year\\FYP\\3D
 Printing\\STEP Files\\Control Box Clamp.stp',
/* time_stamp */ '2018-04-22T20:01:20+01:00',
/* author */ ('Eddie the Computer'),
/* organization */ (''),
/* preprocessor_version */ 'ST-DEVELOPER v15.2',
/* originating_system */ 'Autodesk Inventor 2014',
/* authorisation */ '');

FILE_SCHEMA (('AUTOMOTIVE_DESIGN { 1 0 10303 214 3 1 1 }'));
ENDSEC;

DATA;
#10=SHAPE_REPRESENTATION_RELATIONSHIP('SRR','None',#515,#11);
#11=ADVANCED_BREP_SHAPE_REPRESENTATION($,(#308),#506);
#12=STYLED_ITEM($,(#523),#308);
#13=CYLINDRICAL_SURFACE($,#325,1.5);
#14=CYLINDRICAL_SURFACE($,#327,1.5);
#15=CYLINDRICAL_SURFACE($,#329,5.99999999999995);
#16=CYLINDRICAL_SURFACE($,#331,4.);
#17=CYLINDRICAL_SURFACE($,#333,6.);
#18=FACE_BOUND($,#53,.T.);
#19=FACE_BOUND($,#54,.T.);
#20=FACE_BOUND($,#58,.T.);
#21=FACE_BOUND($,#59,.T.);
#22=FACE_BOUND($,#63,.T.);
#23=FACE_BOUND($,#65,.T.);
#24=FACE_BOUND($,#67,.T.);
#25=CIRCLE($,#313,1.5);
#26=CIRCLE($,#314,1.5);
#27=CIRCLE($,#317,6.);
#28=CIRCLE($,#318,4.);
#29=CIRCLE($,#319,5.99999999999995);
#30=CIRCLE($,#322,1.5);
#31=CIRCLE($,#326,1.5);
#32=CIRCLE($,#330,5.99999999999995);
#33=CIRCLE($,#332,4.);
#34=CIRCLE($,#334,6.);
#35=FACE_OUTER_BOUND($,#50,.T.);
#36=FACE_OUTER_BOUND($,#51,.T.);
#37=FACE_OUTER_BOUND($,#52,.T.);
#38=FACE_OUTER_BOUND($,#55,.T.);
#39=FACE_OUTER_BOUND($,#56,.T.);
#40=FACE_OUTER_BOUND($,#57,.T.);
#41=FACE_OUTER_BOUND($,#60,.T.);
#42=FACE_OUTER_BOUND($,#61,.T.);
#43=FACE_OUTER_BOUND($,#62,.T.);
#44=FACE_OUTER_BOUND($,#64,.T.);
#45=FACE_OUTER_BOUND($,#66,.T.);
#46=FACE_OUTER_BOUND($,#68,.T.);
#47=FACE_OUTER_BOUND($,#69,.T.);
#48=FACE_OUTER_BOUND($,#70,.T.);
#49=FACE_OUTER_BOUND($,#71,.T.);
#50=EDGE_LOOP($,(#200,#201,#202,#203));
#51=EDGE_LOOP($,(#204,#205,#206,#207));
#52=EDGE_LOOP($,(#208,#209,#210,#211,#212,#213,#214,#215));
#53=EDGE_LOOP($,(#216));
#54=EDGE_LOOP($,(#217));
#55=EDGE_LOOP($,(#218,#219,#220,#221));
#56=EDGE_LOOP($,(#222,#223,#224,#225,#226,#227,#228,#229));
#57=EDGE_LOOP($,(#230,#231,#232,#233));
#58=EDGE_LOOP($,(#234));
#59=EDGE_LOOP($,(#235,#236,#237,#238,#239,#240));
#60=EDGE_LOOP($,(#241,#242,#243,#244));
#61=EDGE_LOOP($,(#245,#246,#247,#248));
#62=EDGE_LOOP($,(#249));
#63=EDGE_LOOP($,(#250));
#64=EDGE_LOOP($,(#251));
#65=EDGE_LOOP($,(#252));
#66=EDGE_LOOP($,(#253,#254,#255,#256,#257,#258));
#67=EDGE_LOOP($,(#259));
#68=EDGE_LOOP($,(#260,#261,#262,#263));
#69=EDGE_LOOP($,(#264,#265,#266,#267));
#70=EDGE_LOOP($,(#268,#269,#270,#271));
#71=EDGE_LOOP($,(#272,#273,#274,#275,#276,#277,#278,#279));
#72=LINE($,#424,#102);
#73=LINE($,#426,#103);
#74=LINE($,#428,#104);
#75=LINE($,#429,#105);
#76=LINE($,#432,#106);
#77=LINE($,#434,#107);
#78=LINE($,#435,#108);
#79=LINE($,#438,#109);
#80=LINE($,#440,#110);
#81=LINE($,#442,#111);
#82=LINE($,#444,#112);
#83=LINE($,#446,#113);
#84=LINE($,#447,#114);
#85=LINE($,#454,#115);
#86=LINE($,#455,#116);
#87=LINE($,#458,#117);
#88=LINE($,#460,#118);
#89=LINE($,#467,#119);
#90=LINE($,#470,#120);
#91=LINE($,#471,#121);
#92=LINE($,#476,#122);
#93=LINE($,#478,#123);
#94=LINE($,#480,#124);
#95=LINE($,#481,#125);
#96=LINE($,#483,#126);
#97=LINE($,#485,#127);
#98=LINE($,#492,#128);
#99=LINE($,#493,#129);
#100=LINE($,#497,#130);
#101=LINE($,#501,#131);
#102=VECTOR($,#340,2.82842712474619);
#103=VECTOR($,#341,3.);
#104=VECTOR($,#342,2.82842712474619);
#105=VECTOR($,#343,3.);
#106=VECTOR($,#346,4.);
#107=VECTOR($,#347,3.);
#108=VECTOR($,#348,4.);
#109=VECTOR($,#351,26.);
#110=VECTOR($,#352,2.82842712474619);
#111=VECTOR($,#353,4.);
#112=VECTOR($,#354,2.82842712474619);
#113=VECTOR($,#355,26.);
#114=VECTOR($,#356,2.82842712474619);
#115=VECTOR($,#363,3.);
#116=VECTOR($,#364,2.82842712474619);
#117=VECTOR($,#367,3.);
#118=VECTOR($,#368,8.64110105645933);
#119=VECTOR($,#375,8.64110105645933);
#120=VECTOR($,#378,2.82842712474619);
#121=VECTOR($,#379,3.);
#122=VECTOR($,#384,4.);
#123=VECTOR($,#385,2.82842712474619);
#124=VECTOR($,#386,8.64110105645933);
#125=VECTOR($,#387,8.);
#126=VECTOR($,#390,3.);
#127=VECTOR($,#393,3.);
#128=VECTOR($,#402,8.);
#129=VECTOR($,#403,8.64110105645933);
#130=VECTOR($,#408,8.);
#131=VECTOR($,#413,8.);
#132=VERTEX_POINT($,#422);
#133=VERTEX_POINT($,#423);
#134=VERTEX_POINT($,#425);
#135=VERTEX_POINT($,#427);
#136=VERTEX_POINT($,#431);
#137=VERTEX_POINT($,#433);
#138=VERTEX_POINT($,#437);
#139=VERTEX_POINT($,#439);
#140=VERTEX_POINT($,#441);
#141=VERTEX_POINT($,#443);
#142=VERTEX_POINT($,#445);
#143=VERTEX_POINT($,#448);
#144=VERTEX_POINT($,#450);
#145=VERTEX_POINT($,#453);
#146=VERTEX_POINT($,#457);
#147=VERTEX_POINT($,#459);
#148=VERTEX_POINT($,#461);
#149=VERTEX_POINT($,#463);
#150=VERTEX_POINT($,#465);
#151=VERTEX_POINT($,#469);
#152=VERTEX_POINT($,#473);
#153=VERTEX_POINT($,#475);
#154=VERTEX_POINT($,#477);
#155=VERTEX_POINT($,#479);
#156=VERTEX_POINT($,#487);
#157=VERTEX_POINT($,#491);
#158=VERTEX_POINT($,#495);
#159=VERTEX_POINT($,#499);
#160=EDGE_CURVE($,#132,#133,#72,.T.);
#161=EDGE_CURVE($,#133,#134,#73,.T.);
#162=EDGE_CURVE($,#134,#135,#74,.T.);
#163=EDGE_CURVE($,#135,#132,#75,.T.);
#164=EDGE_CURVE($,#135,#136,#76,.T.);
#165=EDGE_CURVE($,#137,#136,#77,.T.);
#166=EDGE_CURVE($,#132,#137,#78,.T.);
#167=EDGE_CURVE($,#138,#134,#79,.T.);
#168=EDGE_CURVE($,#139,#138,#80,.T.);
#169=EDGE_CURVE($,#139,#140,#81,.T.);
#170=EDGE_CURVE($,#141,#140,#82,.T.);
#171=EDGE_CURVE($,#142,#141,#83,.T.);
#172=EDGE_CURVE($,#136,#142,#84,.T.);
#173=EDGE_CURVE($,#143,#143,#25,.T.);
#174=EDGE_CURVE($,#144,#144,#26,.T.);
#175=EDGE_CURVE($,#142,#145,#85,.T.);
#176=EDGE_CURVE($,#145,#137,#86,.T.);
#177=EDGE_CURVE($,#146,#141,#87,.T.);
#178=EDGE_CURVE($,#146,#147,#88,.T.);
#179=EDGE_CURVE($,#147,#148,#27,.T.);
#180=EDGE_CURVE($,#148,#149,#28,.T.);
#181=EDGE_CURVE($,#149,#150,#29,.T.);
#182=EDGE_CURVE($,#150,#145,#89,.T.);
#183=EDGE_CURVE($,#151,#146,#90,.T.);
#184=EDGE_CURVE($,#140,#151,#91,.T.);
#185=EDGE_CURVE($,#152,#152,#30,.T.);
#186=EDGE_CURVE($,#153,#151,#92,.T.);
#187=EDGE_CURVE($,#154,#153,#93,.T.);
#188=EDGE_CURVE($,#155,#154,#94,.T.);
#189=EDGE_CURVE($,#155,#147,#95,.T.);
#190=EDGE_CURVE($,#153,#139,#96,.T.);
#191=EDGE_CURVE($,#138,#154,#97,.T.);
#192=EDGE_CURVE($,#156,#156,#31,.T.);
#193=EDGE_CURVE($,#157,#150,#98,.T.);
#194=EDGE_CURVE($,#133,#157,#99,.T.);
#195=EDGE_CURVE($,#157,#158,#32,.T.);
#196=EDGE_CURVE($,#158,#149,#100,.T.);
#197=EDGE_CURVE($,#158,#159,#33,.T.);
#198=EDGE_CURVE($,#159,#148,#101,.T.);
#199=EDGE_CURVE($,#159,#155,#34,.T.);
#200=ORIENTED_EDGE($,*,*,#160,.T.);
#201=ORIENTED_EDGE($,*,*,#161,.T.);
#202=ORIENTED_EDGE($,*,*,#162,.T.);
#203=ORIENTED_EDGE($,*,*,#163,.T.);
#204=ORIENTED_EDGE($,*,*,#163,.F.);
#205=ORIENTED_EDGE($,*,*,#164,.T.);
#206=ORIENTED_EDGE($,*,*,#165,.F.);
#207=ORIENTED_EDGE($,*,*,#166,.F.);
#208=ORIENTED_EDGE($,*,*,#162,.F.);
#209=ORIENTED_EDGE($,*,*,#167,.F.);
#210=ORIENTED_EDGE($,*,*,#168,.F.);
#211=ORIENTED_EDGE($,*,*,#169,.T.);
#212=ORIENTED_EDGE($,*,*,#170,.F.);
#213=ORIENTED_EDGE($,*,*,#171,.F.);
#214=ORIENTED_EDGE($,*,*,#172,.F.);
#215=ORIENTED_EDGE($,*,*,#164,.F.);
#216=ORIENTED_EDGE($,*,*,#173,.T.);
#217=ORIENTED_EDGE($,*,*,#174,.T.);
#218=ORIENTED_EDGE($,*,*,#172,.T.);
#219=ORIENTED_EDGE($,*,*,#175,.T.);
#220=ORIENTED_EDGE($,*,*,#176,.T.);
#221=ORIENTED_EDGE($,*,*,#165,.T.);
#222=ORIENTED_EDGE($,*,*,#175,.F.);
#223=ORIENTED_EDGE($,*,*,#171,.T.);
#224=ORIENTED_EDGE($,*,*,#177,.F.);
#225=ORIENTED_EDGE($,*,*,#178,.T.);
#226=ORIENTED_EDGE($,*,*,#179,.T.);
#227=ORIENTED_EDGE($,*,*,#180,.T.);
#228=ORIENTED_EDGE($,*,*,#181,.T.);
#229=ORIENTED_EDGE($,*,*,#182,.T.);
#230=ORIENTED_EDGE($,*,*,#183,.T.);
#231=ORIENTED_EDGE($,*,*,#177,.T.);
#232=ORIENTED_EDGE($,*,*,#170,.T.);
#233=ORIENTED_EDGE($,*,*,#184,.T.);
#234=ORIENTED_EDGE($,*,*,#185,.T.);
#235=ORIENTED_EDGE($,*,*,#183,.F.);
#236=ORIENTED_EDGE($,*,*,#186,.F.);
#237=ORIENTED_EDGE($,*,*,#187,.F.);
#238=ORIENTED_EDGE($,*,*,#188,.F.);
#239=ORIENTED_EDGE($,*,*,#189,.T.);
#240=ORIENTED_EDGE($,*,*,#178,.F.);
#241=ORIENTED_EDGE($,*,*,#184,.F.);
#242=ORIENTED_EDGE($,*,*,#169,.F.);
#243=ORIENTED_EDGE($,*,*,#190,.F.);
#244=ORIENTED_EDGE($,*,*,#186,.T.);
#245=ORIENTED_EDGE($,*,*,#168,.T.);
#246=ORIENTED_EDGE($,*,*,#191,.T.);
#247=ORIENTED_EDGE($,*,*,#187,.T.);
#248=ORIENTED_EDGE($,*,*,#190,.T.);
#249=ORIENTED_EDGE($,*,*,#192,.F.);
#250=ORIENTED_EDGE($,*,*,#173,.F.);
#251=ORIENTED_EDGE($,*,*,#185,.F.);
#252=ORIENTED_EDGE($,*,*,#174,.F.);
#253=ORIENTED_EDGE($,*,*,#160,.F.);
#254=ORIENTED_EDGE($,*,*,#166,.T.);
#255=ORIENTED_EDGE($,*,*,#176,.F.);
#256=ORIENTED_EDGE($,*,*,#182,.F.);
#257=ORIENTED_EDGE($,*,*,#193,.F.);
#258=ORIENTED_EDGE($,*,*,#194,.F.);
#259=ORIENTED_EDGE($,*,*,#192,.T.);
#260=ORIENTED_EDGE($,*,*,#195,.F.);
#261=ORIENTED_EDGE($,*,*,#193,.T.);
#262=ORIENTED_EDGE($,*,*,#181,.F.);
#263=ORIENTED_EDGE($,*,*,#196,.F.);
#264=ORIENTED_EDGE($,*,*,#197,.F.);
#265=ORIENTED_EDGE($,*,*,#196,.T.);
#266=ORIENTED_EDGE($,*,*,#180,.F.);
#267=ORIENTED_EDGE($,*,*,#198,.F.);
#268=ORIENTED_EDGE($,*,*,#199,.F.);
#269=ORIENTED_EDGE($,*,*,#198,.T.);
#270=ORIENTED_EDGE($,*,*,#179,.F.);
#271=ORIENTED_EDGE($,*,*,#189,.F.);
#272=ORIENTED_EDGE($,*,*,#161,.F.);
#273=ORIENTED_EDGE($,*,*,#194,.T.);
#274=ORIENTED_EDGE($,*,*,#195,.T.);
#275=ORIENTED_EDGE($,*,*,#197,.T.);
#276=ORIENTED_EDGE($,*,*,#199,.T.);
#277=ORIENTED_EDGE($,*,*,#188,.T.);
#278=ORIENTED_EDGE($,*,*,#191,.F.);
#279=ORIENTED_EDGE($,*,*,#167,.T.);
#280=PLANE($,#310);
#281=PLANE($,#311);
#282=PLANE($,#312);
#283=PLANE($,#315);
#284=PLANE($,#316);
#285=PLANE($,#320);
#286=PLANE($,#321);
#287=PLANE($,#323);
#288=PLANE($,#324);
#289=PLANE($,#328);
#290=PLANE($,#335);
#291=ADVANCED_FACE($,(#35),#280,.T.);
#292=ADVANCED_FACE($,(#36),#281,.T.);
#293=ADVANCED_FACE($,(#37,#18,#19),#282,.T.);
#294=ADVANCED_FACE($,(#38),#283,.T.);
#295=ADVANCED_FACE($,(#39),#284,.T.);
#296=ADVANCED_FACE($,(#40),#285,.T.);
#297=ADVANCED_FACE($,(#20,#21),#286,.T.);
#298=ADVANCED_FACE($,(#41),#287,.T.);
#299=ADVANCED_FACE($,(#42),#288,.T.);
#300=ADVANCED_FACE($,(#43,#22),#13,.F.);
#301=ADVANCED_FACE($,(#44,#23),#14,.F.);
#302=ADVANCED_FACE($,(#45,#24),#289,.T.);
#303=ADVANCED_FACE($,(#46),#15,.T.);
#304=ADVANCED_FACE($,(#47),#16,.F.);
#305=ADVANCED_FACE($,(#48),#17,.T.);
#306=ADVANCED_FACE($,(#49),#290,.F.);
#307=CLOSED_SHELL($,(#291,#292,#293,#294,#295,#296,#297,#298,#299,#300,
#301,#302,#303,#304,#305,#306));
#308=MANIFOLD_SOLID_BREP('Solid1',#307);
#309=AXIS2_PLACEMENT_3D('placement',#420,#336,#337);
#310=AXIS2_PLACEMENT_3D($,#421,#338,#339);
#311=AXIS2_PLACEMENT_3D($,#430,#344,#345);
#312=AXIS2_PLACEMENT_3D($,#436,#349,#350);
#313=AXIS2_PLACEMENT_3D($,#449,#357,#358);
#314=AXIS2_PLACEMENT_3D($,#451,#359,#360);
#315=AXIS2_PLACEMENT_3D($,#452,#361,#362);
#316=AXIS2_PLACEMENT_3D($,#456,#365,#366);
#317=AXIS2_PLACEMENT_3D($,#462,#369,#370);
#318=AXIS2_PLACEMENT_3D($,#464,#371,#372);
#319=AXIS2_PLACEMENT_3D($,#466,#373,#374);
#320=AXIS2_PLACEMENT_3D($,#468,#376,#377);
#321=AXIS2_PLACEMENT_3D($,#472,#380,#381);
#322=AXIS2_PLACEMENT_3D($,#474,#382,#383);
#323=AXIS2_PLACEMENT_3D($,#482,#388,#389);
#324=AXIS2_PLACEMENT_3D($,#484,#391,#392);
#325=AXIS2_PLACEMENT_3D($,#486,#394,#395);
#326=AXIS2_PLACEMENT_3D($,#488,#396,#397);
#327=AXIS2_PLACEMENT_3D($,#489,#398,#399);
#328=AXIS2_PLACEMENT_3D($,#490,#400,#401);
#329=AXIS2_PLACEMENT_3D($,#494,#404,#405);
#330=AXIS2_PLACEMENT_3D($,#496,#406,#407);
#331=AXIS2_PLACEMENT_3D($,#498,#409,#410);
#332=AXIS2_PLACEMENT_3D($,#500,#411,#412);
#333=AXIS2_PLACEMENT_3D($,#502,#414,#415);
#334=AXIS2_PLACEMENT_3D($,#503,#416,#417);
#335=AXIS2_PLACEMENT_3D($,#504,#418,#419);
#336=DIRECTION('axis',(0.,0.,1.));
#337=DIRECTION('refdir',(1.,0.,0.));
#338=DIRECTION('center_axis',(-0.707106781186547,0.707106781186548,0.));
#339=DIRECTION('ref_axis',(0.,0.,1.));
#340=DIRECTION($,(-0.707106781186548,-0.707106781186547,1.4754981184308E-016));
#341=DIRECTION($,(0.,0.,1.));
#342=DIRECTION($,(0.707106781186548,0.707106781186547,9.15887267565535E-017));
#343=DIRECTION($,(0.,0.,-1.));
#344=DIRECTION('center_axis',(0.,1.,0.));
#345=DIRECTION('ref_axis',(0.,0.,1.));
#346=DIRECTION($,(1.,0.,0.));
#347=DIRECTION($,(0.,0.,1.));
#348=DIRECTION($,(1.,0.,0.));
#349=DIRECTION('center_axis',(0.,-1.29526019539602E-016,1.));
#350=DIRECTION('ref_axis',(0.,-1.,-1.33226762955019E-016));
#351=DIRECTION($,(0.,1.,1.29526019539602E-016));
#352=DIRECTION($,(-0.707106781186548,0.707106781186547,9.15887267565535E-017));
#353=DIRECTION($,(1.,0.,0.));
#354=DIRECTION($,(-0.707106781186548,-0.707106781186548,-9.15887267565536E-017));
#355=DIRECTION($,(0.,-1.,-1.29526019539602E-016));
#356=DIRECTION($,(0.707106781186548,-0.707106781186548,-9.15887267565536E-017));
#357=DIRECTION('center_axis',(0.,1.29526019539602E-016,-1.));
#358=DIRECTION('ref_axis',(-1.,0.,0.));
#359=DIRECTION('center_axis',(0.,1.29526019539602E-016,-1.));
#360=DIRECTION('ref_axis',(-1.,0.,0.));
#361=DIRECTION('center_axis',(0.707106781186548,0.707106781186548,0.));
#362=DIRECTION('ref_axis',(0.,0.,-1.));
#363=DIRECTION($,(0.,0.,-1.));
#364=DIRECTION($,(-0.707106781186548,0.707106781186548,-1.4754981184308E-016));
#365=DIRECTION('center_axis',(1.,0.,0.));
#366=DIRECTION('ref_axis',(0.,0.,-1.));
#367=DIRECTION($,(0.,0.,1.));
#368=DIRECTION($,(0.,1.,0.));
#369=DIRECTION('center_axis',(1.,0.,0.));
#370=DIRECTION('ref_axis',(0.,2.4054832200212E-015,1.));
#371=DIRECTION('center_axis',(-1.,0.,0.));
#372=DIRECTION('ref_axis',(0.,0.435889894354067,0.9));
#373=DIRECTION('center_axis',(1.,0.,0.));
#374=DIRECTION('ref_axis',(0.,0.435889894354069,0.899999999999999));
#375=DIRECTION($,(0.,1.,-2.08666945034082E-016));
#376=DIRECTION('center_axis',(0.707106781186548,-0.707106781186548,0.));
#377=DIRECTION('ref_axis',(0.,0.,-1.));
#378=DIRECTION($,(0.707106781186548,0.707106781186548,0.));
#379=DIRECTION($,(0.,0.,-1.));
#380=DIRECTION('center_axis',(0.,0.,-1.));
#381=DIRECTION('ref_axis',(0.,1.,0.));
#382=DIRECTION('center_axis',(0.,0.,1.));
#383=DIRECTION('ref_axis',(-1.,0.,0.));
#384=DIRECTION($,(1.,0.,0.));
#385=DIRECTION($,(0.707106781186548,-0.707106781186547,0.));
#386=DIRECTION($,(0.,-1.,0.));
#387=DIRECTION($,(1.,0.,0.));
#388=DIRECTION('center_axis',(0.,-1.,0.));
#389=DIRECTION('ref_axis',(0.,0.,-1.));
#390=DIRECTION($,(0.,0.,1.));
#391=DIRECTION('center_axis',(-0.707106781186547,-0.707106781186548,0.));
#392=DIRECTION('ref_axis',(0.,0.,1.));
#393=DIRECTION($,(0.,0.,-1.));
#394=DIRECTION('center_axis',(0.,1.38777878078145E-016,-1.));
#395=DIRECTION('ref_axis',(-1.,0.,0.));
#396=DIRECTION('center_axis',(0.,2.08666945034082E-016,1.));
#397=DIRECTION('ref_axis',(-1.,0.,0.));
#398=DIRECTION('center_axis',(0.,1.38777878078145E-016,-1.));
#399=DIRECTION('ref_axis',(-1.,0.,0.));
#400=DIRECTION('center_axis',(0.,-2.08666945034082E-016,-1.));
#401=DIRECTION('ref_axis',(0.,1.,-2.08666945034082E-016));
#402=DIRECTION($,(1.,0.,0.));
#403=DIRECTION($,(0.,-1.,2.08666945034082E-016));
#404=DIRECTION('center_axis',(1.,0.,0.));
#405=DIRECTION('ref_axis',(0.,0.435889894354069,0.899999999999999));
#406=DIRECTION('center_axis',(-1.,0.,0.));
#407=DIRECTION('ref_axis',(0.,0.435889894354069,0.899999999999999));
#408=DIRECTION($,(1.,0.,0.));
#409=DIRECTION('center_axis',(1.,0.,0.));
#410=DIRECTION('ref_axis',(0.,0.435889894354067,0.9));
#411=DIRECTION('center_axis',(1.,0.,0.));
#412=DIRECTION('ref_axis',(0.,0.435889894354067,0.9));
#413=DIRECTION($,(1.,0.,0.));
#414=DIRECTION('center_axis',(1.,0.,0.));
#415=DIRECTION('ref_axis',(0.,2.4054832200212E-015,1.));
#416=DIRECTION('center_axis',(-1.,0.,0.));
#417=DIRECTION('ref_axis',(0.,2.4054832200212E-015,1.));
#418=DIRECTION('center_axis',(1.,0.,0.));
#419=DIRECTION('ref_axis',(0.,0.,-1.));
#420=CARTESIAN_POINT('',(0.,0.,0.));
#421=CARTESIAN_POINT('Origin',(1.,14.,0.797533871817042));
#422=CARTESIAN_POINT('',(2.,15.,-9.99200722162641E-015));
#423=CARTESIAN_POINT('',(0.,13.,-9.57467333155824E-015));
#424=CARTESIAN_POINT($,(-1.66027526411483,11.3397247358852,-9.22872889219661E-015));
#425=CARTESIAN_POINT('',(0.,13.,2.99999999999999));
#426=CARTESIAN_POINT($,(0.,13.,0.797533871817042));
#427=CARTESIAN_POINT('',(2.,15.,2.99999999999999));
#428=CARTESIAN_POINT($,(1.,14.,2.99999999999999));
#429=CARTESIAN_POINT($,(2.,15.,0.797533871817042));
#430=CARTESIAN_POINT('Origin',(0.,15.,-9.99200722162641E-015));
#431=CARTESIAN_POINT('',(6.,15.,2.99999999999999));
#432=CARTESIAN_POINT($,(0.,15.,2.99999999999999));
#433=CARTESIAN_POINT('',(6.,15.,-9.99200722162641E-015));
#434=CARTESIAN_POINT($,(6.,15.,0.797533871817042));
#435=CARTESIAN_POINT($,(0.,15.,-9.99200722162641E-015));
#436=CARTESIAN_POINT('Origin',(0.,15.,2.99999999999999));
#437=CARTESIAN_POINT('',(0.,-13.,2.99999999999999));
#438=CARTESIAN_POINT($,(0.,-15.,2.99999999999999));
#439=CARTESIAN_POINT('',(2.,-15.,2.99999999999999));
#440=CARTESIAN_POINT($,(-6.5,-6.5,2.99999999999999));
#441=CARTESIAN_POINT('',(6.,-15.,2.99999999999999));
#442=CARTESIAN_POINT($,(0.,-15.,2.99999999999999));
#443=CARTESIAN_POINT('',(8.,-13.,2.99999999999999));
#444=CARTESIAN_POINT($,(12.5,-8.5,2.99999999999999));
#445=CARTESIAN_POINT('',(8.,13.,2.99999999999999));
#446=CARTESIAN_POINT($,(8.,-15.,2.99999999999999));
#447=CARTESIAN_POINT($,(5.,16.,2.99999999999999));
#448=CARTESIAN_POINT('',(5.5,9.5,2.99999999999999));
#449=CARTESIAN_POINT('Origin',(4.,9.5,2.99999999999999));
#450=CARTESIAN_POINT('',(5.5,-9.5,2.99999999999999));
#451=CARTESIAN_POINT('Origin',(4.,-9.5,2.99999999999999));
#452=CARTESIAN_POINT('Origin',(7.,14.,0.797533871817042));
#453=CARTESIAN_POINT('',(8.,13.,-9.57467333155824E-015));
#454=CARTESIAN_POINT($,(8.,13.,0.797533871817042));
#455=CARTESIAN_POINT($,(7.66027526411483,13.3397247358852,-9.64506252643105E-015));
#456=CARTESIAN_POINT('Origin',(8.,-2.60015117724133E-016,1.59506774363409));
#457=CARTESIAN_POINT('',(8.,-13.,-9.99200722162641E-015));
#458=CARTESIAN_POINT($,(8.,-13.,2.29753387181704));
#459=CARTESIAN_POINT('',(8.,-4.35889894354067,-9.99200722162641E-015));
#460=CARTESIAN_POINT($,(8.,-4.35889894354067,-9.99200722162641E-015));
#461=CARTESIAN_POINT('',(8.,-1.74355957741627,0.599999999999991));
#462=CARTESIAN_POINT('Origin',(8.,-4.35889894354066,5.99999999999991));
#463=CARTESIAN_POINT('',(8.,1.74355957741627,0.599999999999991));
#464=CARTESIAN_POINT('Origin',(8.,0.,-3.00000000000001));
#465=CARTESIAN_POINT('',(8.,4.35889894354067,-7.7715611723761E-015));
#466=CARTESIAN_POINT('Origin',(8.,4.35889894354066,5.99999999999994));
#467=CARTESIAN_POINT($,(8.,15.,-9.99200722162641E-015));
#468=CARTESIAN_POINT('Origin',(7.,-14.,2.29753387181704));
#469=CARTESIAN_POINT('',(6.,-15.,-9.99200722162641E-015));
#470=CARTESIAN_POINT($,(5.,-16.,-1.01307850997046E-014));
#471=CARTESIAN_POINT($,(6.,-15.,2.29753387181704));
#472=CARTESIAN_POINT('Origin',(0.,-15.,-9.99200722162641E-015));
#473=CARTESIAN_POINT('',(5.5,-9.5,-9.43689570931383E-015));
#474=CARTESIAN_POINT('Origin',(4.,-9.5,-9.43689570931383E-015));
#475=CARTESIAN_POINT('',(2.,-15.,-9.99200722162641E-015));
#476=CARTESIAN_POINT($,(0.,-15.,-9.99200722162641E-015));
#477=CARTESIAN_POINT('',(0.,-13.,-9.99200722162641E-015));
#478=CARTESIAN_POINT($,(1.,-14.,-1.01307850997046E-014));
#479=CARTESIAN_POINT('',(0.,-4.35889894354067,-9.99200722162641E-015));
#480=CARTESIAN_POINT($,(0.,-4.35889894354067,-9.99200722162641E-015));
#481=CARTESIAN_POINT($,(0.,-4.35889894354067,-9.99200722162641E-015));
#482=CARTESIAN_POINT('Origin',(0.,-15.,2.99999999999999));
#483=CARTESIAN_POINT($,(2.,-15.,2.29753387181704));
#484=CARTESIAN_POINT('Origin',(1.,-14.,2.29753387181704));
#485=CARTESIAN_POINT($,(0.,-13.,2.29753387181704));
#486=CARTESIAN_POINT('Origin',(4.,9.5,2.99999999999999));
#487=CARTESIAN_POINT('',(5.5,9.5,-7.21644966006352E-015));
#488=CARTESIAN_POINT('Origin',(4.,9.5,-7.21644966006352E-015));
#489=CARTESIAN_POINT('Origin',(4.,-9.5,2.99999999999999));
#490=CARTESIAN_POINT('Origin',(0.,4.35889894354067,-7.7715611723761E-015));
#491=CARTESIAN_POINT('',(0.,4.35889894354067,-7.7715611723761E-015));
#492=CARTESIAN_POINT($,(0.,4.35889894354067,-7.7715611723761E-015));
#493=CARTESIAN_POINT($,(0.,15.,-9.99200722162641E-015));
#494=CARTESIAN_POINT('Origin',(0.,4.35889894354066,5.99999999999994));
#495=CARTESIAN_POINT('',(0.,1.74355957741627,0.599999999999991));
#496=CARTESIAN_POINT('Origin',(0.,4.35889894354066,5.99999999999994));
#497=CARTESIAN_POINT($,(0.,1.74355957741627,0.599999999999991));
#498=CARTESIAN_POINT('Origin',(0.,0.,-3.00000000000001));
#499=CARTESIAN_POINT('',(0.,-1.74355957741627,0.599999999999991));
#500=CARTESIAN_POINT('Origin',(0.,0.,-3.00000000000001));
#501=CARTESIAN_POINT($,(0.,-1.74355957741627,0.599999999999991));
#502=CARTESIAN_POINT('Origin',(0.,-4.35889894354066,5.99999999999991));
#503=CARTESIAN_POINT('Origin',(0.,-4.35889894354066,5.99999999999991));
#504=CARTESIAN_POINT('Origin',(0.,-2.60015117724133E-016,1.59506774363409));
#505=UNCERTAINTY_MEASURE_WITH_UNIT(LENGTH_MEASURE(0.01),#507,
'DISTANCE_ACCURACY_VALUE',
'Maximum model space distance between geometric entities at asserted c
onnectivities');
#506=(
GEOMETRIC_REPRESENTATION_CONTEXT(3)
GLOBAL_UNCERTAINTY_ASSIGNED_CONTEXT((#505))
GLOBAL_UNIT_ASSIGNED_CONTEXT((#507,#510,#508))
REPRESENTATION_CONTEXT('','3D')
);
#507=(
LENGTH_UNIT()
NAMED_UNIT(*)
SI_UNIT(.MILLI.,.METRE.)
);
#508=(
NAMED_UNIT(*)
SI_UNIT($,.STERADIAN.)
SOLID_ANGLE_UNIT()
);
#509=DIMENSIONAL_EXPONENTS(0.,0.,0.,0.,0.,0.,0.);
#510=(
CONVERSION_BASED_UNIT('degree',#512)
NAMED_UNIT(#509)
PLANE_ANGLE_UNIT()
);
#511=(
NAMED_UNIT(*)
PLANE_ANGLE_UNIT()
SI_UNIT($,.RADIAN.)
);
#512=PLANE_ANGLE_MEASURE_WITH_UNIT(PLANE_ANGLE_MEASURE(0.01745329252),#511);
#513=SHAPE_DEFINITION_REPRESENTATION(#514,#515);
#514=PRODUCT_DEFINITION_SHAPE('',$,#517);
#515=SHAPE_REPRESENTATION('',(#309),#506);
#516=PRODUCT_DEFINITION_CONTEXT('3D Mechanical Parts',#520,'design');
#517=PRODUCT_DEFINITION('Clip','Clip',#518,#516);
#518=PRODUCT_DEFINITION_FORMATION('',$,#522);
#519=APPLICATION_PROTOCOL_DEFINITION('international standard',
'automotive_design',2009,#520);
#520=APPLICATION_CONTEXT(
'Core Data for Automotive Mechanical Design Process');
#521=PRODUCT_CONTEXT('3D Mechanical Parts',#520,'mechanical');
#522=PRODUCT('Clip','Clip',$,(#521));
#523=PRESENTATION_STYLE_ASSIGNMENT((#524));
#524=SURFACE_STYLE_USAGE(.BOTH.,#525);
#525=SURFACE_SIDE_STYLE($,(#526));
#526=SURFACE_STYLE_FILL_AREA(#527);
#527=FILL_AREA_STYLE($,(#528));
#528=FILL_AREA_STYLE_COLOUR($,#529);
#529=COLOUR_RGB('',0.749019607843137,0.749019607843137,0.749019607843137);
ENDSEC;
END-ISO-10303-21;
