  0
SECTION
  2
HEADER
  9
$ACADVER
  1
AC1015
  9
$ACADMAINTVER
 70
     6
  9
$DWGCODEPAGE
  3
ANSI_1252
  9
$INSBASE
 10
0.0
 20
0.0
 30
0.0
  9
$EXTMIN
 10
0.0
 20
0.0
 30
0.0
  9
$EXTMAX
 10
48.0
 20
36.0
 30
0.0
  9
$LIMMIN
 10
0.0
 20
0.0
  9
$LIMMAX
 10
48.0
 20
36.0
  9
$ORTHOMODE
 70
     0
  9
$REGENMODE
 70
     1
  9
$FILLMODE
 70
     1
  9
$QTEXTMODE
 70
     0
  9
$MIRRTEXT
 70
     1
  9
$LTSCALE
 40
1.0
  9
$ATTMODE
 70
     1
  9
$TEXTSIZE
 40
0.125
  9
$TRACEWID
 40
0.05
  9
$TEXTSTYLE
  7
Standard
  9
$CLAYER
  8
0
  9
$CELTYPE
  6
ByLayer
  9
$CECOLOR
 62
   256
  9
$CELTSCALE
 40
1.0
  9
$DISPSILH
 70
     0
  9
$DIMSCALE
 40
1.0
  9
$DIMASZ
 40
0.13
  9
$DIMEXO
 40
0.05
  9
$DIMDLI
 40
0.38
  9
$DIMRND
 40
0.0
  9
$DIMDLE
 40
0.0
  9
$DIMEXE
 40
0.125
  9
$DIMTP
 40
0.0
  9
$DIMTM
 40
0.0
  9
$DIMTXT
 40
0.125
  9
$DIMCEN
 40
0.09
  9
$DIMTSZ
 40
0.0
  9
$DIMTOL
 70
     0
  9
$DIMLIM
 70
     0
  9
$DIMTIH
 70
     1
  9
$DIMTOH
 70
     1
  9
$DIMSE1
 70
     0
  9
$DIMSE2
 70
     0
  9
$DIMTAD
 70
     0
  9
$DIMZIN
 70
     0
  9
$DIMBLK
  1

  9
$DIMASO
 70
     1
  9
$DIMSHO
 70
     1
  9
$DIMPOST
  1

  9
$DIMAPOST
  1

  9
$DIMALT
 70
     0
  9
$DIMALTD
 70
     2
  9
$DIMALTF
 40
25.4
  9
$DIMLFAC
 40
1.0
  9
$DIMTOFL
 70
     0
  9
$DIMTVP
 40
0.0
  9
$DIMTIX
 70
     0
  9
$DIMSOXD
 70
     0
  9
$DIMSAH
 70
     0
  9
$DIMBLK1
  1

  9
$DIMBLK2
  1

  9
$DIMSTYLE
  2
Standard
  9
$DIMCLRD
 70
     0
  9
$DIMCLRE
 70
     0
  9
$DIMCLRT
 70
     0
  9
$DIMTFAC
 40
1.0
  9
$DIMGAP
 40
0.06
  9
$DIMJUST
 70
     0
  9
$DIMSD1
 70
     0
  9
$DIMSD2
 70
     0
  9
$DIMTOLJ
 70
     1
  9
$DIMTZIN
 70
     0
  9
$DIMALTZ
 70
     0
  9
$DIMALTTZ
 70
     0
  9
$DIMUPT
 70
     0
  9
$DIMDEC
 70
     2
  9
$DIMTDEC
 70
     2
  9
$DIMALTU
 70
     2
  9
$DIMALTTD
 70
     2
  9
$DIMTXSTY
  7
Standard
  9
$DIMAUNIT
 70
     0
  9
$DIMADEC
 70
     2
  9
$DIMALTRND
 40
0.0
  9
$DIMAZIN
 70
     0
  9
$DIMDSEP
 70
    46
  9
$DIMATFIT
 70
     3
  9
$DIMFRAC
 70
     0
  9
$DIMLDRBLK
  1

  9
$DIMLUNIT
 70
     2
  9
$DIMLWD
 70
    -2
  9
$DIMLWE
 70
    -2
  9
$DIMTMOVE
 70
     0
  9
$LUNITS
 70
     2
  9
$LUPREC
 70
     2
  9
$SKETCHINC
 40
0.1
  9
$FILLETRAD
 40
0.5
  9
$AUNITS
 70
     0
  9
$AUPREC
 70
     2
  9
$MENU
  1
.
  9
$ELEVATION
 40
0.0
  9
$PELEVATION
 40
0.0
  9
$THICKNESS
 40
0.0
  9
$LIMCHECK
 70
     0
  9
$CHAMFERA
 40
0.0
  9
$CHAMFERB
 40
0.0
  9
$CHAMFERC
 40
0.0
  9
$CHAMFERD
 40
0.0
  9
$SKPOLY
 70
     0
  9
$TDCREATE
 40
2458934.698848472
  9
$TDUCREATE
 40
2458934.948848472
  9
$TDUPDATE
 40
2458934.698849028
  9
$TDUUPDATE
 40
2458934.948849028
  9
$TDINDWG
 40
0.0000000116
  9
$TDUSRTIMER
 40
0.0000000116
  9
$USRTIMER
 70
     1
  9
$ANGBASE
 50
0.0
  9
$ANGDIR
 70
     0
  9
$PDMODE
 70
     0
  9
$PDSIZE
 40
-1.0
  9
$PLINEWID
 40
0.0
  9
$SPLFRAME
 70
     0
  9
$SPLINETYPE
 70
     6
  9
$SPLINESEGS
 70
     8
  9
$HANDSEED
  5
C9
  9
$SURFTAB1
 70
     6
  9
$SURFTAB2
 70
     6
  9
$SURFTYPE
 70
     6
  9
$SURFU
 70
     6
  9
$SURFV
 70
     6
  9
$UCSBASE
  2

  9
$UCSNAME
  2

  9
$UCSORG
 10
0.0
 20
0.0
 30
0.0
  9
$UCSXDIR
 10
1.0
 20
0.0
 30
0.0
  9
$UCSYDIR
 10
0.0
 20
1.0
 30
0.0
  9
$UCSORTHOREF
  2

  9
$UCSORTHOVIEW
 70
     0
  9
$UCSORGTOP
 10
0.0
 20
0.0
 30
0.0
  9
$UCSORGBOTTOM
 10
0.0
 20
0.0
 30
0.0
  9
$UCSORGLEFT
 10
0.0
 20
0.0
 30
0.0
  9
$UCSORGRIGHT
 10
0.0
 20
0.0
 30
0.0
  9
$UCSORGFRONT
 10
0.0
 20
0.0
 30
0.0
  9
$UCSORGBACK
 10
0.0
 20
0.0
 30
0.0
  9
$PUCSBASE
  2

  9
$PUCSNAME
  2

  9
$PUCSORG
 10
0.0
 20
0.0
 30
0.0
  9
$PUCSXDIR
 10
1.0
 20
0.0
 30
0.0
  9
$PUCSYDIR
 10
0.0
 20
1.0
 30
0.0
  9
$PUCSORTHOREF
  2

  9
$PUCSORTHOVIEW
 70
     0
  9
$PUCSORGTOP
 10
0.0
 20
0.0
 30
0.0
  9
$PUCSORGBOTTOM
 10
0.0
 20
0.0
 30
0.0
  9
$PUCSORGLEFT
 10
0.0
 20
0.0
 30
0.0
  9
$PUCSORGRIGHT
 10
0.0
 20
0.0
 30
0.0
  9
$PUCSORGFRONT
 10
0.0
 20
0.0
 30
0.0
  9
$PUCSORGBACK
 10
0.0
 20
0.0
 30
0.0
  9
$USERI1
 70
     0
  9
$USERI2
 70
     0
  9
$USERI3
 70
     0
  9
$USERI4
 70
     0
  9
$USERI5
 70
     0
  9
$USERR1
 40
0.0
  9
$USERR2
 40
0.0
  9
$USERR3
 40
0.0
  9
$USERR4
 40
0.0
  9
$USERR5
 40
0.0
  9
$WORLDVIEW
 70
     1
  9
$SHADEDGE
 70
     3
  9
$SHADEDIF
 70
    70
  9
$TILEMODE
 70
     1
  9
$MAXACTVP
 70
    64
  9
$PINSBASE
 10
0.0
 20
0.0
 30
0.0
  9
$PLIMCHECK
 70
     0
  9
$PEXTMIN
 10
1.0000000000E+20
 20
1.0000000000E+20
 30
1.0000000000E+20
  9
$PEXTMAX
 10
-1.0000000000E+20
 20
-1.0000000000E+20
 30
-1.0000000000E+20
  9
$PLIMMIN
 10
0.0
 20
0.0
  9
$PLIMMAX
 10
12.0
 20
9.0
  9
$UNITMODE
 70
     0
  9
$VISRETAIN
 70
     1
  9
$PLINEGEN
 70
     0
  9
$PSLTSCALE
 70
     1
  9
$TREEDEPTH
 70
  3020
  9
$CMLSTYLE
  2
Standard
  9
$CMLJUST
 70
     0
  9
$CMLSCALE
 40
1.0
  9
$PROXYGRAPHICS
 70
     1
  9
$MEASUREMENT
 70
     0
  9
$CELWEIGHT
370
    -1
  9
$ENDCAPS
280
     0
  9
$JOINSTYLE
280
     0
  9
$LWDISPLAY
290
     1
  9
$INSUNITS
 70
     1
  9
$HYPERLINKBASE
  1

  9
$STYLESHEET
  1

  9
$XEDIT
290
     1
  9
$CEPSNTYPE
380
     0
  9
$PSTYLEMODE
290
     1
  9
$FINGERPRINTGUID
  2
{3BBDBE61-B7C7-484C-A96F-84411A30838D}
  9
$VERSIONGUID
  2
{FAEB1C32-E019-11D5-929B-00C0DF256EC4}
  9
$EXTNAMES
290
     1
  9
$PSVPSCALE
 40
0.0
  9
$OLESTARTUP
290
     0
  0
ENDSEC
  0
SECTION
  2
CLASSES
  0
CLASS
  1
ACDBDICTIONARYWDFLT
  2
AcDbDictionaryWithDefault
  3
ObjectDBX Classes
 90
        0
280
     0
281
     0
  0
CLASS
  1
VISUALSTYLE
  2
AcDbVisualStyle
  3
ObjectDBX Classes
 90
     4095
280
     0
281
     0
  0
CLASS
  1
MATERIAL
  2
AcDbMaterial
  3
ObjectDBX Classes
 90
     1153
280
     0
281
     0
  0
CLASS
  1
SCALE
  2
AcDbScale
  3
ObjectDBX Classes
 90
     1153
280
     0
281
     0
  0
CLASS
  1
TABLESTYLE
  2
AcDbTableStyle
  3
ObjectDBX Classes
 90
     4095
280
     0
281
     0
  0
CLASS
  1
MLEADERSTYLE
  2
AcDbMLeaderStyle
  3
ACDB_MLEADERSTYLE_CLASS
 90
     4095
280
     0
281
     0
  0
CLASS
  1
SUN
  2
AcDbSun
  3
SCENEOE
 90
     1153
280
     0
281
     0
  0
CLASS
  1
ACDBPLACEHOLDER
  2
AcDbPlaceHolder
  3
ObjectDBX Classes
 90
        0
280
     0
281
     0
  0
CLASS
  1
LAYOUT
  2
AcDbLayout
  3
ObjectDBX Classes
 90
        0
280
     0
281
     0
  0
ENDSEC
  0
SECTION
  2
TABLES
  0
TABLE
  2
VPORT
  5
8
330
0
100
AcDbSymbolTable
 70
     1
  0
VPORT
  5
29
330
8
100
AcDbSymbolTableRecord
100
AcDbViewportTableRecord
  2
*Active
 70
     0
 10
0.0
 20
0.0
 11
1.0
 21
1.0
 12
24.0
 22
18.0
 13
0.0
 23
0.0
 14
0.5
 24
0.5
 15
0.5
 25
0.5
 16
0.0
 26
0.0
 36
1.0
 17
0.0
 27
0.0
 37
0.0
 40
36.0
 41
1.3333333333
 42
50.0
 43
0.0
 44
0.0
 50
0.0
 51
0.0
 71
     0
 72
  2000
 73
     1
 74
     3
 75
     0
 76
     0
 77
     0
 78
     0
281
     0
 65
     1
110
0.0
120
0.0
130
0.0
111
1.0
121
0.0
131
0.0
112
0.0
122
1.0
132
0.0
 79
     0
146
0.0
  0
ENDTAB
  0
TABLE
  2
LTYPE
  5
5
330
0
100
AcDbSymbolTable
 70
     6
  0
LTYPE
  5
14
330
5
100
AcDbSymbolTableRecord
100
AcDbLinetypeTableRecord
  2
ByBlock
 70
     0
  3

 72
    65
 73
     0
 40
0.0
  0
LTYPE
  5
15
330
5
100
AcDbSymbolTableRecord
100
AcDbLinetypeTableRecord
  2
ByLayer
 70
     0
  3

 72
    65
 73
     0
 40
0.0
  0
LTYPE
  5
16
330
5
100
AcDbSymbolTableRecord
100
AcDbLinetypeTableRecord
  2
Continuous
 70
     0
  3
Solid line
 72
    65
 73
     0
 40
0.0
  0
LTYPE
  5
6E
330
5
100
AcDbSymbolTableRecord
100
AcDbLinetypeTableRecord
  2
HIDDEN
 70
     0
  3
Hidden __ __ __ __ __ __ __ __ __ __ __ __ __ __
 72
    65
 73
     2
 40
0.075
 49
0.05
 74
     0
 49
-0.025
 74
     0
  0
LTYPE
  5
6F
330
5
100
AcDbSymbolTableRecord
100
AcDbLinetypeTableRecord
  2
PHANTOM
 70
     0
  3
Phantom ______  __  __  ______  __  __  ______
 72
    65
 73
     6
 40
0.5
 49
0.25
 74
     0
 49
-0.05
 74
     0
 49
0.05
 74
     0
 49
-0.05
 74
     0
 49
0.05
 74
     0
 49
-0.05
 74
     0
  0
LTYPE
  5
70
330
5
100
AcDbSymbolTableRecord
100
AcDbLinetypeTableRecord
  2
CENTER
 70
     0
  3
Center ____ _ ____ _ ____ _ ____ _ ____ _ ____
 72
    65
 73
     4
 40
0.4
 49
0.25
 74
     0
 49
-0.05
 74
     0
 49
0.05
 74
     0
 49
-0.05
 74
     0
  0
LTYPE
  5
71
330
5
100
AcDbSymbolTableRecord
100
AcDbLinetypeTableRecord
  2
CENTERX2
 70
     0
  3
Center (2x) ________  __  ________  __  _____
 72
    65
 73
     4
 40
0.8
 49
0.5
 74
     0
 49
-0.1
 74
     0
 49
0.1
 74
     0
 49
-0.1
 74
     0
  0
LTYPE
  5
72
330
5
100
AcDbSymbolTableRecord
100
AcDbLinetypeTableRecord
  2
DOT2
 70
     0
  3
Dot (.5x) ........................................
 72
    65
 73
     2
 40
0.025
 49
0.0
 74
     0
 49
-0.025
 74
     0
  0
ENDTAB
  0
TABLE
  2
LAYER
  5
2
330
0
100
AcDbSymbolTable
 70
     2
  0
LAYER
  5
10
330
2
100
AcDbSymbolTableRecord
100
AcDbLayerTableRecord
  2
0
 70
     0
 62
     7
  6
Continuous
370
    -3
390
F
  0
LAYER
  5
73
330
2
100
AcDbSymbolTableRecord
100
AcDbLayerTableRecord
  2
FORMAT
 70
     0
 62
     7
  6
Continuous
370
    -3
390
F
  0
ENDTAB
  0
TABLE
  2
STYLE
  5
3
330
0
100
AcDbSymbolTable
 70
     2
  0
STYLE
  5
11
330
3
100
AcDbSymbolTableRecord
100
AcDbTextStyleTableRecord
  2
Standard
 70
     0
 40
0.0
 41
1.0
 50
0.0
 71
     0
 42
0.125
  3
txt
  4

  0
STYLE
  5
C5
330
3
100
AcDbSymbolTableRecord
100
AcDbTextStyleTableRecord
  2
SLDTEXTSTYLE0
 70
     0
 40
0.0
 41
0.75
 50
0.0
 71
     0
 42
0.125
  3
TXT
  4

  0
ENDTAB
  0
TABLE
  2
VIEW
  5
6
330
0
100
AcDbSymbolTable
 70
     0
  0
ENDTAB
  0
TABLE
  2
UCS
  5
7
330
0
100
AcDbSymbolTable
 70
     0
  0
ENDTAB
  0
TABLE
  2
APPID
  5
9
330
0
100
AcDbSymbolTable
 70
     1
  0
APPID
  5
12
330
9
100
AcDbSymbolTableRecord
100
AcDbRegAppTableRecord
  2
ACAD
 70
     0
  0
ENDTAB
  0
TABLE
  2
DIMSTYLE
  5
A
330
0
100
AcDbSymbolTable
 70
     1
100
AcDbDimStyleTable
  0
DIMSTYLE
105
27
330
A
100
AcDbSymbolTableRecord
100
AcDbDimStyleTableRecord
  2
Standard
 70
     0
178
     0
340
11
  0
ENDTAB
  0
TABLE
  2
BLOCK_RECORD
  5
1
330
0
100
AcDbSymbolTable
 70
     2
  0
BLOCK_RECORD
  5
1F
330
1
100
AcDbSymbolTableRecord
100
AcDbBlockTableRecord
  2
*Model_Space
340
22
  0
BLOCK_RECORD
  5
1B
330
1
100
AcDbSymbolTableRecord
100
AcDbBlockTableRecord
  2
*Paper_Space
340
1E
  0
BLOCK_RECORD
  5
23
330
1
100
AcDbSymbolTableRecord
100
AcDbBlockTableRecord
  2
*Paper_Space0
340
26
  0
BLOCK_RECORD
  5
C2
330
1
100
AcDbSymbolTableRecord
100
AcDbBlockTableRecord
  2
SW_NOTE_0
340
0
102
{BLKREFS
331
C8
102
}
  0
ENDTAB
  0
ENDSEC
  0
SECTION
  2
BLOCKS
  0
BLOCK
  5
20
330
1F
100
AcDbEntity
  8
0
100
AcDbBlockBegin
  2
*Model_Space
 70
     0
 10
0.0
 20
0.0
 30
0.0
  3
*Model_Space
  1

  0
ENDBLK
  5
21
330
1F
100
AcDbEntity
  8
0
100
AcDbBlockEnd
  0
BLOCK
  5
1C
330
1B
100
AcDbEntity
 67
     1
  8
0
100
AcDbBlockBegin
  2
*Paper_Space
 70
     0
 10
0.0
 20
0.0
 30
0.0
  3
*Paper_Space
  1

  0
ENDBLK
  5
1D
330
1B
100
AcDbEntity
 67
     1
  8
0
100
AcDbBlockEnd
  0
BLOCK
  5
24
330
23
100
AcDbEntity
  8
0
100
AcDbBlockBegin
  2
*Paper_Space0
 70
     0
 10
0.0
 20
0.0
 30
0.0
  3
*Paper_Space0
  1

  0
ENDBLK
  5
25
330
23
100
AcDbEntity
  8
0
100
AcDbBlockEnd
  0
BLOCK
  5
C3
330
C2
100
AcDbEntity
  8
0
100
AcDbBlockBegin
  2
SW_NOTE_0
 70
     0
 10
0.0
 20
0.0
 30
0.0
  3
SW_NOTE_0
  1

  0
MTEXT
  5
C6
330
C2
100
AcDbEntity
  8
0
  6
Continuous
 62
     0
370
     0
100
AcDbMText
 10
0.0
 20
0.3759780908
 30
0.0
 40
0.2916666667
 41
0.0
 71
     1
 72
     1
  1
Instagram @maker_Artist
  7
SLDTEXTSTYLE0
 73
     1
 44
1.0
  0
MTEXT
  5
C7
330
C2
100
AcDbEntity
  8
0
  6
Continuous
 62
     0
370
     0
100
AcDbMText
 10
0.0
 20
-0.0522808786
 30
0.0
 40
0.2916666667
 41
0.0
 71
     1
 72
     1
  1
David Yakos
  7
SLDTEXTSTYLE0
 73
     1
 44
1.0
  0
ENDBLK
  5
C4
330
C2
100
AcDbEntity
  8
0
100
AcDbBlockEnd
  0
ENDSEC
  0
SECTION
  2
ENTITIES
  0
LINE
  5
74
330
1F
100
AcDbEntity
  8
0
  6
Continuous
 62
     7
370
    25
100
AcDbLine
 10
7.6915241548
 20
33.0659232021
 30
0.0
 11
7.6915241548
 21
33.1485074301
 31
0.0
  0
ARC
  5
75
330
1F
100
AcDbEntity
  8
0
  6
Continuous
 62
     7
370
    25
100
AcDbCircle
 10
7.6915241548
 20
32.9722320983
 30
0.0
 40
0.09369110380878
100
AcDbArc
 50
90.0
 51
93.1821236421
  0
LINE
  5
76
330
1F
100
AcDbEntity
  8
0
  6
Continuous
 62
     7
370
    25
100
AcDbLine
 10
7.6863233628
 20
33.0657787428
 30
0.0
 11
6.241825735
 21
32.9854708734
 31
0.0
  0
ARC
  5
77
330
1F
100
AcDbEntity
  8
0
  6
Continuous
 62
     7
370
    25
100
AcDbCircle
 10
6.244600312
 20
32.9355645575
 30
0.0
 40
0.0499833836420355
100
AcDbArc
 50
93.1821236421
 51
269.7212023043
  0
LINE
  5
78
330
1F
100
AcDbEntity
  8
0
  6
Continuous
 62
     7
370
    25
100
AcDbLine
 10
6.2443570969
 20
32.8855817656
 30
0.0
 11
7.6910682616
 21
32.8785421036
 31
0.0
  0
ARC
  5
79
330
1F
100
AcDbEntity
  8
0
  6
Continuous
 62
     7
370
    25
100
AcDbCircle
 10
7.6915241548
 20
32.9722320983
 30
0.0
 40
0.0936911038087913
100
AcDbArc
 50
269.7212023043
 51
270.0
  0
LINE
  5
7A
330
1F
100
AcDbEntity
  8
0
  6
Continuous
 62
     7
370
    25
100
AcDbLine
 10
7.6915241548
 20
32.7981442534
 30
0.0
 11
7.6915241548
 21
32.8785409945
 31
0.0
  0
LINE
  5
7B
330
1F
100
AcDbEntity
  8
0
  6
Continuous
 62
     7
370
    25
100
AcDbLine
 10
7.6915241548
 20
32.7981442534
 30
0.0
 11
7.623136092
 21
32.7248055314
 31
0.0
  0
LWPOLYLINE
  5
7C
330
1F
100
AcDbEntity
  8
0
  6
Continuous
 62
     7
370
    25
100
AcDbPolyline
 90
        9
 70
   128
 43
0.0
 10
7.5796691015
 20
32.7256737771
 10
7.5851024844
 20
32.7255657023
 10
7.5905358647
 20
32.7254574972
 10
7.5959692424
 20
32.7253491619
 10
7.6014026175
 20
32.7252406963
 10
7.6068359901
 20
32.7251321005
 10
7.61226936
 20
32.7250233744
 10
7.6177027273
 20
32.724914518
 10
7.623136092
 20
32.7248055314
  0
LINE
  5
7D
330
1F
100
AcDbEntity
  8
0
  6
Continuous
 62
     7
370
    25
100
AcDbLine
 10
7.5796691015
 20
32.7256737771
 30
0.0
 11
7.5796691015
 21
32.7735074301
 31
0.0
  0
LINE
  5
7E
330
1F
100
AcDbEntity
  8
0
  6
Continuous
 62
     7
370
    25
100
AcDbLine
 10
7.5796691015
 20
32.7735074301
 30
0.0
 11
7.3846691015
 21
32.7735074301
 31
0.0
  0
LINE
  5
7F
330
1F
100
AcDbEntity
  8
0
  6
Continuous
 62
     7
370
    25
100
AcDbLine
 10
7.3846691015
 20
32.7735074301
 30
0.0
 11
7.3846691015
 21
32.7294662396
 31
0.0
  0
ARC
  5
80
330
1F
100
AcDbEntity
  8
0
  6
Continuous
 62
     7
370
    25
100
AcDbCircle
 10
3.0744027905
 20
-193.9099867707
 30
0.0
 40
226.6804359808142
100
AcDbArc
 50
88.9104708073
 51
89.9833645061
  0
SPLINE
  5
81
330
1F
100
AcDbEntity
  8
0
  6
Continuous
 62
     7
370
    25
100
AcDbSpline
210
0.0
220
0.0
230
1.0
 70
     8
 71
     3
 72
    17
 73
    13
 74
     0
 42
0.000000001
 43
0.00000001
 40
0.0
 40
0.0
 40
0.0
 40
0.0
 40
0.0070685579120471
 40
0.1204753065090214
 40
0.4791308981950619
 40
0.4938755209040452
 40
0.5134449912633703
 40
0.5413635285238483
 40
0.6205409478091413
 40
0.8196101270862014
 40
0.8915490026853747
 40
1.0
 40
1.0
 40
1.0
 40
1.0
 10
3.140218126151202
 20
33.03453828312362
 30
0.0
 10
3.130850163398855
 20
33.03453828312362
 30
0.0
 10
2.979465803086494
 20
33.03629915641331
 30
0.0
 10
2.380691177966268
 20
32.8045861963361
 30
0.0
 10
1.930438820065872
 20
32.33339593534189
 30
0.0
 10
1.658636103461828
 20
31.91545257551475
 30
0.0
 10
1.643737631377175
 20
31.82701919929693
 30
0.0
 10
1.822968617792269
 20
31.718478960105
 30
0.0
 10
2.047890493240636
 20
32.19919511602777
 30
0.0
 10
2.328123575404654
 20
32.48580605012455
 30
0.0
 10
2.782025217553306
 20
32.68700671844302
 30
0.0
 10
2.991654159497104
 20
32.77048279026435
 30
0.0
 10
3.140218126151202
 20
32.77043965558576
 30
0.0
  0
ARC
  5
82
330
1F
100
AcDbEntity
  8
0
  6
Continuous
 62
     7
370
    25
100
AcDbCircle
 10
3.1402181262
 20
88.6613542322
 30
0.0
 40
55.62681594904656
100
AcDbArc
 50
270.0
 51
274.3760499196
  0
LINE
  5
83
330
1F
100
AcDbEntity
  8
0
  6
Continuous
 62
     7
370
    25
100
AcDbLine
 10
7.3846691015
 20
33.1967052335
 30
0.0
 11
7.3846691015
 21
33.1485074301
 31
0.0
  0
LINE
  5
84
330
1F
100
AcDbEntity
  8
0
  6
Continuous
 62
     7
370
    25
100
AcDbLine
 10
7.3846691015
 20
33.1485074301
 30
0.0
 11
7.5796691015
 21
33.1485074301
 31
0.0
  0
LINE
  5
85
330
1F
100
AcDbEntity
  8
0
  6
Continuous
 62
     7
370
    25
100
AcDbLine
 10
7.5796691015
 20
33.1485074301
 30
0.0
 11
7.5796691015
 21
33.2119725614
 31
0.0
  0
LINE
  5
86
330
1F
100
AcDbEntity
  8
0
  6
Continuous
 62
     7
370
    25
100
AcDbLine
 10
7.6486293151
 20
33.2175368926
 30
0.0
 11
7.6915241548
 21
33.1485074301
 31
0.0
  0
ARC
  5
87
330
1F
100
AcDbEntity
  8
0
  6
Continuous
 62
     7
370
    25
100
AcDbCircle
 10
3.1402181262
 20
88.6613542322
 30
0.0
 40
55.62681594904656
100
AcDbArc
 50
274.5775152424
 51
274.6487753146
  0
LINE
  5
88
330
1F
100
AcDbEntity
  8
0
  6
Continuous
 62
     7
370
    25
100
AcDbLine
 10
14.2343373107
 20
33.1485074301
 30
0.0
 11
14.0393373107
 21
33.1485074301
 31
0.0
  0
SPLINE
  5
89
330
1F
100
AcDbEntity
  8
0
  6
Continuous
 62
     7
370
    25
100
AcDbSpline
210
0.0
220
0.0
230
1.0
 70
     8
 71
     3
 72
    17
 73
    13
 74
     0
 42
0.000000001
 43
0.00000001
 40
0.0
 40
0.0
 40
0.0
 40
0.0
 40
0.0070685579120471
 40
0.1204753065090214
 40
0.4791308981950619
 40
0.4938755209040452
 40
0.5134449912633703
 40
0.5413635285238483
 40
0.6205409478091413
 40
0.8196101270862014
 40
0.8915490026853747
 40
1.0
 40
1.0
 40
1.0
 40
1.0
 10
18.4787882860473
 20
33.03453828312362
 30
0.0
 10
18.48815624879965
 20
33.03453828312362
 30
0.0
 10
18.63954060911201
 20
33.03629915641331
 30
0.0
 10
19.23831523423224
 20
32.8045861963361
 30
0.0
 10
19.68856759213263
 20
32.33339593534189
 30
0.0
 10
19.96037030873667
 20
31.91545257551475
 30
0.0
 10
19.97526878082133
 20
31.82701919929693
 30
0.0
 10
19.79603779440623
 20
31.718478960105
 30
0.0
 10
19.57111591895787
 20
32.19919511602777
 30
0.0
 10
19.29088283679385
 20
32.48580605012455
 30
0.0
 10
18.8369811946452
 20
32.68700671844302
 30
0.0
 10
18.6273522527014
 20
32.77048279026435
 30
0.0
 10
18.4787882860473
 20
32.77043965558576
 30
0.0
  0
ARC
  5
8A
330
1F
100
AcDbEntity
  8
0
  6
Continuous
 62
     7
370
    25
100
AcDbCircle
 10
18.5446036217
 20
-193.9099867707
 30
0.0
 40
226.6804359808142
100
AcDbArc
 50
90.0166354939
 51
91.0895291927
  0
LINE
  5
8B
330
1F
100
AcDbEntity
  8
0
  6
Continuous
 62
     7
370
    25
100
AcDbLine
 10
14.2343373107
 20
32.7735074301
 30
0.0
 11
14.2343373107
 21
32.7294662396
 31
0.0
  0
LINE
  5
8C
330
1F
100
AcDbEntity
  8
0
  6
Continuous
 62
     7
370
    25
100
AcDbLine
 10
14.0393373107
 20
32.7735074301
 30
0.0
 11
14.2343373107
 21
32.7735074301
 31
0.0
  0
LINE
  5
8D
330
1F
100
AcDbEntity
  8
0
  6
Continuous
 62
     7
370
    25
100
AcDbLine
 10
14.0393373107
 20
32.7256737771
 30
0.0
 11
14.0393373107
 21
32.7735074301
 31
0.0
  0
LWPOLYLINE
  5
8E
330
1F
100
AcDbEntity
  8
0
  6
Continuous
 62
     7
370
    25
100
AcDbPolyline
 90
        9
 70
   128
 43
0.0
 10
14.0393373107
 20
32.7256737771
 10
14.0339039278
 20
32.7255657023
 10
14.0284705475
 20
32.7254574972
 10
14.0230371698
 20
32.7253491619
 10
14.0176037947
 20
32.7252406963
 10
14.0121704221
 20
32.7251321005
 10
14.0067370522
 20
32.7250233744
 10
14.0013036849
 20
32.724914518
 10
13.9958703202
 20
32.7248055314
  0
LINE
  5
8F
330
1F
100
AcDbEntity
  8
0
  6
Continuous
 62
     7
370
    25
100
AcDbLine
 10
13.9274822574
 20
32.7981442534
 30
0.0
 11
13.9958703202
 21
32.7248055314
 31
0.0
  0
LINE
  5
90
330
1F
100
AcDbEntity
  8
0
  6
Continuous
 62
     7
370
    25
100
AcDbLine
 10
13.9274822574
 20
32.7981442534
 30
0.0
 11
13.9274822574
 21
32.8785409945
 31
0.0
  0
ARC
  5
91
330
1F
100
AcDbEntity
  8
0
  6
Continuous
 62
     7
370
    25
100
AcDbCircle
 10
13.9274822574
 20
32.9722320983
 30
0.0
 40
0.0936911038087913
100
AcDbArc
 50
270.0
 51
270.2787976957
  0
LINE
  5
92
330
1F
100
AcDbEntity
  8
0
  6
Continuous
 62
     7
370
    25
100
AcDbLine
 10
15.3746493153
 20
32.8855817656
 30
0.0
 11
13.9279381506
 21
32.8785421036
 31
0.0
  0
ARC
  5
93
330
1F
100
AcDbEntity
  8
0
  6
Continuous
 62
     7
370
    25
100
AcDbCircle
 10
15.3744061002
 20
32.9355645575
 30
0.0
 40
0.0499833836420355
100
AcDbArc
 50
270.2787976957
 51
86.8178763579
  0
LINE
  5
94
330
1F
100
AcDbEntity
  8
0
  6
Continuous
 62
     7
370
    25
100
AcDbLine
 10
13.9326830494
 20
33.0657787428
 30
0.0
 11
15.3771806772
 21
32.9854708734
 31
0.0
  0
ARC
  5
95
330
1F
100
AcDbEntity
  8
0
  6
Continuous
 62
     7
370
    25
100
AcDbCircle
 10
13.9274822574
 20
32.9722320983
 30
0.0
 40
0.09369110380878
100
AcDbArc
 50
86.8178763579
 51
90.0
  0
LINE
  5
96
330
1F
100
AcDbEntity
  8
0
  6
Continuous
 62
     7
370
    25
100
AcDbLine
 10
13.9274822574
 20
33.0659232021
 30
0.0
 11
13.9274822574
 21
33.1485074301
 31
0.0
  0
LINE
  5
97
330
1F
100
AcDbEntity
  8
0
  6
Continuous
 62
     7
370
    25
100
AcDbLine
 10
13.9703770971
 20
33.2175368926
 30
0.0
 11
13.9274822574
 21
33.1485074301
 31
0.0
  0
LINE
  5
98
330
1F
100
AcDbEntity
  8
0
  6
Continuous
 62
     7
370
    25
100
AcDbLine
 10
14.2343373107
 20
33.1967052335
 30
0.0
 11
14.2343373107
 21
33.1485074301
 31
0.0
  0
ARC
  5
99
330
1F
100
AcDbEntity
  8
0
  6
Continuous
 62
     7
370
    25
100
AcDbCircle
 10
18.478788286
 20
88.6613542322
 30
0.0
 40
55.62681594904656
100
AcDbArc
 50
265.6239500804
 51
270.0
  0
ARC
  5
9A
330
1F
100
AcDbEntity
  8
0
  6
Continuous
 62
     7
370
    25
100
AcDbCircle
 10
18.478788286
 20
88.6613542322
 30
0.0
 40
55.62681594904656
100
AcDbArc
 50
265.3512246854
 51
265.4224847576
  0
LINE
  5
9B
330
1F
100
AcDbEntity
  8
0
  6
Continuous
 62
     7
370
    25
100
AcDbLine
 10
14.0393373107
 20
33.1485074301
 30
0.0
 11
14.0393373107
 21
33.2119725614
 31
0.0
  0
LINE
  5
9C
330
1F
100
AcDbEntity
  8
0
  6
Continuous
 62
     7
370
    25
100
AcDbLine
 10
8.039963482
 20
33.1838662727
 30
0.0
 11
8.039963482
 21
32.8088662727
 31
0.0
  0
LINE
  5
9D
330
1F
100
AcDbEntity
  8
0
  6
Continuous
 62
     7
370
    25
100
AcDbLine
 10
8.039963482
 20
32.8088662727
 30
0.0
 11
8.234963482
 21
32.8088662727
 31
0.0
  0
LINE
  5
9E
330
1F
100
AcDbEntity
  8
0
  6
Continuous
 62
     7
370
    25
100
AcDbLine
 10
8.234963482
 20
32.8088662727
 30
0.0
 11
8.234963482
 21
33.1838662727
 31
0.0
  0
LINE
  5
9F
330
1F
100
AcDbEntity
  8
0
  6
Continuous
 62
     7
370
    25
100
AcDbLine
 10
8.234963482
 20
33.1838662727
 30
0.0
 11
8.039963482
 21
33.1838662727
 31
0.0
  0
ARC
  5
A0
330
1F
100
AcDbEntity
  8
0
  6
Continuous
 62
     7
370
    25
100
AcDbCircle
 10
13.6540429302
 20
32.7473994105
 30
0.0
 40
0.0500000000000007
100
AcDbArc
 50
286.809551743
 51
0.0
  0
ARC
  5
A1
330
1F
100
AcDbEntity
  8
0
  6
Continuous
 62
     7
370
    25
100
AcDbCircle
 10
13.8135216891
 20
32.2194983536
 30
0.0
 40
0.5014644144013042
100
AcDbArc
 50
106.809551743
 51
145.3641651135
  0
ARC
  5
A2
330
1F
100
AcDbEntity
  8
0
  6
Continuous
 62
     7
370
    25
100
AcDbCircle
 10
13.6125373862
 20
32.358333742
 30
0.0
 40
0.2571900704931698
100
AcDbArc
 50
145.3641651135
 51
167.7220217894
  0
ARC
  5
A3
330
1F
100
AcDbEntity
  8
0
  6
Continuous
 62
     7
370
    25
100
AcDbCircle
 10
13.4100862952
 20
32.4023937134
 30
0.0
 40
0.0499999999999996
100
AcDbArc
 50
167.7220217894
 51
168.2373787626
  0
SPLINE
  5
A4
330
1F
100
AcDbEntity
  8
0
  6
Continuous
 62
     7
370
    25
100
AcDbSpline
210
0.0
220
0.0
230
1.0
 70
     8
 71
     3
 72
    72
 73
    68
 74
     0
 42
0.000000001
 43
0.00000001
 40
0.5668406014276743
 40
0.5668406014276743
 40
0.5668406014276743
 40
0.5668406014276743
 40
0.5876309185505477
 40
0.5876309185505477
 40
0.5876309185505477
 40
0.5895840435505477
 40
0.5895840435505477
 40
0.5915371685505477
 40
0.5954434185505477
 40
0.5954434185505477
 40
0.6032559185505476
 40
0.6032559185505476
 40
0.6188809185505475
 40
0.6188809185505475
 40
0.6345059185505473
 40
0.6345059185505473
 40
0.6501309185505472
 40
0.6501309185505472
 40
0.6657559185505469
 40
0.6657559185505469
 40
0.6813809185505468
 40
0.6813809185505468
 40
0.6891934185505467
 40
0.6891934185505467
 40
0.6970059185505467
 40
0.6970059185505467
 40
0.7126309185505466
 40
0.7126309185505466
 40
0.7282559185505464
 40
0.7282559185505464
 40
0.7438809185505462
 40
0.7438809185505462
 40
0.7751309185505458
 40
0.7751309185505458
 40
0.7907559185505457
 40
0.7907559185505457
 40
0.8063809185505455
 40
0.8063809185505455
 40
0.8376309185505451
 40
0.8376309185505451
 40
0.8688809185505446
 40
0.8688809185505446
 40
0.8845059185505444
 40
0.8845059185505444
 40
0.8923184185505444
 40
0.8923184185505444
 40
0.9001309185505444
 40
0.9001309185505444
 40
0.9313809185505443
 40
0.9313809185505443
 40
0.9391934185505441
 40
0.9391934185505441
 40
0.947005918550544
 40
0.947005918550544
 40
0.9626309185505438
 40
0.9626309185505438
 40
0.9782559185505436
 40
0.9782559185505436
 40
0.9860684185505436
 40
0.9860684185505436
 40
0.9938809185505435
 40
0.9938809185505435
 40
1.009505918550544
 40
1.009505918550544
 40
1.017318418550544
 40
1.017318418550544
 40
1.020790317122873
 40
1.020790317122873
 40
1.020790317122873
 40
1.020790317122873
 10
11.08530404575628
 20
32.70095288613187
 30
0.0
 10
11.09756782116583
 20
32.65753856509821
 30
0.0
 10
11.11204157100535
 20
32.61458779303262
 30
0.0
 10
11.12702505365518
 20
32.57174393899965
 30
0.0
 10
11.12843266155156
 20
32.56771901711349
 30
0.0
 10
11.12987861289174
 20
32.56360039163162
 30
0.0
 10
11.13274756656071
 20
32.55546235838665
 30
0.0
 10
11.13706665929199
 20
32.54326091856375
 30
0.0
 10
11.14143515770722
 20
32.53107717533492
 30
0.0
 10
11.15024459597957
 20
32.50673563663648
 30
0.0
 10
11.15621469028151
 20
32.49054084490013
 30
0.0
 10
11.17445222104418
 20
32.44212848890064
 30
0.0
 10
11.18704749186599
 20
32.41006686193762
 30
0.0
 10
11.21346605912003
 20
32.34654305750671
 30
0.0
 10
11.22728396750912
 20
32.31507824991475
 30
0.0
 10
11.25669484797021
 20
32.25301511586895
 30
0.0
 10
11.27227412979037
 20
32.22241010664362
 30
0.0
 10
11.30620885236571
 20
32.16255524484273
 30
0.0
 10
11.32452760944622
 20
32.13328748546614
 30
0.0
 10
11.36611484088105
 20
32.0771681260306
 30
0.0
 10
11.38892201693914
 20
32.05110996325841
 30
0.0
 10
11.42659890327688
 20
32.01583722605726
 30
0.0
 10
11.43973664395052
 20
32.00469815657276
 30
0.0
 10
11.46716429813185
 20
31.98365128286921
 30
0.0
 10
11.48148754963726
 20
31.9737228797751
 30
0.0
 10
11.52583752299012
 20
31.94577387471968
 30
0.0
 10
11.55656342561322
 20
31.92988145902026
 30
0.0
 10
11.61966058302985
 20
31.90198592583053
 30
0.0
 10
11.65204350996071
 20
31.89001039904308
 30
0.0
 10
11.7181681957495
 20
31.86927136455776
 30
0.0
 10
11.7519772345675
 20
31.8605139638582
 30
0.0
 10
11.85364718925057
 20
31.8388808940491
 30
0.0
 10
11.92229620683571
 20
31.83057579391194
 30
0.0
 10
12.02604139053838
 20
31.82354959007439
 30
0.0
 10
12.06077629441249
 20
31.8221279809699
 30
0.0
 10
12.13004537839343
 20
31.82063654452395
 30
0.0
 10
12.16463601740758
 20
31.82056307574228
 30
0.0
 10
12.26832099896124
 20
31.82167383959784
 30
0.0
 10
12.3373306098944
 20
31.82415549623239
 30
0.0
 10
12.47533278957032
 20
31.82937976226478
 30
0.0
 10
12.54429849647391
 20
31.83253368446831
 30
0.0
 10
12.64734635441991
 20
31.84340018757599
 30
0.0
 10
12.68162868681822
 20
31.84804755933096
 30
0.0
 10
12.73291026759008
 20
31.85719168555667
 30
0.0
 10
12.74998050735413
 20
31.86060140842708
 30
0.0
 10
12.78406730734433
 20
31.86824280389418
 30
0.0
 10
12.80113236500904
 20
31.87248848882118
 30
0.0
 10
12.88565655275086
 20
31.89581772358781
 30
0.0
 10
12.95033946229225
 20
31.92114779481167
 30
0.0
 10
13.02728630341628
 20
31.96168009171311
 30
0.0
 10
13.04247928927767
 20
31.97023240347028
 30
0.0
 10
13.07244190207402
 20
31.98829819060617
 30
0.0
 10
13.08726487490526
 20
31.9978496939892
 30
0.0
 10
13.13054859689668
 20
32.02778615677655
 30
0.0
 10
13.15783639233131
 20
32.04940656118654
 30
0.0
 10
13.20857846443693
 20
32.09671251878446
 30
0.0
 10
13.23202871067083
 20
32.12240234593776
 30
0.0
 10
13.26331388101548
 20
32.16506234043873
 30
0.0
 10
13.27304683784392
 20
32.17989619912784
 30
0.0
 10
13.29079628681049
 20
32.21005485722472
 30
0.0
 10
13.29888331262202
 20
32.22547248407778
 30
0.0
 10
13.321037785471
 20
32.27263010109532
 30
0.0
 10
13.33299417579613
 20
32.30527673980045
 30
0.0
 10
13.3477683813056
 20
32.35560400573076
 30
0.0
 10
13.35217836574582
 20
32.37265577747792
 30
0.0
 10
13.35788566628533
 20
32.39736747859845
 30
0.0
 10
13.35955131344948
 20
32.40497504222139
 30
0.0
 10
13.36113626584939
 20
32.41258658462495
 30
0.0
  0
ARC
  5
A5
330
1F
100
AcDbEntity
  8
0
  6
Continuous
 62
     7
370
    25
100
AcDbCircle
 10
8.5911268813
 20
31.996392096
 30
0.0
 40
2.591780398572852
100
AcDbArc
 50
15.7740444293
 51
19.2770306477
  0
ARC
  5
A6
330
1F
100
AcDbEntity
  8
0
  6
Continuous
 62
     7
370
    25
100
AcDbCircle
 10
10.943201565
 20
32.8190185222
 30
0.0
 40
0.1000000000000012
100
AcDbArc
 50
19.2770306477
 51
71.3336807154
  0
ARC
  5
A7
330
1F
100
AcDbEntity
  8
0
  6
Continuous
 62
     7
370
    25
100
AcDbCircle
 10
10.8095032061
 20
32.4232578264
 30
0.0
 40
0.5177341014883918
100
AcDbArc
 50
71.3336807154
 51
108.6663192846
  0
ARC
  5
A8
330
1F
100
AcDbEntity
  8
0
  6
Continuous
 62
     7
370
    25
100
AcDbCircle
 10
10.6758048472
 20
32.8190185222
 30
0.0
 40
0.1000000000000029
100
AcDbArc
 50
108.6663192846
 51
160.7229693523
  0
ARC
  5
A9
330
1F
100
AcDbEntity
  8
0
  6
Continuous
 62
     7
370
    25
100
AcDbCircle
 10
13.0278795309
 20
31.996392096
 30
0.0
 40
2.591780398572856
100
AcDbArc
 50
160.7229693523
 51
164.2259555707
  0
SPLINE
  5
AA
330
1F
100
AcDbEntity
  8
0
  6
Continuous
 62
     7
370
    25
100
AcDbSpline
210
0.0
220
0.0
230
1.0
 70
     8
 71
     3
 72
    48
 73
    44
 74
     0
 42
0.000000001
 43
0.00000001
 40
0.0
 40
0.0
 40
0.0
 40
0.0
 40
0.0065856115792727
 40
0.012977118208175
 40
0.0191769158374422
 40
0.0251876296754776
 40
0.042915693027536
 40
0.0597620783753841
 40
0.0773752661609615
 40
0.09457696335897
 40
0.1291807790896363
 40
0.1637759111069042
 40
0.1985406907634472
 40
0.2328596740303125
 40
0.2676909524241714
 40
0.3024110056213018
 40
0.3368127217174478
 40
0.3711248856587713
 40
0.4054397534421201
 40
0.4247568140821034
 40
0.4397641075404249
 40
0.4741056730007697
 40
0.510556695048007
 40
0.5429753801995539
 40
0.5773721311010589
 40
0.6117479197041849
 40
0.6462585469177288
 40
0.680575235826809
 40
0.6982219784202993
 40
0.715009793231382
 40
0.732407824271178
 40
0.7494129723577508
 40
0.7837683077987705
 40
0.8001783704657198
 40
0.8181541397991288
 40
0.849955678891304
 40
0.8864558403964162
 40
0.9187225067588487
 40
0.9550014267049011
 40
0.9674990850828382
 40
0.978632397111511
 40
0.9884030384225516
 40
1.0
 40
1.0
 40
1.0
 40
1.0
 10
8.257873823985406
 20
32.41258735041961
 30
0.0
 10
8.259257966427366
 20
32.40610864611047
 30
0.0
 10
8.26198545496356
 20
32.39334219144737
 30
0.0
 10
8.266457146749055
 20
32.37457510482074
 30
0.0
 10
8.271134265590561
 20
32.35645520060742
 30
0.0
 10
8.279287512184574
 20
32.32746222214666
 30
0.0
 10
8.292107358945332
 20
32.28865935449566
 30
0.0
 10
8.312368199194363
 20
32.24016908520175
 30
0.0
 10
8.336613490818065
 20
32.19411326279443
 30
0.0
 10
8.375016020822327
 20
32.13565802021945
 30
0.0
 10
8.43388254234579
 20
32.07092858120836
 30
0.0
 10
8.516193675385946
 20
32.00588325953959
 30
0.0
 10
8.605815626339941
 20
31.95206653713433
 30
0.0
 10
8.70103803626835
 20
31.90845363795059
 30
0.0
 10
8.80039214315126
 20
31.87545492385597
 30
0.0
 10
8.90263034837925
 20
31.85276800999235
 30
0.0
 10
9.005820377526161
 20
31.83876511099574
 30
0.0
 10
9.109202129838016
 20
31.83094875756727
 30
0.0
 10
9.197597062841245
 20
31.82728486521836
 30
0.0
 10
9.266597404569046
 20
31.82476162505484
 30
0.0
 10
9.335632539182551
 20
31.82245208477848
 30
0.0
 10
9.421923457320778
 20
31.82043554031157
 30
0.0
 10
9.525767580291934
 20
31.82078666344745
 30
0.0
 10
9.6295860784832
 20
31.82515340225278
 30
0.0
 10
9.730992156536365
 20
31.83471985990694
 30
0.0
 10
9.833585767883239
 20
31.85183090530438
 30
0.0
 10
9.9342189718724
 20
31.87791911458866
 30
0.0
 10
10.01600343673499
 20
31.908137772875
 30
0.0
 10
10.07837193299944
 20
31.9381411198572
 30
0.0
 10
10.12364493820544
 20
31.96410861412355
 30
0.0
 10
10.16602026215967
 20
31.99350294553465
 30
0.0
 10
10.21888634257989
 20
32.03825673308955
 30
0.0
 10
10.26401265634469
 20
32.08996294603277
 30
0.0
 10
10.30305400967162
 20
32.14706146700755
 30
0.0
 10
10.33729488457127
 20
32.20420886376453
 30
0.0
 10
10.37691245417406
 20
32.28150994260257
 30
0.0
 10
10.41775761449568
 20
32.37410891834228
 30
0.0
 10
10.45647728519804
 20
32.47244638497589
 30
0.0
 10
10.48421521789258
 20
32.54911676447389
 30
0.0
 10
10.50389131199583
 20
32.60608068160861
 30
0.0
 10
10.51450418374172
 20
32.63796087285213
 30
0.0
 10
10.52446011990767
 20
32.6691048136553
 30
0.0
 10
10.53044627144834
 20
32.68975002512058
 30
0.0
 10
10.53369516978178
 20
32.70095491906076
 30
0.0
  0
ARC
  5
AB
330
1F
100
AcDbEntity
  8
0
  6
Continuous
 62
     7
370
    25
100
AcDbCircle
 10
8.208920117
 20
32.4023937134
 30
0.0
 40
0.0499999999999978
100
AcDbArc
 50
11.7626212374
 51
12.2779782106
  0
ARC
  5
AC
330
1F
100
AcDbEntity
  8
0
  6
Continuous
 62
     7
370
    25
100
AcDbCircle
 10
8.006469026
 20
32.358333742
 30
0.0
 40
0.2571900704931681
100
AcDbArc
 50
12.2779782106
 51
34.6358348865
  0
ARC
  5
AD
330
1F
100
AcDbEntity
  8
0
  6
Continuous
 62
     7
370
    25
100
AcDbCircle
 10
7.8054847231
 20
32.2194983536
 30
0.0
 40
0.5014644144013044
100
AcDbArc
 50
34.6358348865
 51
73.190448257
  0
ARC
  5
AE
330
1F
100
AcDbEntity
  8
0
  6
Continuous
 62
     7
370
    25
100
AcDbCircle
 10
7.964963482
 20
32.7473994105
 30
0.0
 40
0.0499999999999998
100
AcDbArc
 50
180.0
 51
253.190448257
  0
LINE
  5
AF
330
1F
100
AcDbEntity
  8
0
  6
Continuous
 62
     7
370
    25
100
AcDbLine
 10
7.914963482
 20
33.2415291158
 30
0.0
 11
7.914963482
 21
32.7473994105
 31
0.0
  0
ARC
  5
B0
330
1F
100
AcDbEntity
  8
0
  6
Continuous
 62
     7
370
    25
100
AcDbCircle
 10
7.964963482
 20
33.2415291158
 30
0.0
 40
0.0500000000000023
100
AcDbArc
 50
99.4211669777
 51
180.0
  0
ARC
  5
B1
330
1F
100
AcDbEntity
  8
0
  6
Continuous
 62
     7
370
    25
100
AcDbCircle
 10
10.9360996035
 20
15.3354070332
 30
0.0
 40
18.20094647373815
100
AcDbArc
 50
96.1185966982
 51
99.4211669777
  0
LINE
  5
B2
330
1F
100
AcDbEntity
  8
0
  6
Continuous
 62
     7
370
    25
100
AcDbLine
 10
8.9968485213
 20
33.432748213
 30
0.0
 11
8.9961189329
 21
33.4326700179
 31
0.0
  0
SPLINE
  5
B3
330
1F
100
AcDbEntity
  8
0
  6
Continuous
 62
     7
370
    25
100
AcDbSpline
210
0.0
220
0.0
230
1.0
 70
     8
 71
     3
 72
    21
 73
    17
 74
     0
 42
0.000000001
 43
0.00000001
 40
0.0
 40
0.0
 40
0.0
 40
0.0
 40
0.0252695422327134
 40
0.0495912164396291
 40
0.1362333991551183
 40
0.2173206314507337
 40
0.3008237025602136
 40
0.3843451997395931
 40
0.4656288346786187
 40
0.5521036155463586
 40
0.7138330362240388
 40
0.8899066897650708
 40
0.9186860727629028
 40
0.9466262465199115
 40
0.9737299051174584
 40
0.9999999999999999
 40
0.9999999999999999
 40
0.9999999999999999
 40
0.9999999999999999
 10
10.20360768025097
 20
33.3368364272883
 30
0.0
 10
10.19382468207504
 20
33.33998534992993
 30
0.0
 10
10.17462564888706
 20
33.34616507819074
 30
0.0
 10
10.12170047504559
 20
33.36256200217357
 30
0.0
 10
10.04657356651274
 20
33.38401554662091
 30
0.0
 10
9.947179040658643
 20
33.40784571005561
 30
0.0
 10
9.84795111585639
 20
33.42645117836557
 30
0.0
 10
9.747789674536985
 20
33.4396848804353
 30
0.0
 10
9.645942586213442
 20
33.44845111627276
 30
0.0
 10
9.51206686769365
 20
33.45489497724352
 30
0.0
 10
9.339425724537653
 20
33.45518460662655
 30
0.0
 10
9.190439759116478
 20
33.44834815966406
 30
0.0
 10
9.095992541957827
 20
33.44173969555612
 30
0.0
 10
9.062010284984982
 20
33.43901015639891
 30
0.0
 10
9.029070400580474
 20
33.43606198834014
 30
0.0
 10
9.007478304974576
 20
33.43382656264111
 30
0.0
 10
8.996850864270195
 20
33.4327263056536
 30
0.0
  0
ARC
  5
B4
330
1F
100
AcDbEntity
  8
0
  6
Continuous
 62
     7
370
    25
100
AcDbCircle
 10
10.8095032061
 20
35.2040129471
 30
0.0
 40
1.963021019260112
100
AcDbArc
 50
252.0213468547
 51
287.9786531453
  0
LINE
  5
B5
330
1F
100
AcDbEntity
  8
0
  6
Continuous
 62
     7
370
    25
100
AcDbLine
 10
12.6221578909
 20
33.432748213
 30
0.0
 11
12.6228874793
 21
33.4326700179
 31
0.0
  0
ARC
  5
B6
330
1F
100
AcDbEntity
  8
0
  6
Continuous
 62
     7
370
    25
100
AcDbCircle
 10
10.6829068087
 20
15.3354070332
 30
0.0
 40
18.20094647373815
100
AcDbArc
 50
80.5788330223
 51
83.8814033018
  0
ARC
  5
B7
330
1F
100
AcDbEntity
  8
0
  6
Continuous
 62
     7
370
    25
100
AcDbCircle
 10
13.6540429302
 20
33.2415291158
 30
0.0
 40
0.0500000000000021
100
AcDbArc
 50
0.0
 51
80.5788330223
  0
LINE
  5
B8
330
1F
100
AcDbEntity
  8
0
  6
Continuous
 62
     7
370
    25
100
AcDbLine
 10
13.7040429302
 20
33.2415291158
 30
0.0
 11
13.7040429302
 21
32.7473994105
 31
0.0
  0
LINE
  5
B9
330
1F
100
AcDbEntity
  8
0
  6
Continuous
 62
     7
370
    25
100
AcDbLine
 10
13.3840429302
 20
32.8088662727
 30
0.0
 11
13.3840429302
 21
33.1838662727
 31
0.0
  0
LINE
  5
BA
330
1F
100
AcDbEntity
  8
0
  6
Continuous
 62
     7
370
    25
100
AcDbLine
 10
13.5790429302
 20
32.8088662727
 30
0.0
 11
13.3840429302
 21
32.8088662727
 31
0.0
  0
LINE
  5
BB
330
1F
100
AcDbEntity
  8
0
  6
Continuous
 62
     7
370
    25
100
AcDbLine
 10
13.5790429302
 20
33.1838662727
 30
0.0
 11
13.5790429302
 21
32.8088662727
 31
0.0
  0
LINE
  5
BC
330
1F
100
AcDbEntity
  8
0
  6
Continuous
 62
     7
370
    25
100
AcDbLine
 10
13.3840429302
 20
33.1838662727
 30
0.0
 11
13.5790429302
 21
33.1838662727
 31
0.0
  0
SPLINE
  5
BD
330
1F
100
AcDbEntity
  8
0
  6
Continuous
 62
     7
370
    25
100
AcDbSpline
210
0.0
220
0.0
230
1.0
 70
    11
 71
     3
 72
    27
 73
    23
 74
     0
 42
0.000000001
 43
0.00000001
 40
0.0
 40
0.0
 40
0.0
 40
0.0
 40
0.0491227048223304
 40
0.0871446623181324
 40
0.0966523355163517
 40
0.1441994368045234
 40
0.2144771185443031
 40
0.3148474002682819
 40
0.3830289425702076
 40
0.4225121831440506
 40
0.4368915726303798
 40
0.5045064257647969
 40
0.5721532548768614
 40
0.6104968678672413
 40
0.6583339469309256
 40
0.741685712178417
 40
0.8263945434873834
 40
0.8745592211067624
 40
0.918402391384027
 40
0.9585183615254537
 40
0.9958518361525452
 40
0.9999999999999999
 40
0.9999999999999999
 40
0.9999999999999999
 40
0.9999999999999999
 10
13.30319358051895
 20
32.96039379505778
 30
0.0
 10
13.29143667299452
 20
33.06258462929667
 30
0.0
 10
13.27969524774117
 20
33.07236095596291
 30
0.0
 10
13.26302837550818
 20
33.14246554522897
 30
0.0
 10
13.17658710811713
 20
33.23273447395363
 30
0.0
 10
12.80644413841011
 20
33.32966749015921
 30
0.0
 10
12.43596065563938
 20
33.37023556867947
 30
0.0
 10
11.86386376557148
 20
33.37908965890818
 30
0.0
 10
11.46249197787099
 20
33.2680169789878
 30
0.0
 10
11.19163881742592
 20
33.16809711199699
 30
0.0
 10
11.10730357809676
 20
32.91301608329462
 30
0.0
 10
11.19264090305639
 20
32.6190031476614
 30
0.0
 10
11.36682651719779
 20
32.17896923290559
 30
0.0
 10
11.55524838347757
 20
32.00977603688096
 30
0.0
 10
11.88794655772785
 20
31.89499217043493
 30
0.0
 10
12.39740509253527
 20
31.91006840925391
 30
0.0
 10
12.83894263937594
 20
31.92994556364122
 30
0.0
 10
13.20103800647896
 20
32.16707532271194
 30
0.0
 10
13.2881729205818
 20
32.42710672493832
 30
0.0
 10
13.31129433925327
 20
32.69331627125757
 30
0.0
 10
13.31448091953658
 20
32.8585751073291
 30
0.0
 10
13.30418639186611
 20
32.95176429622085
 30
0.0
 10
13.30319358051895
 20
32.96039379505778
 30
0.0
  0
SPLINE
  5
BE
330
1F
100
AcDbEntity
  8
0
  6
Continuous
 62
     7
370
    25
100
AcDbSpline
210
0.0
220
0.0
230
1.0
 70
    11
 71
     3
 72
    27
 73
    23
 74
     0
 42
0.000000001
 43
0.00000001
 40
0.0
 40
0.0
 40
0.0
 40
0.0
 40
0.0041481638474546
 40
0.0414816384745462
 40
0.0815976086159729
 40
0.1254407788932375
 40
0.1736054565126165
 40
0.2583142878215829
 40
0.3416660530690743
 40
0.3895031321327586
 40
0.4278467451231385
 40
0.495493574235203
 40
0.5631084273696201
 40
0.5774878168559492
 40
0.6169710574297923
 40
0.685152599731718
 40
0.7855228814556968
 40
0.8558005631954765
 40
0.9033476644836482
 40
0.9128553376818676
 40
0.9508772951776695
 40
0.9999999999999999
 40
0.9999999999999999
 40
0.9999999999999999
 40
0.9999999999999999
 10
8.315812831679551
 20
32.96039379505778
 30
0.0
 10
8.314820020332395
 20
32.95176429622085
 30
0.0
 10
8.304525492661925
 20
32.8585751073291
 30
0.0
 10
8.30771207294523
 20
32.69331627125757
 30
0.0
 10
8.330833491616703
 20
32.42710672493832
 30
0.0
 10
8.417968405719542
 20
32.16707532271194
 30
0.0
 10
8.780063772822567
 20
31.92994556364122
 30
0.0
 10
9.22160131966323
 20
31.91006840925391
 30
0.0
 10
9.73105985447065
 20
31.89499217043493
 30
0.0
 10
10.06375802872093
 20
32.00977603688096
 30
0.0
 10
10.25217989500071
 20
32.17896923290559
 30
0.0
 10
10.42636550914211
 20
32.6190031476614
 30
0.0
 10
10.51170283410174
 20
32.91301608329462
 30
0.0
 10
10.42736759477258
 20
33.16809711199699
 30
0.0
 10
10.15651443432752
 20
33.2680169789878
 30
0.0
 10
9.75514264662702
 20
33.37908965890818
 30
0.0
 10
9.183045756559123
 20
33.37023556867947
 30
0.0
 10
8.812562273788389
 20
33.32966749015921
 30
0.0
 10
8.442419304081374
 20
33.23273447395363
 30
0.0
 10
8.35597803669032
 20
33.14246554522897
 30
0.0
 10
8.339311164457332
 20
33.07236095596291
 30
0.0
 10
8.327569739203982
 20
33.06258462929667
 30
0.0
 10
8.315812831679551
 20
32.96039379505778
 30
0.0
  0
SPLINE
  5
BF
330
1F
100
AcDbEntity
  8
0
  6
Continuous
 62
     7
370
    25
100
AcDbSpline
210
0.0
220
0.0
230
1.0
 70
     8
 71
     3
 72
    22
 73
    18
 74
     0
 42
0.000000001
 43
0.00000001
 40
0.1470620574027326
 40
0.1470620574027326
 40
0.1470620574027326
 40
0.1470620574027326
 40
0.167427423666218
 40
0.167427423666218
 40
0.1986774236662183
 40
0.1986774236662183
 40
0.2299274236662187
 40
0.2299274236662187
 40
0.2611774236662191
 40
0.2611774236662191
 40
0.2768024236662193
 40
0.2768024236662193
 40
0.2924274236662195
 40
0.2924274236662195
 40
0.32367742366622
 40
0.32367742366622
 40
0.3328653662634892
 40
0.3328653662634892
 40
0.3328653662634892
 40
0.3328653662634892
 10
12.62215768765866
 20
33.43274627370474
 30
0.0
 10
12.57760538961028
 20
33.43752039531606
 30
0.0
 10
12.53298566193639
 20
33.44117910147749
 30
0.0
 10
12.41978955722861
 20
33.44865156913733
 30
0.0
 10
12.35117659610103
 20
33.45186015949565
 30
0.0
 10
12.21375612412805
 20
33.455059114405
 30
0.0
 10
12.14483940551179
 20
33.45503484969572
 30
0.0
 10
12.00792119232029
 20
33.4506742596256
 30
0.0
 10
11.93981232116526
 20
33.44636395499044
 30
0.0
 10
11.83839602878779
 20
33.43535541769017
 30
0.0
 10
11.80471861958015
 20
33.43090732270046
 30
0.0
 10
11.73766471876396
 20
33.42018105700507
 30
0.0
 10
11.7042846571448
 20
33.41392459785685
 30
0.0
 10
11.6045613725488
 20
33.39261977866071
 30
0.0
 10
11.53864265021369
 20
33.37498975400378
 30
0.0
 10
11.45384177702181
 20
33.34914219519322
 30
0.0
 10
11.43460666292004
 20
33.34307126019237
 30
0.0
 10
11.41539825850055
 20
33.33683788623464
 30
0.0
  0
LWPOLYLINE
  5
C0
330
1F
100
AcDbEntity
  8
0
  6
Continuous
 62
     7
370
    25
100
AcDbPolyline
 90
       41
 70
   128
 43
0.0
 10
10.3739888779
 20
32.6130086274
 10
10.3236423309
 20
32.4765985136
 10
10.2667451196
 20
32.3432690659
 10
10.1980052626
 20
32.2157531866
 10
10.1039680009
 20
32.1050452396
 10
9.9793131926
 20
32.0298015706
 10
9.8055275305
 20
31.9752274098
 10
9.624924389
 20
31.9510098668
 10
9.4424050446
 20
31.9457585272
 10
9.2600764075
 20
31.9501096735
 10
9.0778545013
 20
31.9588727481
 10
8.8973849508
 20
31.9825186795
 10
8.7239328752
 20
32.0362261318
 10
8.5660922448
 20
32.1267713622
 10
8.4778162192
 20
32.2106107939
 10
8.4164524098
 20
32.3157363869
 10
8.3815037874
 20
32.4321200077
 10
8.3620765604
 20
32.5525316041
 10
8.3516710179
 20
32.6734438076
 10
8.3470112147
 20
32.7946258201
 10
8.349229715
 20
32.8857806177
 10
8.3581054863
 20
32.9771648758
 10
8.3758479187
 20
33.0670283046
 10
8.403108193
 20
33.1300470422
 10
8.4530503747
 20
33.1757057823
 10
8.5156161074
 20
33.2032552317
 10
8.5806463934
 20
33.2244167282
 10
8.8472088389
 20
33.2852165724
 10
9.1181463082
 20
33.3179778808
 10
9.3909317252
 20
33.3293711493
 10
9.6625525585
 20
33.3212886292
 10
9.9322715682
 20
33.2823242177
 10
10.1973158061
 20
33.2073030871
 10
10.2837252081
 20
33.1761738706
 10
10.3645848647
 20
33.1322688987
 10
10.4062109303
 20
33.0873209457
 10
10.429036314
 20
33.0305229716
 10
10.4403381398
 20
32.9705851004
 10
10.4380448842
 20
32.8483824642
 10
10.4117386382
 20
32.7291390771
 10
10.3739888779
 20
32.6130086274
  0
LWPOLYLINE
  5
C1
330
1F
100
AcDbEntity
  8
0
  6
Continuous
 62
     7
370
    25
100
AcDbPolyline
 90
       41
 70
   128
 43
0.0
 10
11.2450175343
 20
32.6130086274
 10
11.2953640813
 20
32.4765985136
 10
11.3522612926
 20
32.3432690659
 10
11.4210011496
 20
32.2157531866
 10
11.5150384113
 20
32.1050452396
 10
11.6396932196
 20
32.0298015706
 10
11.8134788817
 20
31.9752274098
 10
11.9940820232
 20
31.9510098668
 10
12.1766013676
 20
31.9457585272
 10
12.3589300047
 20
31.9501096735
 10
12.5411519109
 20
31.9588727481
 10
12.7216214614
 20
31.9825186795
 10
12.895073537
 20
32.0362261318
 10
13.0529141674
 20
32.1267713622
 10
13.141190193
 20
32.2106107939
 10
13.2025540024
 20
32.3157363869
 10
13.2375026248
 20
32.4321200077
 10
13.2569298518
 20
32.5525316041
 10
13.2673353943
 20
32.6734438076
 10
13.2719951975
 20
32.7946258201
 10
13.2697766972
 20
32.8857806177
 10
13.2609009259
 20
32.9771648758
 10
13.2431584935
 20
33.0670283046
 10
13.2158982192
 20
33.1300470422
 10
13.1659560375
 20
33.1757057823
 10
13.1033903048
 20
33.2032552317
 10
13.0383600188
 20
33.2244167282
 10
12.7717975733
 20
33.2852165724
 10
12.500860104
 20
33.3179778808
 10
12.228074687
 20
33.3293711493
 10
11.9564538537
 20
33.3212886292
 10
11.686734844
 20
33.2823242177
 10
11.4216906061
 20
33.2073030871
 10
11.3352812041
 20
33.1761738706
 10
11.2544215475
 20
33.1322688987
 10
11.2127954819
 20
33.0873209457
 10
11.1899700982
 20
33.0305229716
 10
11.1786682724
 20
32.9705851004
 10
11.180961528
 20
32.8483824642
 10
11.207267774
 20
32.7291390771
 10
11.2450175343
 20
32.6130086274
  0
INSERT
  5
C8
330
1F
100
AcDbEntity
  8
0
  6
Continuous
 62
     7
370
     0
100
AcDbBlockReference
  2
SW_NOTE_0
 10
0.7502137813
 20
30.5386723524
 30
0.0
  0
ENDSEC
  0
SECTION
  2
OBJECTS
  0
DICTIONARY
  5
C
330
0
100
AcDbDictionary
281
     1
  3
ACAD_GROUP
350
D
  3
ACAD_LAYOUT
350
1A
  3
ACAD_MLINESTYLE
350
17
  3
ACAD_PLOTSETTINGS
350
19
  3
ACAD_PLOTSTYLENAME
350
E
  3
ACAD_SCALELIST
350
47
  0
DICTIONARY
  5
D
102
{ACAD_REACTORS
330
C
102
}
330
C
100
AcDbDictionary
281
     1
  0
DICTIONARY
  5
1A
102
{ACAD_REACTORS
330
C
102
}
330
C
100
AcDbDictionary
281
     1
  3
Layout1
350
1E
  3
Layout2
350
26
  3
Model
350
22
  0
DICTIONARY
  5
17
102
{ACAD_REACTORS
330
C
102
}
330
C
100
AcDbDictionary
281
     1
  3
Standard
350
18
  0
DICTIONARY
  5
19
102
{ACAD_REACTORS
330
C
102
}
330
C
100
AcDbDictionary
281
     1
  0
ACDBDICTIONARYWDFLT
  5
E
102
{ACAD_REACTORS
330
C
102
}
330
C
100
AcDbDictionary
281
     1
  3
Normal
350
F
100
AcDbDictionaryWithDefault
340
F
  0
DICTIONARY
  5
47
102
{ACAD_REACTORS
330
C
102
}
330
C
100
AcDbDictionary
281
     1
  3
A0
350
48
  3
A1
350
49
  3
A2
350
4A
  3
A3
350
4B
  3
A4
350
4C
  3
A5
350
4D
  3
A6
350
4E
  3
A7
350
4F
  3
A8
350
50
  3
A9
350
51
  3
B0
350
52
  3
B1
350
53
  3
B2
350
54
  3
B3
350
55
  3
B4
350
56
  3
B5
350
57
  3
B6
350
58
  3
B7
350
59
  3
B8
350
5A
  3
B9
350
5B
  3
C0
350
5C
  3
C1
350
5D
  3
C2
350
5E
  3
C3
350
5F
  3
C4
350
60
  3
C5
350
61
  3
C6
350
62
  3
C7
350
63
  3
C8
350
64
  3
C9
350
65
  3
D0
350
66
  3
D1
350
67
  3
D2
350
68
  0
LAYOUT
  5
1E
102
{ACAD_REACTORS
330
1A
102
}
330
1A
100
AcDbPlotSettings
  1

  2
none_device
  4

  6

 40
0.0
 41
0.0
 42
0.0
 43
0.0
 44
0.0
 45
0.0
 46
0.0
 47
0.0
 48
0.0
 49
0.0
140
0.0
141
0.0
142
1.0
143
1.0
 70
   688
 72
     0
 73
     0
 74
     5
  7

 75
    16
147
1.0
148
0.0
149
0.0
100
AcDbLayout
  1
Layout1
 70
     1
 71
     1
 10
0.0
 20
0.0
 11
12.0
 21
9.0
 12
0.0
 22
0.0
 32
0.0
 14
1.0000000000E+20
 24
1.0000000000E+20
 34
1.0000000000E+20
 15
-1.0000000000E+20
 25
-1.0000000000E+20
 35
-1.0000000000E+20
146
0.0
 13
0.0
 23
0.0
 33
0.0
 16
1.0
 26
0.0
 36
0.0
 17
0.0
 27
1.0
 37
0.0
 76
     0
330
1B
  0
LAYOUT
  5
26
102
{ACAD_REACTORS
330
1A
102
}
330
1A
100
AcDbPlotSettings
  1

  2
none_device
  4

  6

 40
0.0
 41
0.0
 42
0.0
 43
0.0
 44
0.0
 45
0.0
 46
0.0
 47
0.0
 48
0.0
 49
0.0
140
0.0
141
0.0
142
1.0
143
1.0
 70
   688
 72
     0
 73
     0
 74
     5
  7

 75
    16
147
1.0
148
0.0
149
0.0
100
AcDbLayout
  1
Layout2
 70
     1
 71
     2
 10
0.0
 20
0.0
 11
0.0
 21
0.0
 12
0.0
 22
0.0
 32
0.0
 14
0.0
 24
0.0
 34
0.0
 15
0.0
 25
0.0
 35
0.0
146
0.0
 13
0.0
 23
0.0
 33
0.0
 16
1.0
 26
0.0
 36
0.0
 17
0.0
 27
1.0
 37
0.0
 76
     0
330
23
  0
LAYOUT
  5
22
102
{ACAD_REACTORS
330
1A
102
}
330
1A
100
AcDbPlotSettings
  1

  2
none_device
  4
Letter_(8.50_x_11.00_Inches)
  6

 40
6.35
 41
6.35
 42
6.35000508
 43
6.35000508
 44
215.9
 45
279.4
 46
0.0
 47
0.0
 48
0.0
 49
0.0
140
0.0
141
0.0
142
1.0
143
1.0
 70
  1712
 72
     0
 73
     0
 74
     0
  7

 75
     0
147
1.0
148
0.0
149
0.0
100
AcDbLayout
  1
Model
 70
     1
 71
     0
 10
0.0
 20
0.0
 11
48.0
 21
36.0
 12
0.0
 22
0.0
 32
0.0
 14
0.0
 24
0.0
 34
0.0
 15
48.0
 25
36.0
 35
0.0
146
0.0
 13
0.0
 23
0.0
 33
0.0
 16
1.0
 26
0.0
 36
0.0
 17
0.0
 27
1.0
 37
0.0
 76
     0
330
1F
331
29
  0
MLINESTYLE
  5
18
102
{ACAD_REACTORS
330
17
102
}
330
17
100
AcDbMlineStyle
  2
Standard
 70
     0
  3

 62
   256
 51
90.0
 52
90.0
 71
     2
 49
0.5
 62
   256
  6
BYLAYER
 49
-0.5
 62
   256
  6
BYLAYER
  0
ACDBPLACEHOLDER
  5
F
102
{ACAD_REACTORS
330
E
102
}
330
E
  0
SCALE
  5
48
102
{ACAD_REACTORS
330
47
102
}
330
47
100
AcDbScale
 70
     0
300
1:1
140
1.0
141
1.0
290
     1
  0
SCALE
  5
49
102
{ACAD_REACTORS
330
47
102
}
330
47
100
AcDbScale
 70
     0
300
1:2
140
1.0
141
2.0
290
     0
  0
SCALE
  5
4A
102
{ACAD_REACTORS
330
47
102
}
330
47
100
AcDbScale
 70
     0
300
1:4
140
1.0
141
4.0
290
     0
  0
SCALE
  5
4B
102
{ACAD_REACTORS
330
47
102
}
330
47
100
AcDbScale
 70
     0
300
1:5
140
1.0
141
5.0
290
     0
  0
SCALE
  5
4C
102
{ACAD_REACTORS
330
47
102
}
330
47
100
AcDbScale
 70
     0
300
1:8
140
1.0
141
8.0
290
     0
  0
SCALE
  5
4D
102
{ACAD_REACTORS
330
47
102
}
330
47
100
AcDbScale
 70
     0
300
1:10
140
1.0
141
10.0
290
     0
  0
SCALE
  5
4E
102
{ACAD_REACTORS
330
47
102
}
330
47
100
AcDbScale
 70
     0
300
1:16
140
1.0
141
16.0
290
     0
  0
SCALE
  5
4F
102
{ACAD_REACTORS
330
47
102
}
330
47
100
AcDbScale
 70
     0
300
1:20
140
1.0
141
20.0
290
     0
  0
SCALE
  5
50
102
{ACAD_REACTORS
330
47
102
}
330
47
100
AcDbScale
 70
     0
300
1:30
140
1.0
141
30.0
290
     0
  0
SCALE
  5
51
102
{ACAD_REACTORS
330
47
102
}
330
47
100
AcDbScale
 70
     0
300
1:40
140
1.0
141
40.0
290
     0
  0
SCALE
  5
52
102
{ACAD_REACTORS
330
47
102
}
330
47
100
AcDbScale
 70
     0
300
1:50
140
1.0
141
50.0
290
     0
  0
SCALE
  5
53
102
{ACAD_REACTORS
330
47
102
}
330
47
100
AcDbScale
 70
     0
300
1:100
140
1.0
141
100.0
290
     0
  0
SCALE
  5
54
102
{ACAD_REACTORS
330
47
102
}
330
47
100
AcDbScale
 70
     0
300
2:1
140
2.0
141
1.0
290
     0
  0
SCALE
  5
55
102
{ACAD_REACTORS
330
47
102
}
330
47
100
AcDbScale
 70
     0
300
4:1
140
4.0
141
1.0
290
     0
  0
SCALE
  5
56
102
{ACAD_REACTORS
330
47
102
}
330
47
100
AcDbScale
 70
     0
300
8:1
140
8.0
141
1.0
290
     0
  0
SCALE
  5
57
102
{ACAD_REACTORS
330
47
102
}
330
47
100
AcDbScale
 70
     0
300
10:1
140
10.0
141
1.0
290
     0
  0
SCALE
  5
58
102
{ACAD_REACTORS
330
47
102
}
330
47
100
AcDbScale
 70
     0
300
100:1
140
100.0
141
1.0
290
     0
  0
SCALE
  5
59
102
{ACAD_REACTORS
330
47
102
}
330
47
100
AcDbScale
 70
     0
300
1/128" = 1'-0"
140
0.0078125
141
12.0
290
     0
  0
SCALE
  5
5A
102
{ACAD_REACTORS
330
47
102
}
330
47
100
AcDbScale
 70
     0
300
1/64" = 1'-0"
140
0.015625
141
12.0
290
     0
  0
SCALE
  5
5B
102
{ACAD_REACTORS
330
47
102
}
330
47
100
AcDbScale
 70
     0
300
1/32" = 1'-0"
140
0.03125
141
12.0
290
     0
  0
SCALE
  5
5C
102
{ACAD_REACTORS
330
47
102
}
330
47
100
AcDbScale
 70
     0
300
1/16" = 1'-0"
140
0.0625
141
12.0
290
     0
  0
SCALE
  5
5D
102
{ACAD_REACTORS
330
47
102
}
330
47
100
AcDbScale
 70
     0
300
3/32" = 1'-0"
140
0.09375
141
12.0
290
     0
  0
SCALE
  5
5E
102
{ACAD_REACTORS
330
47
102
}
330
47
100
AcDbScale
 70
     0
300
1/8" = 1'-0"
140
0.125
141
12.0
290
     0
  0
SCALE
  5
5F
102
{ACAD_REACTORS
330
47
102
}
330
47
100
AcDbScale
 70
     0
300
3/16" = 1'-0"
140
0.1875
141
12.0
290
     0
  0
SCALE
  5
60
102
{ACAD_REACTORS
330
47
102
}
330
47
100
AcDbScale
 70
     0
300
1/4" = 1'-0"
140
0.25
141
12.0
290
     0
  0
SCALE
  5
61
102
{ACAD_REACTORS
330
47
102
}
330
47
100
AcDbScale
 70
     0
300
3/8" = 1'-0"
140
0.375
141
12.0
290
     0
  0
SCALE
  5
62
102
{ACAD_REACTORS
330
47
102
}
330
47
100
AcDbScale
 70
     0
300
1/2" = 1'-0"
140
0.5
141
12.0
290
     0
  0
SCALE
  5
63
102
{ACAD_REACTORS
330
47
102
}
330
47
100
AcDbScale
 70
     0
300
3/4" = 1'-0"
140
0.75
141
12.0
290
     0
  0
SCALE
  5
64
102
{ACAD_REACTORS
330
47
102
}
330
47
100
AcDbScale
 70
     0
300
1" = 1'-0"
140
1.0
141
12.0
290
     0
  0
SCALE
  5
65
102
{ACAD_REACTORS
330
47
102
}
330
47
100
AcDbScale
 70
     0
300
1-1/2" = 1'-0"
140
1.5
141
12.0
290
     0
  0
SCALE
  5
66
102
{ACAD_REACTORS
330
47
102
}
330
47
100
AcDbScale
 70
     0
300
3" = 1'-0"
140
3.0
141
12.0
290
     0
  0
SCALE
  5
67
102
{ACAD_REACTORS
330
47
102
}
330
47
100
AcDbScale
 70
     0
300
6" = 1'-0"
140
6.0
141
12.0
290
     0
  0
SCALE
  5
68
102
{ACAD_REACTORS
330
47
102
}
330
47
100
AcDbScale
 70
     0
300
1'-0" = 1'-0"
140
12.0
141
12.0
290
     0
  0
ENDSEC
  0
EOF
