  0
SECTION
  2
HEADER
  9
$ACADVER
  1
AC1018
  9
$ACADMAINTVER
 70
     0
  9
$DWGCODEPAGE
  3
ANSI_932
  9
$INSBASE
 10
0.0
 20
0.0
 30
0.0
  9
$EXTMIN
 10
1.000000000000000E+20
 20
1.000000000000000E+20
 30
1.000000000000000E+20
  9
$EXTMAX
 10
-1.000000000000000E+20
 20
-1.000000000000000E+20
 30
-1.000000000000000E+20
  9
$LIMMIN
 10
0.0
 20
0.0
  9
$LIMMAX
 10
12.0
 20
9.0
  9
$ORTHOMODE
 70
     0
  9
$REGENMODE
 70
     1
  9
$FILLMODE
 70
     1
  9
$QTEXTMODE
 70
     0
  9
$MIRRTEXT
 70
     1
  9
$LTSCALE
 40
1.0
  9
$ATTMODE
 70
     1
  9
$TEXTSIZE
 40
0.2
  9
$TRACEWID
 40
0.05
  9
$TEXTSTYLE
  7
Standard
  9
$CLAYER
  8
0
  9
$CELTYPE
  6
ByLayer
  9
$CECOLOR
 62
   256
  9
$CELTSCALE
 40
1.0
  9
$DISPSILH
 70
     0
  9
$DIMSCALE
 40
1.0
  9
$DIMASZ
 40
0.18
  9
$DIMEXO
 40
0.0625
  9
$DIMDLI
 40
0.38
  9
$DIMRND
 40
0.0
  9
$DIMDLE
 40
0.0
  9
$DIMEXE
 40
0.18
  9
$DIMTP
 40
0.0
  9
$DIMTM
 40
0.0
  9
$DIMTXT
 40
0.18
  9
$DIMCEN
 40
0.09
  9
$DIMTSZ
 40
0.0
  9
$DIMTOL
 70
     0
  9
$DIMLIM
 70
     0
  9
$DIMTIH
 70
     1
  9
$DIMTOH
 70
     1
  9
$DIMSE1
 70
     0
  9
$DIMSE2
 70
     0
  9
$DIMTAD
 70
     0
  9
$DIMZIN
 70
     0
  9
$DIMBLK
  1

  9
$DIMASO
 70
     1
  9
$DIMSHO
 70
     1
  9
$DIMPOST
  1

  9
$DIMAPOST
  1

  9
$DIMALT
 70
     0
  9
$DIMALTD
 70
     2
  9
$DIMALTF
 40
25.4
  9
$DIMLFAC
 40
1.0
  9
$DIMTOFL
 70
     0
  9
$DIMTVP
 40
0.0
  9
$DIMTIX
 70
     0
  9
$DIMSOXD
 70
     0
  9
$DIMSAH
 70
     0
  9
$DIMBLK1
  1

  9
$DIMBLK2
  1

  9
$DIMSTYLE
  2
Standard
  9
$DIMCLRD
 70
     0
  9
$DIMCLRE
 70
     0
  9
$DIMCLRT
 70
     0
  9
$DIMTFAC
 40
1.0
  9
$DIMGAP
 40
0.09
  9
$DIMJUST
 70
     0
  9
$DIMSD1
 70
     0
  9
$DIMSD2
 70
     0
  9
$DIMTOLJ
 70
     1
  9
$DIMTZIN
 70
     0
  9
$DIMALTZ
 70
     0
  9
$DIMALTTZ
 70
     0
  9
$DIMUPT
 70
     0
  9
$DIMDEC
 70
     4
  9
$DIMTDEC
 70
     4
  9
$DIMALTU
 70
     2
  9
$DIMALTTD
 70
     2
  9
$DIMTXSTY
  7
Standard
  9
$DIMAUNIT
 70
     0
  9
$DIMADEC
 70
     0
  9
$DIMALTRND
 40
0.0
  9
$DIMAZIN
 70
     0
  9
$DIMDSEP
 70
    46
  9
$DIMATFIT
 70
     3
  9
$DIMFRAC
 70
     0
  9
$DIMLDRBLK
  1

  9
$DIMLUNIT
 70
     2
  9
$DIMLWD
 70
    -2
  9
$DIMLWE
 70
    -2
  9
$DIMTMOVE
 70
     0
  9
$LUNITS
 70
     2
  9
$LUPREC
 70
     4
  9
$SKETCHINC
 40
0.1
  9
$FILLETRAD
 40
0.5
  9
$AUNITS
 70
     0
  9
$AUPREC
 70
     0
  9
$MENU
  1
.
  9
$ELEVATION
 40
0.0
  9
$PELEVATION
 40
0.0
  9
$THICKNESS
 40
0.0
  9
$LIMCHECK
 70
     0
  9
$CHAMFERA
 40
0.5
  9
$CHAMFERB
 40
0.5
  9
$CHAMFERC
 40
1.0
  9
$CHAMFERD
 40
0.0
  9
$SKPOLY
 70
     0
  9
$TDCREATE
 40
2457105.726296296
  9
$TDUCREATE
 40
2457105.726296296
  9
$TDUPDATE
 40
2457105.726296308
  9
$TDUUPDATE
 40
2457105.726296308
  9
$TDINDWG
 40
0.0000000116
  9
$TDUSRTIMER
 40
0.0000000116
  9
$USRTIMER
 70
     1
  9
$ANGBASE
 50
0.0
  9
$ANGDIR
 70
     0
  9
$PDMODE
 70
     0
  9
$PDSIZE
 40
0.0
  9
$PLINEWID
 40
0.0
  9
$SPLFRAME
 70
     0
  9
$SPLINETYPE
 70
     6
  9
$SPLINESEGS
 70
     8
  9
$HANDSEED
  5
79
  9
$SURFTAB1
 70
     6
  9
$SURFTAB2
 70
     6
  9
$SURFTYPE
 70
     6
  9
$SURFU
 70
     6
  9
$SURFV
 70
     6
  9
$UCSBASE
  2

  9
$UCSNAME
  2

  9
$UCSORG
 10
0.0
 20
0.0
 30
0.0
  9
$UCSXDIR
 10
1.0
 20
0.0
 30
0.0
  9
$UCSYDIR
 10
0.0
 20
1.0
 30
0.0
  9
$UCSORTHOREF
  2

  9
$UCSORTHOVIEW
 70
     0
  9
$UCSORGTOP
 10
0.0
 20
0.0
 30
0.0
  9
$UCSORGBOTTOM
 10
0.0
 20
0.0
 30
0.0
  9
$UCSORGLEFT
 10
0.0
 20
0.0
 30
0.0
  9
$UCSORGRIGHT
 10
0.0
 20
0.0
 30
0.0
  9
$UCSORGFRONT
 10
0.0
 20
0.0
 30
0.0
  9
$UCSORGBACK
 10
0.0
 20
0.0
 30
0.0
  9
$PUCSBASE
  2

  9
$PUCSNAME
  2

  9
$PUCSORG
 10
0.0
 20
0.0
 30
0.0
  9
$PUCSXDIR
 10
1.0
 20
0.0
 30
0.0
  9
$PUCSYDIR
 10
0.0
 20
1.0
 30
0.0
  9
$PUCSORTHOREF
  2

  9
$PUCSORTHOVIEW
 70
     0
  9
$PUCSORGTOP
 10
0.0
 20
0.0
 30
0.0
  9
$PUCSORGBOTTOM
 10
0.0
 20
0.0
 30
0.0
  9
$PUCSORGLEFT
 10
0.0
 20
0.0
 30
0.0
  9
$PUCSORGRIGHT
 10
0.0
 20
0.0
 30
0.0
  9
$PUCSORGFRONT
 10
0.0
 20
0.0
 30
0.0
  9
$PUCSORGBACK
 10
0.0
 20
0.0
 30
0.0
  9
$USERI1
 70
     0
  9
$USERI2
 70
     0
  9
$USERI3
 70
     0
  9
$USERI4
 70
     0
  9
$USERI5
 70
     0
  9
$USERR1
 40
0.0
  9
$USERR2
 40
0.0
  9
$USERR3
 40
0.0
  9
$USERR4
 40
0.0
  9
$USERR5
 40
0.0
  9
$WORLDVIEW
 70
     1
  9
$SHADEDGE
 70
     3
  9
$SHADEDIF
 70
    70
  9
$TILEMODE
 70
     1
  9
$MAXACTVP
 70
    64
  9
$PINSBASE
 10
0.0
 20
0.0
 30
0.0
  9
$PLIMCHECK
 70
     0
  9
$PEXTMIN
 10
1.000000000000000E+20
 20
1.000000000000000E+20
 30
1.000000000000000E+20
  9
$PEXTMAX
 10
-1.000000000000000E+20
 20
-1.000000000000000E+20
 30
-1.000000000000000E+20
  9
$PLIMMIN
 10
0.0
 20
0.0
  9
$PLIMMAX
 10
12.0
 20
9.0
  9
$UNITMODE
 70
     0
  9
$VISRETAIN
 70
     1
  9
$PLINEGEN
 70
     0
  9
$PSLTSCALE
 70
     1
  9
$TREEDEPTH
 70
  3020
  9
$CMLSTYLE
  2
Standard
  9
$CMLJUST
 70
     0
  9
$CMLSCALE
 40
1.0
  9
$PROXYGRAPHICS
 70
     1
  9
$MEASUREMENT
 70
     0
  9
$CELWEIGHT
370
    -1
  9
$ENDCAPS
280
     0
  9
$JOINSTYLE
280
     0
  9
$LWDISPLAY
290
     1
  9
$INSUNITS
 70
     1
  9
$HYPERLINKBASE
  1

  9
$STYLESHEET
  1

  9
$XEDIT
290
     1
  9
$CEPSNTYPE
380
     0
  9
$PSTYLEMODE
290
     1
  9
$FINGERPRINTGUID
  2
{2B8E9A5B-7ACA-EB07-BDD0-5082D2659041}
  9
$VERSIONGUID
  2
{FAEB1C32-E019-11D5-929B-00C0DF256EC4}
  9
$EXTNAMES
290
     1
  9
$PSVPSCALE
 40
0.0
  9
$OLESTARTUP
290
     0
  9
$SORTENTS
280
   127
  9
$INDEXCTL
280
     0
  9
$HIDETEXT
280
     1
  9
$XCLIPFRAME
290
     0
  9
$HALOGAP
280
     0
  9
$OBSCOLOR
 70
   257
  9
$OBSLTYPE
280
     0
  9
$INTERSECTIONDISPLAY
280
     0
  9
$INTERSECTIONCOLOR
 70
   257
  9
$DIMASSOC
280
     2
  9
$PROJECTNAME
  1

  0
ENDSEC
  0
SECTION
  2
CLASSES
  0
CLASS
  1
ACDBDICTIONARYWDFLT
  2
AcDbDictionaryWithDefault
  3
ObjectDBX Classes
 90
        0
 91
        3
280
     0
281
     0
  0
CLASS
  1
VISUALSTYLE
  2
AcDbVisualStyle
  3
ObjectDBX Classes
 90
     4095
 91
        3
280
     0
281
     0
  0
ENDSEC
  0
SECTION
  2
TABLES
  0
TABLE
  2
VPORT
  5
8
330
0
100
AcDbSymbolTable
 70
     1
  0
VPORT
  5
29
330
8
100
AcDbSymbolTableRecord
100
AcDbViewportTableRecord
  2
*Active
 70
     0
 10
0.0
 20
0.0
 11
1.0
 21
1.0
 12
0.0
 22
0.0
 13
0.0
 23
0.0
 14
0.5
 24
0.5
 15
0.5
 25
0.5
 16
0.0
 26
0.0
 36
1.0
 17
21.00791666141468
 27
14.83429693910827
 37
0.0
 40
41.9999686581198
 41
0.7071424675186722
 42
50.0
 43
0.0
 44
0.0
 50
0.0
 51
0.0
 71
     0
 72
   100
 73
     1
 74
     3
 75
     0
 76
     0
 77
     0
 78
     0
281
     0
 65
     1
110
0.0
120
0.0
130
0.0
111
1.0
121
0.0
131
0.0
112
0.0
122
1.0
132
0.0
 79
     0
146
0.0
  0
ENDTAB
  0
TABLE
  2
LTYPE
  5
5
330
0
100
AcDbSymbolTable
 70
     1
  0
LTYPE
  5
14
330
5
100
AcDbSymbolTableRecord
100
AcDbLinetypeTableRecord
  2
ByBlock
 70
     0
  3

 72
    65
 73
     0
 40
0.0
  0
LTYPE
  5
15
330
5
100
AcDbSymbolTableRecord
100
AcDbLinetypeTableRecord
  2
ByLayer
 70
     0
  3

 72
    65
 73
     0
 40
0.0
  0
LTYPE
  5
16
330
5
100
AcDbSymbolTableRecord
100
AcDbLinetypeTableRecord
  2
Continuous
 70
     0
  3
Solid line
 72
    65
 73
     0
 40
0.0
  0
ENDTAB
  0
TABLE
  2
LAYER
  5
2
330
0
100
AcDbSymbolTable
 70
     3
  0
LAYER
  5
10
330
2
100
AcDbSymbolTableRecord
100
AcDbLayerTableRecord
  2
0
 70
     0
 62
     7
  6
Continuous
370
    -3
390
F
  0
LAYER
  5
3B
330
2
100
AcDbSymbolTableRecord
100
AcDbLayerTableRecord
  2
Layer 1
 70
     0
 62
     7
  6
Continuous
370
    -3
390
F
  0
LAYER
  5
51
330
2
100
AcDbSymbolTableRecord
100
AcDbLayerTableRecord
  2
Layer 2
 70
     0
 62
     7
  6
Continuous
370
    -3
390
F
  0
ENDTAB
  0
TABLE
  2
STYLE
  5
3
330
0
100
AcDbSymbolTable
 70
     1
  0
STYLE
  5
11
330
3
100
AcDbSymbolTableRecord
100
AcDbTextStyleTableRecord
  2
Standard
 70
     0
 40
0.0
 41
1.0
 50
0.0
 71
     0
 42
0.2
  3
txt
  4

  0
ENDTAB
  0
TABLE
  2
VIEW
  5
6
330
0
100
AcDbSymbolTable
 70
     0
  0
ENDTAB
  0
TABLE
  2
UCS
  5
7
330
0
100
AcDbSymbolTable
 70
     0
  0
ENDTAB
  0
TABLE
  2
APPID
  5
9
330
0
100
AcDbSymbolTable
 70
     1
  0
APPID
  5
12
330
9
100
AcDbSymbolTableRecord
100
AcDbRegAppTableRecord
  2
ACAD
 70
     0
  0
ENDTAB
  0
TABLE
  2
DIMSTYLE
  5
A
330
0
100
AcDbSymbolTable
 70
     1
100
AcDbDimStyleTable
  0
DIMSTYLE
105
27
330
A
100
AcDbSymbolTableRecord
100
AcDbDimStyleTableRecord
  2
Standard
 70
     0
340
11
  0
ENDTAB
  0
TABLE
  2
BLOCK_RECORD
  5
1
330
0
100
AcDbSymbolTable
 70
     3
  0
BLOCK_RECORD
  5
1F
330
1
100
AcDbSymbolTableRecord
100
AcDbBlockTableRecord
  2
*Model_Space
340
22
  0
BLOCK_RECORD
  5
1B
330
1
100
AcDbSymbolTableRecord
100
AcDbBlockTableRecord
  2
*Paper_Space
340
1E
  0
BLOCK_RECORD
  5
23
330
1
100
AcDbSymbolTableRecord
100
AcDbBlockTableRecord
  2
*Paper_Space0
340
26
  0
BLOCK_RECORD
  5
4D
330
1
100
AcDbSymbolTableRecord
100
AcDbBlockTableRecord
  2
block 2
340
0
102
{BLKREFS
331
4E
102
}
  0
BLOCK_RECORD
  5
52
330
1
100
AcDbSymbolTableRecord
100
AcDbBlockTableRecord
  2
block 3
340
0
102
{BLKREFS
331
53
102
}
  0
ENDTAB
  0
ENDSEC
  0
SECTION
  2
BLOCKS
  0
BLOCK
  5
20
330
1F
100
AcDbEntity
  8
0
100
AcDbBlockBegin
  2
*Model_Space
 70
     0
 71
     0
 10
0.0
 20
0.0
 30
0.0
  3
*Model_Space
  1

  0
ENDBLK
  5
21
330
1F
100
AcDbEntity
  8
0
100
AcDbBlockEnd
  0
BLOCK
  5
1C
330
1B
100
AcDbEntity
 67
     1
  8
0
100
AcDbBlockBegin
  2
*Paper_Space
 70
     0
 71
     0
 10
0.0
 20
0.0
 30
0.0
  3
*Paper_Space
  1

  0
ENDBLK
  5
1D
330
1B
100
AcDbEntity
 67
     1
  8
0
100
AcDbBlockEnd
  0
BLOCK
  5
24
330
23
100
AcDbEntity
  8
0
100
AcDbBlockBegin
  2
*Paper_Space0
 70
     0
 71
     0
 10
0.0
 20
0.0
 30
0.0
  3
*Paper_Space0
  1

  0
ENDBLK
  5
25
330
23
100
AcDbEntity
  8
0
100
AcDbBlockEnd
  0
BLOCK
  5
4F
330
4D
100
AcDbEntity
  8
0
100
AcDbBlockBegin
  2
block 2
 70
     0
 71
     0
 10
0.0
 20
0.0
 30
0.0
  3
block 2
  1

  0
ENDBLK
  5
50
330
4D
100
AcDbEntity
  8
0
100
AcDbBlockEnd
  0
BLOCK
  5
54
330
52
100
AcDbEntity
  8
0
100
AcDbBlockBegin
  2
block 3
 70
     0
 71
     0
 10
0.0
 20
0.0
 30
0.0
  3
block 3
  1

  0
POLYLINE
  5
56
330
52
100
AcDbEntity
  8
Layer 2
370
     0
100
AcDb2dPolyline
 66
     1
 10
0.0
 20
0.0
 30
0.0
  0
VERTEX
  5
57
330
56
100
AcDbEntity
  8
Layer 2
370
     0
100
AcDbVertex
100
AcDb2dVertex
 10
9.16329942262237
 20
31.34931816165052
 30
0.0
  0
VERTEX
  5
58
330
56
100
AcDbEntity
  8
Layer 2
370
     0
100
AcDbVertex
100
AcDb2dVertex
 10
9.74887952772771
 20
31.27610988258895
 30
0.0
  0
VERTEX
  5
59
330
56
100
AcDbEntity
  8
Layer 2
370
     0
100
AcDbVertex
100
AcDb2dVertex
 10
10.59620076232491
 20
31.00763359142343
 30
0.0
  0
VERTEX
  5
5A
330
56
100
AcDbEntity
  8
Layer 2
370
     0
100
AcDbVertex
100
AcDb2dVertex
 10
10.70828694393751
 20
31.15405014954656
 30
0.0
  0
VERTEX
  5
5B
330
56
100
AcDbEntity
  8
Layer 2
370
     0
100
AcDbVertex
100
AcDb2dVertex
 10
11.40598768161031
 20
31.04427218190907
 30
0.0
  0
VERTEX
  5
5C
330
56
100
AcDbEntity
  8
Layer 2
370
     0
100
AcDbVertex
100
AcDb2dVertex
 10
11.21912570249036
 20
30.65371893222372
 30
0.0
  0
VERTEX
  5
5D
330
56
100
AcDbEntity
  8
Layer 2
370
     0
100
AcDbVertex
100
AcDb2dVertex
 10
11.44343586953497
 20
30.59277519308965
 30
0.0
  0
VERTEX
  5
5E
330
56
100
AcDbEntity
  8
Layer 2
370
     0
100
AcDbVertex
100
AcDb2dVertex
 10
13.68619303043262
 20
30.25107339738515
 30
0.0
  0
VERTEX
  5
5F
330
56
100
AcDbEntity
  8
Layer 2
370
     0
100
AcDbVertex
100
AcDb2dVertex
 10
14.77870171071505
 20
30.30945054038271
 30
0.0
  0
VERTEX
  5
60
330
56
100
AcDbEntity
  8
Layer 2
370
     0
100
AcDbVertex
100
AcDb2dVertex
 10
19.78768106601662
 20
30.20544310768301
 30
0.0
  0
VERTEX
  5
61
330
56
100
AcDbEntity
  8
Layer 2
370
     0
100
AcDbVertex
100
AcDb2dVertex
 10
21.66148572592143
 20
30.30945054038271
 30
0.0
  0
VERTEX
  5
62
330
56
100
AcDbEntity
  8
Layer 2
370
     0
100
AcDbVertex
100
AcDb2dVertex
 10
22.33338269840971
 20
29.76683077597843
 30
0.0
  0
VERTEX
  5
63
330
56
100
AcDbEntity
  8
Layer 2
370
     0
100
AcDbVertex
100
AcDb2dVertex
 10
21.92083251405104
 20
25.50748697278979
 30
0.0
  0
VERTEX
  5
64
330
56
100
AcDbEntity
  8
Layer 2
370
     0
100
AcDbVertex
100
AcDb2dVertex
 10
22.22737711032857
 20
24.84954263701678
 30
0.0
  0
VERTEX
  5
65
330
56
100
AcDbEntity
  8
Layer 2
370
     0
100
AcDbVertex
100
AcDb2dVertex
 10
22.22737711032857
 20
22.10228569325915
 30
0.0
  0
VERTEX
  5
66
330
56
100
AcDbEntity
  8
Layer 2
370
     0
100
AcDbVertex
100
AcDb2dVertex
 10
21.50817897682781
 20
22.10228569325915
 30
0.0
  0
VERTEX
  5
67
330
56
100
AcDbEntity
  8
Layer 2
370
     0
100
AcDbVertex
100
AcDb2dVertex
 10
20.90284124911457
 20
24.25788193837997
 30
0.0
  0
VERTEX
  5
68
330
56
100
AcDbEntity
  8
Layer 2
370
     0
100
AcDbVertex
100
AcDb2dVertex
 10
19.37513088165795
 20
25.24197346374159
 30
0.0
  0
VERTEX
  5
69
330
56
100
AcDbEntity
  8
Layer 2
370
     0
100
AcDbVertex
100
AcDb2dVertex
 10
18.59727999752082
 20
25.0111865171847
 30
0.0
  0
VERTEX
  5
6A
330
56
100
AcDbEntity
  8
Layer 2
370
     0
100
AcDbVertex
100
AcDb2dVertex
 10
14.62553276544084
 20
25.2997304895518
 30
0.0
  0
VERTEX
  5
6B
330
56
100
AcDbEntity
  8
Layer 2
370
     0
100
AcDbVertex
100
AcDb2dVertex
 10
13.68257568017311
 20
22.10228569325915
 30
0.0
  0
VERTEX
  5
6C
330
56
100
AcDbEntity
  8
Layer 2
370
     0
100
AcDbVertex
100
AcDb2dVertex
 10
12.96368760526602
 20
22.10228569325915
 30
0.0
  0
VERTEX
  5
6D
330
56
100
AcDbEntity
  8
Layer 2
370
     0
100
AcDbVertex
100
AcDb2dVertex
 10
12.89297702043127
 20
25.19580918423924
 30
0.0
  0
VERTEX
  5
6E
330
56
100
AcDbEntity
  8
Layer 2
370
     0
100
AcDbVertex
100
AcDb2dVertex
 10
12.35087402034978
 20
25.47289821411788
 30
0.0
  0
VERTEX
  5
6F
330
56
100
AcDbEntity
  8
Layer 2
370
     0
100
AcDbVertex
100
AcDb2dVertex
 10
10.5095049344386
 20
28.35391099009034
 30
0.0
  0
VERTEX
  5
70
330
56
100
AcDbEntity
  8
Layer 2
370
     0
100
AcDbVertex
100
AcDb2dVertex
 10
8.639920516503214
 20
28.49385076870119
 30
0.0
  0
VERTEX
  5
71
330
56
100
AcDbEntity
  8
Layer 2
370
     0
100
AcDbVertex
100
AcDb2dVertex
 10
8.266196558263312
 20
29.17716823272307
 30
0.0
  0
VERTEX
  5
72
330
56
100
AcDbEntity
  8
Layer 2
370
     0
100
AcDbVertex
100
AcDb2dVertex
 10
9.16329942262237
 20
30.05589151266832
 30
0.0
  0
VERTEX
  5
73
330
56
100
AcDbEntity
  8
Layer 2
370
     0
100
AcDbVertex
100
AcDb2dVertex
 10
9.59939683462272
 20
30.97101222641523
 30
0.0
  0
VERTEX
  5
74
330
56
100
AcDbEntity
  8
Layer 2
370
     0
100
AcDbVertex
100
AcDb2dVertex
 10
9.16329942262237
 20
31.34931816165052
 30
0.0
  0
SEQEND
  5
75
330
56
100
AcDbEntity
  8
Layer 2
370
     0
  0
SPLINE
  5
76
330
52
100
AcDbEntity
  8
Layer 2
370
     0
100
AcDbSpline
210
0.0
220
0.0
230
1.0
 70
    11
 71
     3
 72
   104
 73
   100
 74
     0
 42
0.0000000001
 43
0.0000000001
 40
0.0
 40
0.0
 40
0.0
 40
0.0
 40
1.0
 40
1.0
 40
1.0
 40
2.0
 40
2.0
 40
2.0
 40
3.0
 40
3.0
 40
3.0
 40
4.0
 40
4.0
 40
4.0
 40
5.0
 40
5.0
 40
5.0
 40
6.0
 40
6.0
 40
6.0
 40
7.0
 40
7.0
 40
7.0
 40
8.0
 40
8.0
 40
8.0
 40
9.0
 40
9.0
 40
9.0
 40
10.0
 40
10.0
 40
10.0
 40
11.0
 40
11.0
 40
11.0
 40
12.0
 40
12.0
 40
12.0
 40
13.0
 40
13.0
 40
13.0
 40
14.0
 40
14.0
 40
14.0
 40
15.0
 40
15.0
 40
15.0
 40
16.0
 40
16.0
 40
16.0
 40
17.0
 40
17.0
 40
17.0
 40
18.0
 40
18.0
 40
18.0
 40
19.0
 40
19.0
 40
19.0
 40
20.0
 40
20.0
 40
20.0
 40
21.0
 40
21.0
 40
21.0
 40
22.0
 40
22.0
 40
22.0
 40
23.0
 40
23.0
 40
23.0
 40
24.0
 40
24.0
 40
24.0
 40
25.0
 40
25.0
 40
25.0
 40
26.0
 40
26.0
 40
26.0
 40
27.0
 40
27.0
 40
27.0
 40
28.0
 40
28.0
 40
28.0
 40
29.0
 40
29.0
 40
29.0
 40
30.0
 40
30.0
 40
30.0
 40
31.0
 40
31.0
 40
31.0
 40
32.0
 40
32.0
 40
32.0
 40
33.0
 40
33.0
 40
33.0
 40
33.0
 10
9.16329942262237
 20
31.34935261260537
 30
0.0
 10
9.163282197144943
 20
31.34935261260537
 30
0.0
 10
9.163264971667516
 20
31.34935261260537
 30
0.0
 10
9.163264971667516
 20
31.34933538712794
 30
0.0
 10
9.163264971667516
 20
31.34931816165052
 30
0.0
 10
9.163264971667516
 20
31.34930093617309
 30
0.0
 10
9.163282197144943
 20
31.34930093617309
 30
0.0
 10
9.163282197144943
 20
31.34930093617309
 30
0.0
 10
9.599379609145293
 20
30.97097777546038
 30
0.0
 10
9.599379609145293
 20
30.97097777546038
 30
0.0
 10
9.599379609145293
 20
30.97097777546038
 30
0.0
 10
9.163264971667516
 20
30.05590873814574
 30
0.0
 10
9.163264971667516
 20
30.05590873814574
 30
0.0
 10
9.163264971667516
 20
30.05590873814574
 30
0.0
 10
8.266179332785885
 20
29.17718545820049
 30
0.0
 10
8.266179332785885
 20
29.17718545820049
 30
0.0
 10
8.266179332785885
 20
29.17718545820049
 30
0.0
 10
8.639886065548362
 20
28.49383354322376
 30
0.0
 10
8.639886065548362
 20
28.49383354322376
 30
0.0
 10
8.639886065548362
 20
28.49383354322376
 30
0.0
 10
10.5095049344386
 20
28.35387653913549
 30
0.0
 10
10.5095049344386
 20
28.35387653913549
 30
0.0
 10
10.5095049344386
 20
28.35387653913549
 30
0.0
 10
12.35083956939493
 20
25.47288098864046
 30
0.0
 10
12.35083956939493
 20
25.47288098864046
 30
0.0
 10
12.35083956939493
 20
25.47288098864046
 30
0.0
 10
12.89295979495384
 20
25.19577473328439
 30
0.0
 10
12.89295979495384
 20
25.19577473328439
 30
0.0
 10
12.89295979495384
 20
25.19577473328439
 30
0.0
 10
12.96365315431117
 20
22.10228569325915
 30
0.0
 10
12.96365315431117
 20
22.10228569325915
 30
0.0
 10
12.96365315431117
 20
22.10228569325915
 30
0.0
 10
13.68257568017311
 20
22.1022512423043
 30
0.0
 10
13.68257568017311
 20
22.1022512423043
 30
0.0
 10
13.68257568017311
 20
22.1022512423043
 30
0.0
 10
14.62556721639569
 20
25.29971326407438
 30
0.0
 10
14.62556721639569
 20
25.29971326407438
 30
0.0
 10
14.62556721639569
 20
25.29971326407438
 30
0.0
 10
18.59727999752082
 20
25.01115206622985
 30
0.0
 10
18.59727999752082
 20
25.01115206622985
 30
0.0
 10
18.59727999752082
 20
25.01115206622985
 30
0.0
 10
19.37514810713538
 20
25.24193901278674
 30
0.0
 10
19.37514810713538
 20
25.24193901278674
 30
0.0
 10
19.37514810713538
 20
25.24193901278674
 30
0.0
 10
20.90282402363714
 20
24.25784748742512
 30
0.0
 10
20.90282402363714
 20
24.25784748742512
 30
0.0
 10
20.90282402363714
 20
24.25784748742512
 30
0.0
 10
21.50814452587296
 20
22.10228569325915
 30
0.0
 10
21.50814452587296
 20
22.10228569325915
 30
0.0
 10
21.50814452587296
 20
22.10228569325915
 30
0.0
 10
22.22737711032857
 20
22.1022512423043
 30
0.0
 10
22.22737711032857
 20
22.1022512423043
 30
0.0
 10
22.22737711032857
 20
22.1022512423043
 30
0.0
 10
22.22741156128342
 20
24.84954263701678
 30
0.0
 10
22.22741156128342
 20
24.84954263701678
 30
0.0
 10
22.22741156128342
 20
24.84954263701678
 30
0.0
 10
21.92086696500589
 20
25.50750419826722
 30
0.0
 10
21.92086696500589
 20
25.50750419826722
 30
0.0
 10
21.92086696500589
 20
25.50750419826722
 30
0.0
 10
22.33341714936456
 20
29.76683077597843
 30
0.0
 10
22.33341714936456
 20
29.76683077597843
 30
0.0
 10
22.33341714936456
 20
29.76683077597843
 30
0.0
 10
21.66152017687628
 20
30.30948499133756
 30
0.0
 10
21.66152017687628
 20
30.30948499133756
 30
0.0
 10
21.66152017687628
 20
30.30948499133756
 30
0.0
 10
19.78768106601662
 20
30.20547755863786
 30
0.0
 10
19.78768106601662
 20
30.20547755863786
 30
0.0
 10
19.78768106601662
 20
30.20547755863786
 30
0.0
 10
14.77870171071505
 20
30.30948499133756
 30
0.0
 10
14.77870171071505
 20
30.30948499133756
 30
0.0
 10
14.77870171071505
 20
30.30948499133756
 30
0.0
 10
13.68619303043262
 20
30.25110784834
 30
0.0
 10
13.68619303043262
 20
30.25110784834
 30
0.0
 10
13.68619303043262
 20
30.25110784834
 30
0.0
 10
11.44343586953497
 20
30.5928096440445
 30
0.0
 10
11.44343586953497
 20
30.5928096440445
 30
0.0
 10
11.44343586953497
 20
30.5928096440445
 30
0.0
 10
11.21914292796778
 20
30.65375338317857
 30
0.0
 10
11.21914292796778
 20
30.65375338317857
 30
0.0
 10
11.21914292796778
 20
30.65375338317857
 30
0.0
 10
11.40602213256516
 20
31.04425495643164
 30
0.0
 10
11.40602213256516
 20
31.04425495643164
 30
0.0
 10
11.40602213256516
 20
31.04425495643164
 30
0.0
 10
10.70828694393751
 20
31.15408460050141
 30
0.0
 10
10.70828694393751
 20
31.15408460050141
 30
0.0
 10
10.70828694393751
 20
31.15408460050141
 30
0.0
 10
10.59616631137006
 20
31.00765081690086
 30
0.0
 10
10.59616631137006
 20
31.00765081690086
 30
0.0
 10
10.59616631137006
 20
31.00765081690086
 30
0.0
 10
9.748896753205136
 20
31.27614433354381
 30
0.0
 10
9.748896753205136
 20
31.27614433354381
 30
0.0
 10
9.748896753205136
 20
31.27614433354381
 30
0.0
 10
9.16329942262237
 20
31.34935261260537
 30
0.0
 10
9.16329942262237
 20
31.34935261260537
 30
0.0
 10
9.16329942262237
 20
31.34935261260537
 30
0.0
 10
9.16329942262237
 20
31.34935261260537
 30
0.0
 10
9.16329942262237
 20
31.34935261260537
 30
0.0
 10
9.16329942262237
 20
31.34935261260537
 30
0.0
 10
9.16329942262237
 20
31.34935261260537
 30
0.0
 10
9.16329942262237
 20
31.34935261260537
 30
0.0
  0
HATCH
  5
77
330
52
100
AcDbEntity
  8
Layer 2
 62
   179
420
  2301728
100
AcDbHatch
 10
0.0
 20
0.0
 30
0.0
210
0.0
220
0.0
230
1.0
  2
SOLID
 70
     1
 71
     0
 91
        2
 92
        1
 93
        1
 72
     4
 94
        3
 73
     0
 74
     1
 95
      104
 96
      100
 40
0.0
 40
0.0
 40
0.0
 40
0.0
 40
1.0
 40
1.0
 40
1.0
 40
2.0
 40
2.0
 40
2.0
 40
3.0
 40
3.0
 40
3.0
 40
4.0
 40
4.0
 40
4.0
 40
5.0
 40
5.0
 40
5.0
 40
6.0
 40
6.0
 40
6.0
 40
7.0
 40
7.0
 40
7.0
 40
8.0
 40
8.0
 40
8.0
 40
9.0
 40
9.0
 40
9.0
 40
10.0
 40
10.0
 40
10.0
 40
11.0
 40
11.0
 40
11.0
 40
12.0
 40
12.0
 40
12.0
 40
13.0
 40
13.0
 40
13.0
 40
14.0
 40
14.0
 40
14.0
 40
15.0
 40
15.0
 40
15.0
 40
16.0
 40
16.0
 40
16.0
 40
17.0
 40
17.0
 40
17.0
 40
18.0
 40
18.0
 40
18.0
 40
19.0
 40
19.0
 40
19.0
 40
20.0
 40
20.0
 40
20.0
 40
21.0
 40
21.0
 40
21.0
 40
22.0
 40
22.0
 40
22.0
 40
23.0
 40
23.0
 40
23.0
 40
24.0
 40
24.0
 40
24.0
 40
25.0
 40
25.0
 40
25.0
 40
26.0
 40
26.0
 40
26.0
 40
27.0
 40
27.0
 40
27.0
 40
28.0
 40
28.0
 40
28.0
 40
29.0
 40
29.0
 40
29.0
 40
30.0
 40
30.0
 40
30.0
 40
31.0
 40
31.0
 40
31.0
 40
32.0
 40
32.0
 40
32.0
 40
33.0
 40
33.0
 40
33.0
 40
33.0
 10
9.16329942262237
 20
31.34935261260537
 10
9.163282197144943
 20
31.34935261260537
 10
9.163264971667516
 20
31.34935261260537
 10
9.163264971667516
 20
31.34933538712794
 10
9.163264971667516
 20
31.34931816165052
 10
9.163264971667516
 20
31.34930093617309
 10
9.163282197144943
 20
31.34930093617309
 10
9.163282197144943
 20
31.34930093617309
 10
9.599379609145293
 20
30.97097777546038
 10
9.599379609145293
 20
30.97097777546038
 10
9.599379609145293
 20
30.97097777546038
 10
9.163264971667516
 20
30.05590873814574
 10
9.163264971667516
 20
30.05590873814574
 10
9.163264971667516
 20
30.05590873814574
 10
8.266179332785885
 20
29.17718545820049
 10
8.266179332785885
 20
29.17718545820049
 10
8.266179332785885
 20
29.17718545820049
 10
8.639886065548362
 20
28.49383354322376
 10
8.639886065548362
 20
28.49383354322376
 10
8.639886065548362
 20
28.49383354322376
 10
10.5095049344386
 20
28.35387653913549
 10
10.5095049344386
 20
28.35387653913549
 10
10.5095049344386
 20
28.35387653913549
 10
12.35083956939493
 20
25.47288098864046
 10
12.35083956939493
 20
25.47288098864046
 10
12.35083956939493
 20
25.47288098864046
 10
12.89295979495384
 20
25.19577473328439
 10
12.89295979495384
 20
25.19577473328439
 10
12.89295979495384
 20
25.19577473328439
 10
12.96365315431117
 20
22.10228569325915
 10
12.96365315431117
 20
22.10228569325915
 10
12.96365315431117
 20
22.10228569325915
 10
13.68257568017311
 20
22.1022512423043
 10
13.68257568017311
 20
22.1022512423043
 10
13.68257568017311
 20
22.1022512423043
 10
14.62556721639569
 20
25.29971326407438
 10
14.62556721639569
 20
25.29971326407438
 10
14.62556721639569
 20
25.29971326407438
 10
18.59727999752082
 20
25.01115206622985
 10
18.59727999752082
 20
25.01115206622985
 10
18.59727999752082
 20
25.01115206622985
 10
19.37514810713538
 20
25.24193901278674
 10
19.37514810713538
 20
25.24193901278674
 10
19.37514810713538
 20
25.24193901278674
 10
20.90282402363714
 20
24.25784748742512
 10
20.90282402363714
 20
24.25784748742512
 10
20.90282402363714
 20
24.25784748742512
 10
21.50814452587296
 20
22.10228569325915
 10
21.50814452587296
 20
22.10228569325915
 10
21.50814452587296
 20
22.10228569325915
 10
22.22737711032857
 20
22.1022512423043
 10
22.22737711032857
 20
22.1022512423043
 10
22.22737711032857
 20
22.1022512423043
 10
22.22741156128342
 20
24.84954263701678
 10
22.22741156128342
 20
24.84954263701678
 10
22.22741156128342
 20
24.84954263701678
 10
21.92086696500589
 20
25.50750419826722
 10
21.92086696500589
 20
25.50750419826722
 10
21.92086696500589
 20
25.50750419826722
 10
22.33341714936456
 20
29.76683077597843
 10
22.33341714936456
 20
29.76683077597843
 10
22.33341714936456
 20
29.76683077597843
 10
21.66152017687628
 20
30.30948499133756
 10
21.66152017687628
 20
30.30948499133756
 10
21.66152017687628
 20
30.30948499133756
 10
19.78768106601662
 20
30.20547755863786
 10
19.78768106601662
 20
30.20547755863786
 10
19.78768106601662
 20
30.20547755863786
 10
14.77870171071505
 20
30.30948499133756
 10
14.77870171071505
 20
30.30948499133756
 10
14.77870171071505
 20
30.30948499133756
 10
13.68619303043262
 20
30.25110784834
 10
13.68619303043262
 20
30.25110784834
 10
13.68619303043262
 20
30.25110784834
 10
11.44343586953497
 20
30.5928096440445
 10
11.44343586953497
 20
30.5928096440445
 10
11.44343586953497
 20
30.5928096440445
 10
11.21914292796778
 20
30.65375338317857
 10
11.21914292796778
 20
30.65375338317857
 10
11.21914292796778
 20
30.65375338317857
 10
11.40602213256516
 20
31.04425495643164
 10
11.40602213256516
 20
31.04425495643164
 10
11.40602213256516
 20
31.04425495643164
 10
10.70828694393751
 20
31.15408460050141
 10
10.70828694393751
 20
31.15408460050141
 10
10.70828694393751
 20
31.15408460050141
 10
10.59616631137006
 20
31.00765081690086
 10
10.59616631137006
 20
31.00765081690086
 10
10.59616631137006
 20
31.00765081690086
 10
9.748896753205136
 20
31.27614433354381
 10
9.748896753205136
 20
31.27614433354381
 10
9.748896753205136
 20
31.27614433354381
 10
9.16329942262237
 20
31.34935261260537
 10
9.16329942262237
 20
31.34935261260537
 10
9.16329942262237
 20
31.34935261260537
 10
9.16329942262237
 20
31.34935261260537
 10
9.16329942262237
 20
31.34935261260537
 10
9.16329942262237
 20
31.34935261260537
 10
9.16329942262237
 20
31.34935261260537
 10
9.16329942262237
 20
31.34935261260537
 97
        0
 92
        1
 93
       29
 72
     1
 10
9.16329942262237
 20
31.34931816165052
 11
9.74887952772771
 21
31.27610988258895
 72
     1
 10
9.74887952772771
 20
31.27610988258895
 11
10.59620076232491
 21
31.00763359142343
 72
     1
 10
10.59620076232491
 20
31.00763359142343
 11
10.70828694393751
 21
31.15405014954656
 72
     1
 10
10.70828694393751
 20
31.15405014954656
 11
11.40598768161031
 21
31.04427218190907
 72
     1
 10
11.40598768161031
 20
31.04427218190907
 11
11.21912570249036
 21
30.65371893222372
 72
     1
 10
11.21912570249036
 20
30.65371893222372
 11
11.44343586953497
 21
30.59277519308965
 72
     1
 10
11.44343586953497
 20
30.59277519308965
 11
13.68619303043262
 21
30.25107339738515
 72
     1
 10
13.68619303043262
 20
30.25107339738515
 11
14.77870171071505
 21
30.30945054038271
 72
     1
 10
14.77870171071505
 20
30.30945054038271
 11
19.78768106601662
 21
30.20544310768301
 72
     1
 10
19.78768106601662
 20
30.20544310768301
 11
21.66148572592143
 21
30.30945054038271
 72
     1
 10
21.66148572592143
 20
30.30945054038271
 11
22.33338269840971
 21
29.76683077597843
 72
     1
 10
22.33338269840971
 20
29.76683077597843
 11
21.92083251405104
 21
25.50748697278979
 72
     1
 10
21.92083251405104
 20
25.50748697278979
 11
22.22737711032857
 21
24.84954263701678
 72
     1
 10
22.22737711032857
 20
24.84954263701678
 11
22.22737711032857
 21
22.10228569325915
 72
     1
 10
22.22737711032857
 20
22.10228569325915
 11
21.50817897682781
 21
22.10228569325915
 72
     1
 10
21.50817897682781
 20
22.10228569325915
 11
20.90284124911457
 21
24.25788193837997
 72
     1
 10
20.90284124911457
 20
24.25788193837997
 11
19.37513088165795
 21
25.24197346374159
 72
     1
 10
19.37513088165795
 20
25.24197346374159
 11
18.59727999752082
 21
25.0111865171847
 72
     1
 10
18.59727999752082
 20
25.0111865171847
 11
14.62553276544084
 21
25.2997304895518
 72
     1
 10
14.62553276544084
 20
25.2997304895518
 11
13.68257568017311
 21
22.10228569325915
 72
     1
 10
13.68257568017311
 20
22.10228569325915
 11
12.96368760526602
 21
22.10228569325915
 72
     1
 10
12.96368760526602
 20
22.10228569325915
 11
12.89297702043127
 21
25.19580918423924
 72
     1
 10
12.89297702043127
 20
25.19580918423924
 11
12.35087402034978
 21
25.47289821411788
 72
     1
 10
12.35087402034978
 20
25.47289821411788
 11
10.5095049344386
 21
28.35391099009034
 72
     1
 10
10.5095049344386
 20
28.35391099009034
 11
8.639920516503214
 21
28.49385076870119
 72
     1
 10
8.639920516503214
 20
28.49385076870119
 11
8.266196558263312
 21
29.17716823272307
 72
     1
 10
8.266196558263312
 20
29.17716823272307
 11
9.16329942262237
 21
30.05589151266832
 72
     1
 10
9.16329942262237
 20
30.05589151266832
 11
9.59939683462272
 21
30.97101222641523
 72
     1
 10
9.59939683462272
 20
30.97101222641523
 11
9.16329942262237
 21
31.34931816165052
 97
        0
 75
     2
 76
     1
 98
        0
  0
ENDBLK
  5
55
330
52
100
AcDbEntity
  8
0
100
AcDbBlockEnd
  0
ENDSEC
  0
SECTION
  2
ENTITIES
  0
SPLINE
  5
3C
330
1F
100
AcDbEntity
  8
Layer 1
370
     0
100
AcDbSpline
210
0.0
220
0.0
230
1.0
 70
    11
 71
     3
 72
   197
 73
   193
 74
     0
 42
0.0000000001
 43
0.0000000001
 40
0.0
 40
0.0
 40
0.0
 40
0.0
 40
1.0
 40
1.0
 40
1.0
 40
2.0
 40
2.0
 40
2.0
 40
3.0
 40
3.0
 40
3.0
 40
4.0
 40
4.0
 40
4.0
 40
5.0
 40
5.0
 40
5.0
 40
6.0
 40
6.0
 40
6.0
 40
7.0
 40
7.0
 40
7.0
 40
8.0
 40
8.0
 40
8.0
 40
9.0
 40
9.0
 40
9.0
 40
10.0
 40
10.0
 40
10.0
 40
11.0
 40
11.0
 40
11.0
 40
12.0
 40
12.0
 40
12.0
 40
13.0
 40
13.0
 40
13.0
 40
14.0
 40
14.0
 40
14.0
 40
15.0
 40
15.0
 40
15.0
 40
16.0
 40
16.0
 40
16.0
 40
17.0
 40
17.0
 40
17.0
 40
18.0
 40
18.0
 40
18.0
 40
19.0
 40
19.0
 40
19.0
 40
20.0
 40
20.0
 40
20.0
 40
21.0
 40
21.0
 40
21.0
 40
22.0
 40
22.0
 40
22.0
 40
23.0
 40
23.0
 40
23.0
 40
24.0
 40
24.0
 40
24.0
 40
25.0
 40
25.0
 40
25.0
 40
26.0
 40
26.0
 40
26.0
 40
27.0
 40
27.0
 40
27.0
 40
28.0
 40
28.0
 40
28.0
 40
29.0
 40
29.0
 40
29.0
 40
30.0
 40
30.0
 40
30.0
 40
31.0
 40
31.0
 40
31.0
 40
32.0
 40
32.0
 40
32.0
 40
33.0
 40
33.0
 40
33.0
 40
34.0
 40
34.0
 40
34.0
 40
35.0
 40
35.0
 40
35.0
 40
36.0
 40
36.0
 40
36.0
 40
37.0
 40
37.0
 40
37.0
 40
38.0
 40
38.0
 40
38.0
 40
39.0
 40
39.0
 40
39.0
 40
40.0
 40
40.0
 40
40.0
 40
41.0
 40
41.0
 40
41.0
 40
42.0
 40
42.0
 40
42.0
 40
43.0
 40
43.0
 40
43.0
 40
44.0
 40
44.0
 40
44.0
 40
45.0
 40
45.0
 40
45.0
 40
46.0
 40
46.0
 40
46.0
 40
47.0
 40
47.0
 40
47.0
 40
48.0
 40
48.0
 40
48.0
 40
49.0
 40
49.0
 40
49.0
 40
50.0
 40
50.0
 40
50.0
 40
51.0
 40
51.0
 40
51.0
 40
52.0
 40
52.0
 40
52.0
 40
53.0
 40
53.0
 40
53.0
 40
54.0
 40
54.0
 40
54.0
 40
55.0
 40
55.0
 40
55.0
 40
56.0
 40
56.0
 40
56.0
 40
57.0
 40
57.0
 40
57.0
 40
58.0
 40
58.0
 40
58.0
 40
59.0
 40
59.0
 40
59.0
 40
60.0
 40
60.0
 40
60.0
 40
61.0
 40
61.0
 40
61.0
 40
62.0
 40
62.0
 40
62.0
 40
63.0
 40
63.0
 40
63.0
 40
64.0
 40
64.0
 40
64.0
 40
64.0
 10
22.04933457565086
 20
29.4927045282171
 30
0.0
 10
22.05188394630994
 20
29.50837971267499
 30
0.0
 10
22.05353759214286
 20
29.52436495572655
 30
0.0
 10
22.05353759214286
 20
29.54076361023634
 30
0.0
 10
22.05353759214286
 20
29.64819891294385
 30
0.0
 10
21.99690022236536
 20
29.74218111778147
 30
0.0
 10
21.9119441676991
 20
29.79516668634461
 30
0.0
 10
21.9119441676991
 20
29.79516668634461
 30
0.0
 10
21.66913383789869
 20
29.98528428069812
 30
0.0
 10
21.66913383789869
 20
29.98528428069812
 30
0.0
 10
21.66486191949698
 20
29.98893608191248
 30
0.0
 10
21.66031439345645
 20
29.99232950096546
 30
0.0
 10
21.65583576932562
 20
29.99574014549585
 30
0.0
 10
21.65583576932562
 20
29.99574014549585
 30
0.0
 10
21.6555601616868
 20
29.99592962574754
 30
0.0
 10
21.6555601616868
 20
29.99592962574754
 30
0.0
 10
21.6555601616868
 20
29.99592962574754
 30
0.0
 10
21.6555601616868
 20
29.99592962574754
 30
0.0
 10
21.6555601616868
 20
29.99592962574754
 30
0.0
 10
21.60533066951186
 20
30.03375677417559
 30
0.0
 10
21.54311224504825
 20
30.05644272794596
 30
0.0
 10
21.47545056971794
 20
30.05644272794596
 30
0.0
 10
21.4624970106934
 20
30.05644272794596
 30
0.0
 10
21.44988796121739
 20
30.0553575228681
 30
0.0
 10
21.43734781365108
 20
30.05377277894489
 30
0.0
 10
21.43734781365108
 20
30.05377277894489
 30
0.0
 10
21.43721000983167
 20
30.05380722989974
 30
0.0
 10
21.43721000983167
 20
30.05380722989974
 30
0.0
 10
21.43721000983167
 20
30.05380722989974
 30
0.0
 10
19.83214002325377
 20
29.95624212575747
 30
0.0
 10
19.83214002325377
 20
29.95624212575747
 30
0.0
 10
19.83214002325377
 20
29.95624212575747
 30
0.0
 10
14.79623724673497
 20
30.06648518128546
 30
0.0
 10
14.79623724673497
 20
30.06648518128546
 30
0.0
 10
14.79623724673497
 20
30.06648518128546
 30
0.0
 10
13.68057752479166
 20
30.00474907018978
 30
0.0
 10
13.68057752479166
 20
30.00474907018978
 30
0.0
 10
13.68057752479166
 20
30.00474907018978
 30
0.0
 10
11.39193169203049
 20
30.34870740343713
 30
0.0
 10
11.39193169203049
 20
30.34870740343713
 30
0.0
 10
11.39193169203049
 20
30.34870740343713
 30
0.0
 10
10.87313476290672
 20
30.48187756941946
 30
0.0
 10
10.87313476290672
 20
30.48187756941946
 30
0.0
 10
10.87313476290672
 20
30.48187756941946
 30
0.0
 10
10.87306586099701
 20
30.48198092228402
 30
0.0
 10
10.87306586099701
 20
30.48198092228402
 30
0.0
 10
10.8584931070944
 20
30.5892611956947
 30
0.0
 10
10.78745523818855
 20
30.67854084519495
 30
0.0
 10
10.69064805505303
 20
30.71857285473355
 30
0.0
 10
10.69064805505303
 20
30.71857285473355
 30
0.0
 10
10.69061360409818
 20
30.7186073056884
 30
0.0
 10
10.69061360409818
 20
30.7186073056884
 30
0.0
 10
10.69061360409818
 20
30.7186073056884
 30
0.0
 10
10.68995903595598
 20
30.71881401141752
 30
0.0
 10
10.68995903595598
 20
30.71881401141752
 30
0.0
 10
10.67600639924072
 20
30.72453286992303
 30
0.0
 10
10.66146809629297
 20
30.72906317048614
 30
0.0
 10
10.64655083284183
 20
30.7326460697908
 30
0.0
 10
10.64655083284183
 20
30.7326460697908
 30
0.0
 10
10.12730604130498
 20
30.89825180976676
 30
0.0
 10
10.12730604130498
 20
30.89825180976676
 30
0.0
 10
10.12730604130498
 20
30.89825180976676
 30
0.0
 10
10.12723713939527
 20
30.89823458428933
 30
0.0
 10
10.12723713939527
 20
30.89823458428933
 30
0.0
 10
10.09781602395124
 20
30.90788085164803
 30
0.0
 10
10.06643120408061
 20
30.91328965155987
 30
0.0
 10
10.03373724792559
 20
30.91328965155987
 30
0.0
 10
9.924045407675237
 20
30.91328965155987
 30
0.0
 10
9.828409557004703
 20
30.85422348946526
 30
0.0
 10
9.776078556583757
 20
30.76635632911396
 30
0.0
 10
9.776078556583757
 20
30.76635632911396
 30
0.0
 10
9.776078556583757
 20
30.76635632911396
 30
0.0
 10
9.776078556583757
 20
30.76635632911396
 30
0.0
 10
9.776078556583757
 20
30.76635632911396
 30
0.0
 10
9.776044105628905
 20
30.76630465268169
 30
0.0
 10
9.776044105628905
 20
30.76630465268169
 30
0.0
 10
9.766707896863878
 20
30.75064669370122
 30
0.0
 10
9.758818628202656
 20
30.73407578441717
 30
0.0
 10
9.752445201554943
 20
30.71672972864894
 30
0.0
 10
9.752445201554943
 20
30.71672972864894
 30
0.0
 10
9.368006996355914
 20
29.90923379786123
 30
0.0
 10
9.368006996355914
 20
29.90923379786123
 30
0.0
 10
9.368006996355914
 20
29.90923379786123
 30
0.0
 10
8.789058700059678
 20
29.33638332057389
 30
0.0
 10
8.789058700059678
 20
29.33638332057389
 30
0.0
 10
8.789058700059678
 20
29.33638332057389
 30
0.0
 10
8.789058700059678
 20
29.33638332057389
 30
0.0
 10
8.789058700059678
 20
29.33638332057389
 30
0.0
 10
8.711544051641559
 20
29.27163275092862
 30
0.0
 10
8.662175833337928
 20
29.17434325442516
 30
0.0
 10
8.662175833337928
 20
29.06547823709127
 30
0.0
 10
8.662175833337928
 20
28.87055473453583
 30
0.0
 10
8.820202363246338
 20
28.71256265558227
 30
0.0
 10
9.015091414846921
 20
28.71256265558227
 30
0.0
 10
9.021189233855813
 20
28.71256265558227
 30
0.0
 10
9.027114798090443
 20
28.71316554729219
 30
0.0
 10
9.03314371518963
 20
28.71347560588586
 30
0.0
 10
9.03314371518963
 20
28.71347560588586
 30
0.0
 10
9.03314371518963
 20
28.71345838040844
 30
0.0
 10
9.03314371518963
 20
28.71345838040844
 30
0.0
 10
9.03314371518963
 20
28.71345838040844
 30
0.0
 10
10.64668863666124
 20
28.58922823721033
 30
0.0
 10
10.64668863666124
 20
28.58922823721033
 30
0.0
 10
10.64668863666124
 20
28.58922823721033
 30
0.0
 10
12.44003309150805
 20
25.79460123053051
 30
0.0
 10
12.44003309150805
 20
25.79460123053051
 30
0.0
 10
12.46979871650061
 20
25.71488172100183
 30
0.0
 10
12.53229274860304
 20
25.65135416025383
 30
0.0
 10
12.61135768998952
 20
25.62027939897687
 30
0.0
 10
12.61135768998952
 20
25.62027939897687
 30
0.0
 10
12.61135768998952
 20
25.62027939897687
 30
0.0
 10
12.61135768998952
 20
25.62027939897687
 30
0.0
 10
12.61135768998952
 20
25.62027939897687
 30
0.0
 10
13.13818169159393
 20
25.34367268246616
 30
0.0
 10
13.13818169159393
 20
25.34367268246616
 30
0.0
 10
13.13818169159393
 20
25.34367268246616
 30
0.0
 10
13.18823892899461
 20
23.41236937891253
 30
0.0
 10
13.18823892899461
 20
23.41236937891253
 30
0.0
 10
13.18823892899461
 20
23.41236937891253
 30
0.0
 10
13.18823892899461
 20
23.41236937891253
 30
0.0
 10
13.18823892899461
 20
23.41236937891253
 30
0.0
 10
13.18789441944608
 20
23.4063749127682
 30
0.0
 10
13.18734320416844
 20
23.40044934853357
 30
0.0
 10
13.18734320416844
 20
23.39445488238923
 30
0.0
 10
13.18734320416844
 20
23.22874578954871
 30
0.0
 10
13.32166747713833
 20
23.09445596753368
 30
0.0
 10
13.487342119024
 20
23.09445596753368
 30
0.0
 10
13.6301413268876
 20
23.09445596753368
 30
0.0
 10
13.7493760816321
 20
23.19429483469622
 30
0.0
 10
13.7796929219023
 20
23.3278956376142
 30
0.0
 10
13.7796929219023
 20
23.3278956376142
 30
0.0
 10
13.779761823812
 20
23.3278956376142
 30
0.0
 10
13.779761823812
 20
23.3278956376142
 30
0.0
 10
13.779761823812
 20
23.3278956376142
 30
0.0
 10
14.43904974682426
 20
25.55974907130103
 30
0.0
 10
14.43904974682426
 20
25.55974907130103
 30
0.0
 10
14.43904974682426
 20
25.55974907130103
 30
0.0
 10
18.56654974579239
 20
25.26431490796343
 30
0.0
 10
18.56654974579239
 20
25.26431490796343
 30
0.0
 10
18.56654974579239
 20
25.26431490796343
 30
0.0
 10
19.40880669002627
 20
25.52006157131095
 30
0.0
 10
19.40880669002627
 20
25.52006157131095
 30
0.0
 10
19.40880669002627
 20
25.52006157131095
 30
0.0
 10
21.11536918959963
 20
24.42350490383336
 30
0.0
 10
21.11536918959963
 20
24.42350490383336
 30
0.0
 10
21.11536918959963
 20
24.42350490383336
 30
0.0
 10
21.37099527460517
 20
23.46797322004446
 30
0.0
 10
21.37099527460517
 20
23.46797322004446
 30
0.0
 10
21.37099527460517
 20
23.46797322004446
 30
0.0
 10
21.37278672425749
 20
23.46797322004446
 30
0.0
 10
21.37278672425749
 20
23.46797322004446
 30
0.0
 10
21.38884086921876
 20
23.31749144924875
 30
0.0
 10
21.51617159835359
 20
23.20028930084055
 30
0.0
 10
21.67099418946072
 20
23.20028930084055
 30
0.0
 10
21.82574787865815
 20
23.20028930084055
 30
0.0
 10
21.95307860779298
 20
23.31749144924875
 30
0.0
 10
21.96920165466395
 20
23.46797322004446
 30
0.0
 10
21.96920165466395
 20
23.46797322004446
 30
0.0
 10
21.96920165466395
 20
23.46797322004446
 30
0.0
 10
21.96920165466395
 20
23.46797322004446
 30
0.0
 10
21.96920165466395
 20
23.46797322004446
 30
0.0
 10
21.96920165466395
 20
23.46824882768328
 30
0.0
 10
21.96920165466395
 20
23.46824882768328
 30
0.0
 10
21.97030408521923
 20
23.47872191795844
 30
0.0
 10
21.97099310431628
 20
23.48940171396272
 30
0.0
 10
21.97099310431628
 20
23.50028821569611
 30
0.0
 10
21.97099310431628
 20
23.51145032506832
 30
0.0
 10
21.97023518330952
 20
23.52247463062112
 30
0.0
 10
21.96906385084454
 20
23.5332922304448
 30
0.0
 10
21.96906385084454
 20
23.5332922304448
 30
0.0
 10
21.96637667636604
 20
24.67272311123633
 30
0.0
 10
21.96637667636604
 20
24.67272311123633
 30
0.0
 10
21.96637667636604
 20
24.67272311123633
 30
0.0
 10
21.96637667636604
 20
24.67279201314604
 30
0.0
 10
21.96637667636604
 20
24.67279201314604
 30
0.0
 10
21.96920165466395
 20
24.68932847147524
 30
0.0
 10
21.97099310431628
 20
24.70614053744325
 30
0.0
 10
21.97099310431628
 20
24.72350381868891
 30
0.0
 10
21.97099310431628
 20
24.77752291589763
 30
0.0
 10
21.95645480136852
 20
24.8281658195308
 30
0.0
 10
21.93144340814561
 20
24.87198743410318
 30
0.0
 10
21.93144340814561
 20
24.87198743410318
 30
0.0
 10
21.93144340814561
 20
24.87198743410318
 30
0.0
 10
21.93144340814561
 20
24.87198743410318
 30
0.0
 10
21.93144340814561
 20
24.87198743410318
 30
0.0
 10
21.67099418946072
 20
25.47155462687864
 30
0.0
 10
21.67099418946072
 20
25.47155462687864
 30
0.0
 10
21.67099418946072
 20
25.47155462687864
 30
0.0
 10
22.04933457565086
 20
29.49268730273967
 30
0.0
 10
22.04933457565086
 20
29.49268730273967
 30
0.0
 10
22.04933457565086
 20
29.49268730273967
 30
0.0
 10
22.04933457565086
 20
29.4927045282171
 30
0.0
 10
22.04933457565086
 20
29.4927045282171
 30
0.0
  0
POLYLINE
  5
3D
330
1F
100
AcDbEntity
  8
Layer 1
370
     0
100
AcDb2dPolyline
 66
     1
 10
0.0
 20
0.0
 30
0.0
  0
VERTEX
  5
3E
330
3D
100
AcDbEntity
  8
Layer 1
370
     0
100
AcDbVertex
100
AcDb2dVertex
 10
17.19895019101276
 20
28.31076116913759
 30
0.0
  0
VERTEX
  5
3F
330
3D
100
AcDbEntity
  8
Layer 1
370
     0
100
AcDbVertex
100
AcDb2dVertex
 10
17.63695963100743
 20
28.31076116913759
 30
0.0
  0
VERTEX
  5
40
330
3D
100
AcDbEntity
  8
Layer 1
370
     0
100
AcDbVertex
100
AcDb2dVertex
 10
17.63695963100743
 20
26.99659504533418
 30
0.0
  0
VERTEX
  5
41
330
3D
100
AcDbEntity
  8
Layer 1
370
     0
100
AcDbVertex
100
AcDb2dVertex
 10
17.19895019101276
 20
26.99659504533418
 30
0.0
  0
VERTEX
  5
42
330
3D
100
AcDbEntity
  8
Layer 1
370
     0
100
AcDbVertex
100
AcDb2dVertex
 10
17.19895019101276
 20
28.31076116913759
 30
0.0
  0
SEQEND
  5
43
330
3D
100
AcDbEntity
  8
Layer 1
370
     0
  0
SPLINE
  5
44
330
1F
100
AcDbEntity
  8
Layer 1
370
     0
100
AcDbSpline
210
0.0
220
0.0
230
1.0
 70
    11
 71
     3
 72
   128
 73
   124
 74
     0
 42
0.0000000001
 43
0.0000000001
 40
0.0
 40
0.0
 40
0.0
 40
0.0
 40
1.0
 40
1.0
 40
1.0
 40
2.0
 40
2.0
 40
2.0
 40
3.0
 40
3.0
 40
3.0
 40
4.0
 40
4.0
 40
4.0
 40
5.0
 40
5.0
 40
5.0
 40
6.0
 40
6.0
 40
6.0
 40
7.0
 40
7.0
 40
7.0
 40
8.0
 40
8.0
 40
8.0
 40
9.0
 40
9.0
 40
9.0
 40
10.0
 40
10.0
 40
10.0
 40
11.0
 40
11.0
 40
11.0
 40
12.0
 40
12.0
 40
12.0
 40
13.0
 40
13.0
 40
13.0
 40
14.0
 40
14.0
 40
14.0
 40
15.0
 40
15.0
 40
15.0
 40
16.0
 40
16.0
 40
16.0
 40
17.0
 40
17.0
 40
17.0
 40
18.0
 40
18.0
 40
18.0
 40
19.0
 40
19.0
 40
19.0
 40
20.0
 40
20.0
 40
20.0
 40
21.0
 40
21.0
 40
21.0
 40
22.0
 40
22.0
 40
22.0
 40
23.0
 40
23.0
 40
23.0
 40
24.0
 40
24.0
 40
24.0
 40
25.0
 40
25.0
 40
25.0
 40
26.0
 40
26.0
 40
26.0
 40
27.0
 40
27.0
 40
27.0
 40
28.0
 40
28.0
 40
28.0
 40
29.0
 40
29.0
 40
29.0
 40
30.0
 40
30.0
 40
30.0
 40
31.0
 40
31.0
 40
31.0
 40
32.0
 40
32.0
 40
32.0
 40
33.0
 40
33.0
 40
33.0
 40
34.0
 40
34.0
 40
34.0
 40
35.0
 40
35.0
 40
35.0
 40
36.0
 40
36.0
 40
36.0
 40
37.0
 40
37.0
 40
37.0
 40
38.0
 40
38.0
 40
38.0
 40
39.0
 40
39.0
 40
39.0
 40
40.0
 40
40.0
 40
40.0
 40
41.0
 40
41.0
 40
41.0
 40
41.0
 10
21.6334426486715
 20
25.04231295489393
 30
0.0
 10
21.6334426486715
 20
25.04231295489393
 30
0.0
 10
21.43521185445022
 20
25.46421657349505
 30
0.0
 10
21.43521185445022
 20
25.46421657349505
 30
0.0
 10
21.43521185445022
 20
25.46421657349505
 30
0.0
 10
21.53098550894017
 20
26.75514552825045
 30
0.0
 10
21.53098550894017
 20
26.75514552825045
 30
0.0
 10
21.57039740129143
 20
26.83824123135467
 30
0.0
 10
21.60505506187304
 20
26.9240930108471
 30
0.0
 10
21.6334426486715
 20
27.01276976863743
 30
0.0
 10
21.6334426486715
 20
27.01276976863743
 30
0.0
 10
21.6334426486715
 20
28.13728338597783
 30
0.0
 10
21.6334426486715
 20
28.13728338597783
 30
0.0
 10
21.6334426486715
 20
28.13728338597783
 30
0.0
 10
21.73224798718847
 20
29.46963961394335
 30
0.0
 10
21.73224798718847
 20
29.46963961394335
 30
0.0
 10
21.73397053493109
 20
29.48269652583245
 30
0.0
 10
21.73521076930578
 20
29.49597736892809
 30
0.0
 10
21.73521076930578
 20
29.50953381966254
 30
0.0
 10
21.73521076930578
 20
29.67520846154821
 30
0.0
 10
21.60085204538104
 20
29.8095327345181
 30
0.0
 10
21.43514295254052
 20
29.8095327345181
 30
0.0
 10
21.40847791348468
 20
29.8095327345181
 30
0.0
 10
21.38284640307442
 20
29.8057259040069
 30
0.0
 10
21.35824842130974
 20
29.79921467353978
 30
0.0
 10
21.35824842130974
 20
29.79921467353978
 30
0.0
 10
20.27442138165014
 20
29.65369384024282
 30
0.0
 10
20.27442138165014
 20
29.65369384024282
 30
0.0
 10
20.27442138165014
 20
29.65369384024282
 30
0.0
 10
19.66401936357358
 20
29.65636378924389
 30
0.0
 10
19.66401936357358
 20
29.65636378924389
 30
0.0
 10
19.65413193953091
 20
29.65841362105762
 30
0.0
 10
19.64390000593972
 20
29.65953327709032
 30
0.0
 10
19.63339246470971
 20
29.65953327709032
 30
0.0
 10
19.62350504066704
 20
29.65953327709032
 30
0.0
 10
19.61392767521804
 20
29.65844807201247
 30
0.0
 10
19.60455701549817
 20
29.65662217140529
 30
0.0
 10
19.60455701549817
 20
29.65662217140529
 30
0.0
 10
18.94134168363272
 20
29.65953327709032
 30
0.0
 10
18.94134168363272
 20
29.65953327709032
 30
0.0
 10
18.94134168363272
 20
29.65953327709032
 30
0.0
 10
14.93142279357617
 20
29.8095327345181
 30
0.0
 10
14.93142279357617
 20
29.8095327345181
 30
0.0
 10
14.93142279357617
 20
29.8095327345181
 30
0.0
 10
13.73197834943159
 20
29.72106268245689
 30
0.0
 10
13.73197834943159
 20
29.72106268245689
 30
0.0
 10
13.73197834943159
 20
29.72106268245689
 30
0.0
 10
11.42717501884459
 20
30.10908378696057
 30
0.0
 10
11.42717501884459
 20
30.10908378696057
 30
0.0
 10
11.42717501884459
 20
30.10908378696057
 30
0.0
 10
10.32560573743596
 20
30.5403063888493
 30
0.0
 10
10.32560573743596
 20
30.5403063888493
 30
0.0
 10
10.28436794447752
 20
30.56163152990299
 30
0.0
 10
10.23768690065238
 20
30.57387884435306
 30
0.0
 10
10.18804307470993
 20
30.57387884435306
 30
0.0
 10
10.07838568541443
 20
30.57387884435306
 30
0.0
 10
9.962423771380921
 20
30.53217596350411
 30
0.0
 10
9.910127221914829
 20
30.44430880315281
 30
0.0
 10
9.910127221914829
 20
30.44430880315281
 30
0.0
 10
9.888113061764082
 20
30.41481878579907
 30
0.0
 10
9.888113061764082
 20
30.41481878579907
 30
0.0
 10
9.888113061764082
 20
30.41481878579907
 30
0.0
 10
9.194305281989617
 20
29.39756821639192
 30
0.0
 10
9.194305281989617
 20
29.39756821639192
 30
0.0
 10
9.152826332347209
 20
29.34609848984229
 30
0.0
 10
9.127883841034
 20
29.2807450284871
 30
0.0
 10
9.127883841034
 20
29.20953490480699
 30
0.0
 10
9.127883841034
 20
29.04386026292132
 30
0.0
 10
9.262173663049039
 20
28.90953598995143
 30
0.0
 10
9.42781385397985
 20
28.90953598995143
 30
0.0
 10
9.42781385397985
 20
28.90953598995143
 30
0.0
 10
10.81546386448363
 20
28.90953598995143
 30
0.0
 10
10.81546386448363
 20
28.90953598995143
 30
0.0
 10
10.81546386448363
 20
28.90953598995143
 30
0.0
 10
12.56715711491377
 20
26.08433376084002
 30
0.0
 10
12.56715711491377
 20
26.08433376084002
 30
0.0
 10
12.58872341265143
 20
25.93984645618865
 30
0.0
 10
12.71295355584954
 20
25.8289143815636
 30
0.0
 10
12.8634008756904
 20
25.8289143815636
 30
0.0
 10
12.8634008756904
 20
25.8289143815636
 30
0.0
 10
13.31419161993534
 20
25.6536968251838
 30
0.0
 10
13.31419161993534
 20
25.6536968251838
 30
0.0
 10
13.31419161993534
 20
25.6536968251838
 30
0.0
 10
13.31419161993534
 20
24.51755601058068
 30
0.0
 10
13.31419161993534
 20
24.51755601058068
 30
0.0
 10
13.31419161993534
 20
24.35191581964987
 30
0.0
 10
13.44844699099553
 20
24.21755709572512
 30
0.0
 10
13.61408718192634
 20
24.21755709572512
 30
0.0
 10
13.77979627476686
 20
24.21755709572512
 30
0.0
 10
13.9141549986916
 20
24.35191581964987
 30
0.0
 10
13.9141549986916
 20
24.51755601058068
 30
0.0
 10
13.9141549986916
 20
24.51755601058068
 30
0.0
 10
14.29642279373492
 20
25.78171657341568
 30
0.0
 10
14.29642279373492
 20
25.78171657341568
 30
0.0
 10
14.29642279373492
 20
25.78171657341568
 30
0.0
 10
18.42388834174819
 20
25.53470322712327
 30
0.0
 10
18.42388834174819
 20
25.53470322712327
 30
0.0
 10
18.44283636691707
 20
25.53091362208949
 30
0.0
 10
18.46240450927329
 20
25.52891546670805
 30
0.0
 10
18.48245496499744
 20
25.52891546670805
 30
0.0
 10
18.51711262557905
 20
25.52891546670805
 30
0.0
 10
18.55032334605686
 20
25.53504773667179
 30
0.0
 10
18.58132920542411
 20
25.54593423840518
 30
0.0
 10
18.58132920542411
 20
25.54593423840518
 30
0.0
 10
18.95122910767538
 20
25.66830403004126
 30
0.0
 10
18.95122910767538
 20
25.66830403004126
 30
0.0
 10
18.96504394057124
 20
25.66354979827161
 30
0.0
 10
18.97851426391857
 20
25.65817544931462
 30
0.0
 10
18.99246690063383
 20
25.6536968251838
 30
0.0
 10
18.99246690063383
 20
25.6536968251838
 30
0.0
 10
19.69760904455476
 20
25.6536968251838
 30
0.0
 10
19.69760904455476
 20
25.6536968251838
 30
0.0
 10
19.69760904455476
 20
25.6536968251838
 30
0.0
 10
21.13521293959467
 20
24.68808823710054
 30
0.0
 10
21.13521293959467
 20
24.68808823710054
 30
0.0
 10
21.20370143784143
 20
24.5965175991026
 30
0.0
 10
21.30967257496772
 20
24.51755601058068
 30
0.0
 10
21.43514295254052
 20
24.51755601058068
 30
0.0
 10
21.60085204538104
 20
24.51755601058068
 30
0.0
 10
21.73521076930578
 20
24.65191473450542
 30
0.0
 10
21.73521076930578
 20
24.81755492543623
 30
0.0
 10
21.73521076930578
 20
24.90719630996244
 30
0.0
 10
21.69572997504482
 20
24.98732923094935
 30
0.0
 10
21.6334426486715
 20
25.04231295489393
 30
0.0
  0
SPLINE
  5
45
330
1F
100
AcDbEntity
  8
Layer 1
370
     0
100
AcDbSpline
210
0.0
220
0.0
230
1.0
 70
    11
 71
     3
 72
   173
 73
   169
 74
     0
 42
0.0000000001
 43
0.0000000001
 40
0.0
 40
0.0
 40
0.0
 40
0.0
 40
1.0
 40
1.0
 40
1.0
 40
2.0
 40
2.0
 40
2.0
 40
3.0
 40
3.0
 40
3.0
 40
4.0
 40
4.0
 40
4.0
 40
5.0
 40
5.0
 40
5.0
 40
6.0
 40
6.0
 40
6.0
 40
7.0
 40
7.0
 40
7.0
 40
8.0
 40
8.0
 40
8.0
 40
9.0
 40
9.0
 40
9.0
 40
10.0
 40
10.0
 40
10.0
 40
11.0
 40
11.0
 40
11.0
 40
12.0
 40
12.0
 40
12.0
 40
13.0
 40
13.0
 40
13.0
 40
14.0
 40
14.0
 40
14.0
 40
15.0
 40
15.0
 40
15.0
 40
16.0
 40
16.0
 40
16.0
 40
17.0
 40
17.0
 40
17.0
 40
18.0
 40
18.0
 40
18.0
 40
19.0
 40
19.0
 40
19.0
 40
20.0
 40
20.0
 40
20.0
 40
21.0
 40
21.0
 40
21.0
 40
22.0
 40
22.0
 40
22.0
 40
23.0
 40
23.0
 40
23.0
 40
24.0
 40
24.0
 40
24.0
 40
25.0
 40
25.0
 40
25.0
 40
26.0
 40
26.0
 40
26.0
 40
27.0
 40
27.0
 40
27.0
 40
28.0
 40
28.0
 40
28.0
 40
29.0
 40
29.0
 40
29.0
 40
30.0
 40
30.0
 40
30.0
 40
31.0
 40
31.0
 40
31.0
 40
32.0
 40
32.0
 40
32.0
 40
33.0
 40
33.0
 40
33.0
 40
34.0
 40
34.0
 40
34.0
 40
35.0
 40
35.0
 40
35.0
 40
36.0
 40
36.0
 40
36.0
 40
37.0
 40
37.0
 40
37.0
 40
38.0
 40
38.0
 40
38.0
 40
39.0
 40
39.0
 40
39.0
 40
40.0
 40
40.0
 40
40.0
 40
41.0
 40
41.0
 40
41.0
 40
42.0
 40
42.0
 40
42.0
 40
43.0
 40
43.0
 40
43.0
 40
44.0
 40
44.0
 40
44.0
 40
45.0
 40
45.0
 40
45.0
 40
46.0
 40
46.0
 40
46.0
 40
47.0
 40
47.0
 40
47.0
 40
48.0
 40
48.0
 40
48.0
 40
49.0
 40
49.0
 40
49.0
 40
50.0
 40
50.0
 40
50.0
 40
51.0
 40
51.0
 40
51.0
 40
52.0
 40
52.0
 40
52.0
 40
53.0
 40
53.0
 40
53.0
 40
54.0
 40
54.0
 40
54.0
 40
55.0
 40
55.0
 40
55.0
 40
56.0
 40
56.0
 40
56.0
 40
56.0
 10
21.43514295254052
 20
29.81037678291199
 30
0.0
 10
21.40847791348468
 20
29.81037678291199
 30
0.0
 10
21.38284640307442
 20
29.80656995240079
 30
0.0
 10
21.35824842130974
 20
29.80005872193366
 30
0.0
 10
21.35824842130974
 20
29.80005872193366
 30
0.0
 10
20.27442138165014
 20
29.65453788863671
 30
0.0
 10
20.27442138165014
 20
29.65453788863671
 30
0.0
 10
20.27442138165014
 20
29.65453788863671
 30
0.0
 10
19.66401936357358
 20
29.65720783763778
 30
0.0
 10
19.66401936357358
 20
29.65720783763778
 30
0.0
 10
19.65409748857606
 20
29.6592576694515
 30
0.0
 10
19.64390000593972
 20
29.66037732548421
 30
0.0
 10
19.63335801375485
 20
29.66037732548421
 30
0.0
 10
19.62350504066704
 20
29.66037732548421
 30
0.0
 10
19.61392767521804
 20
29.65929212040636
 30
0.0
 10
19.60455701549817
 20
29.65746621979917
 30
0.0
 10
19.60455701549817
 20
29.65746621979917
 30
0.0
 10
18.94130723267786
 20
29.66037732548421
 30
0.0
 10
18.94130723267786
 20
29.66037732548421
 30
0.0
 10
18.94130723267786
 20
29.66037732548421
 30
0.0
 10
17.86030517131617
 20
29.70082274648104
 30
0.0
 10
17.86030517131617
 20
29.70082274648104
 30
0.0
 10
17.8613042490069
 20
29.687404099566
 30
0.0
 10
17.86240667956217
 20
29.6740199036058
 30
0.0
 10
17.86240667956217
 20
29.66037732548421
 30
0.0
 10
17.86240667956217
 20
29.34864786050138
 30
0.0
 10
17.60319769525198
 20
29.09593288118088
 30
0.0
 10
17.28338948135623
 20
29.09593288118088
 30
0.0
 10
16.9636501693702
 20
29.09593288118088
 30
0.0
 10
16.70440673410515
 20
29.34864786050138
 30
0.0
 10
16.70440673410515
 20
29.66037732548421
 30
0.0
 10
16.70440673410515
 20
29.68879936323752
 30
0.0
 10
16.7072661633579
 20
29.71649793093893
 30
0.0
 10
16.71143472889506
 20
29.74378308718211
 30
0.0
 10
16.71143472889506
 20
29.74378308718211
 30
0.0
 10
14.93142279357617
 20
29.81037678291199
 30
0.0
 10
14.93142279357617
 20
29.81037678291199
 30
0.0
 10
14.93142279357617
 20
29.81037678291199
 30
0.0
 10
13.73197834943159
 20
29.72190673085077
 30
0.0
 10
13.73197834943159
 20
29.72190673085077
 30
0.0
 10
13.73197834943159
 20
29.72190673085077
 30
0.0
 10
12.84503851675402
 20
29.8712171691815
 30
0.0
 10
12.84503851675402
 20
29.8712171691815
 30
0.0
 10
12.78140760314145
 20
29.62685654641273
 30
0.0
 10
12.55492702594113
 20
29.44583400414028
 30
0.0
 10
12.28448703034902
 20
29.44583400414028
 30
0.0
 10
11.96471326740813
 20
29.44583400414028
 30
0.0
 10
11.70550428309793
 20
29.69854898346078
 30
0.0
 10
11.70550428309793
 20
30.01027844844361
 30
0.0
 10
11.70550428309793
 20
30.02795178828294
 30
0.0
 10
11.70657226269836
 20
30.04536674596088
 30
0.0
 10
11.70822590853128
 20
30.06260944886455
 30
0.0
 10
11.70822590853128
 20
30.06260944886455
 30
0.0
 10
11.42714056788974
 20
30.10992783535446
 30
0.0
 10
11.42714056788974
 20
30.10992783535446
 30
0.0
 10
11.42714056788974
 20
30.10992783535446
 30
0.0
 10
10.32557128648111
 20
30.54115043724318
 30
0.0
 10
10.32557128648111
 20
30.54115043724318
 30
0.0
 10
10.28433349352267
 20
30.56247557829688
 30
0.0
 10
10.23765244969753
 20
30.57472289274694
 30
0.0
 10
10.18800862375508
 20
30.57472289274694
 30
0.0
 10
10.07838568541443
 20
30.57472289274694
 30
0.0
 10
9.962423771380921
 20
30.53302001189799
 30
0.0
 10
9.910092770959976
 20
30.44515285154669
 30
0.0
 10
9.910092770959976
 20
30.44515285154669
 30
0.0
 10
9.88807861080923
 20
30.41566283419296
 30
0.0
 10
9.88807861080923
 20
30.41566283419296
 30
0.0
 10
9.88807861080923
 20
30.41566283419296
 30
0.0
 10
9.194270831034766
 20
29.39841226478581
 30
0.0
 10
9.194270831034766
 20
29.39841226478581
 30
0.0
 10
9.152826332347209
 20
29.34694253823618
 30
0.0
 10
9.127883841034
 20
29.28158907688099
 30
0.0
 10
9.127883841034
 20
29.21037895320088
 30
0.0
 10
9.127883841034
 20
29.04470431131521
 30
0.0
 10
9.262173663049039
 20
28.91038003834532
 30
0.0
 10
9.42781385397985
 20
28.91038003834532
 30
0.0
 10
9.42781385397985
 20
28.91038003834532
 30
0.0
 10
10.81542941352878
 20
28.91038003834532
 30
0.0
 10
10.81542941352878
 20
28.91038003834532
 30
0.0
 10
10.81542941352878
 20
28.91038003834532
 30
0.0
 10
11.04566514480803
 20
28.53903319599024
 30
0.0
 10
11.04566514480803
 20
28.53903319599024
 30
0.0
 10
11.14233452412414
 20
28.60962320248301
 30
0.0
 10
11.26198269032686
 20
28.6519462005193
 30
0.0
 10
11.39203504489505
 20
28.6519462005193
 30
0.0
 10
11.71180880783594
 20
28.6519462005193
 30
0.0
 10
11.97101779214613
 20
28.39924844667623
 30
0.0
 10
11.97101779214613
 20
28.08750175621597
 30
0.0
 10
11.97101779214613
 20
27.86284707962283
 30
0.0
 10
11.8360734019889
 20
27.6694394190809
 30
0.0
 10
11.64118435038831
 20
27.57857502565744
 30
0.0
 10
11.64118435038831
 20
27.57857502565744
 30
0.0
 10
12.56712266395891
 20
26.08516058375649
 30
0.0
 10
12.56712266395891
 20
26.08516058375649
 30
0.0
 10
12.58868896169658
 20
25.94067327910511
 30
0.0
 10
12.71291910489469
 20
25.82974120448006
 30
0.0
 10
12.8634008756904
 20
25.82974120448006
 30
0.0
 10
12.8634008756904
 20
25.82974120448006
 30
0.0
 10
13.31415716898049
 20
25.65452364810026
 30
0.0
 10
13.31415716898049
 20
25.65452364810026
 30
0.0
 10
13.31415716898049
 20
25.65452364810026
 30
0.0
 10
13.31415716898049
 20
25.19527519443903
 30
0.0
 10
13.31415716898049
 20
25.19527519443903
 30
0.0
 10
13.41757893544769
 20
25.28932630118635
 30
0.0
 10
13.55600287204503
 20
25.34732448368053
 30
0.0
 10
13.70862060204159
 20
25.34732448368053
 30
0.0
 10
13.86726724913735
 20
25.34732448368053
 30
0.0
 10
14.01089327991741
 20
25.28498548087493
 30
0.0
 10
14.1154863788496
 20
25.18425088888623
 30
0.0
 10
14.1154863788496
 20
25.18425088888623
 30
0.0
 10
14.29642279373492
 20
25.78254339633214
 30
0.0
 10
14.29642279373492
 20
25.78254339633214
 30
0.0
 10
14.29642279373492
 20
25.78254339633214
 30
0.0
 10
15.59119302995637
 20
25.70506319886887
 30
0.0
 10
15.59119302995637
 20
25.70506319886887
 30
0.0
 10
15.6475203411402
 20
25.60622340939705
 30
0.0
 10
15.75056314710402
 20
25.5364946767756
 30
0.0
 10
15.87255397823672
 20
25.52801974188188
 30
0.0
 10
15.87255397823672
 20
25.52801974188188
 30
0.0
 10
17.60536810540768
 20
25.40782036040152
 30
0.0
 10
17.60536810540768
 20
25.40782036040152
 30
0.0
 10
17.7366262433957
 20
25.39872530832045
 30
0.0
 10
17.85582654718535
 20
25.46297633912037
 30
0.0
 10
17.92341932060595
 20
25.5655023807614
 30
0.0
 10
17.92341932060595
 20
25.5655023807614
 30
0.0
 10
18.42385389079334
 20
25.53553005003973
 30
0.0
 10
18.42385389079334
 20
25.53553005003973
 30
0.0
 10
18.44280191596221
 20
25.5317748959608
 30
0.0
 10
18.46237005831843
 20
25.52974228962451
 30
0.0
 10
18.48242051404259
 20
25.52974228962451
 30
0.0
 10
18.5170781746242
 20
25.52974228962451
 30
0.0
 10
18.55028889510201
 20
25.5359090105431
 30
0.0
 10
18.58129475446926
 20
25.54676106132164
 30
0.0
 10
18.58129475446926
 20
25.54676106132164
 30
0.0
 10
18.95122910767538
 20
25.66913085295771
 30
0.0
 10
18.95122910767538
 20
25.66913085295771
 30
0.0
 10
18.96500948961638
 20
25.66437662118807
 30
0.0
 10
18.97851426391857
 20
25.65900227223108
 30
0.0
 10
18.99243244967897
 20
25.65452364810026
 30
0.0
 10
18.99243244967897
 20
25.65452364810026
 30
0.0
 10
19.69757459359991
 20
25.65452364810026
 30
0.0
 10
19.69757459359991
 20
25.65452364810026
 30
0.0
 10
19.69757459359991
 20
25.65452364810026
 30
0.0
 10
20.67946125785097
 20
24.99504624483631
 30
0.0
 10
20.67946125785097
 20
24.99504624483631
 30
0.0
 10
20.70974364716631
 20
25.2790599166403
 30
0.0
 10
20.95596462149712
 20
25.50045897799988
 30
0.0
 10
21.25524006630077
 20
25.50045897799988
 30
0.0
 10
21.31835421559055
 20
25.50045897799988
 30
0.0
 10
21.37891899422124
 20
25.49033039727325
 30
0.0
 10
21.43576306972786
 20
25.47214029311113
 30
0.0
 10
21.43576306972786
 20
25.47214029311113
 30
0.0
 10
21.53091660703046
 20
26.75598957664434
 30
0.0
 10
21.53091660703046
 20
26.75598957664434
 30
0.0
 10
21.57032849938172
 20
26.83908527974856
 30
0.0
 10
21.60505506187304
 20
26.92493705924099
 30
0.0
 10
21.6334426486715
 20
27.01361381703132
 30
0.0
 10
21.6334426486715
 20
27.01361381703132
 30
0.0
 10
21.6334426486715
 20
28.13812743437171
 30
0.0
 10
21.6334426486715
 20
28.13812743437171
 30
0.0
 10
21.6334426486715
 20
28.13812743437171
 30
0.0
 10
21.73224798718847
 20
29.47048366233724
 30
0.0
 10
21.73224798718847
 20
29.47048366233724
 30
0.0
 10
21.73397053493109
 20
29.48354057422634
 30
0.0
 10
21.73521076930578
 20
29.49682141732197
 30
0.0
 10
21.73521076930578
 20
29.51037786805643
 30
0.0
 10
21.73521076930578
 20
29.6760525099421
 30
0.0
 10
21.60085204538104
 20
29.81037678291199
 30
0.0
 10
21.43514295254052
 20
29.81037678291199
 30
0.0
  0
POLYLINE
  5
46
330
1F
100
AcDbEntity
  8
Layer 1
370
     0
100
AcDb2dPolyline
 66
     1
 10
0.0
 20
0.0
 30
0.0
  0
VERTEX
  5
47
330
46
100
AcDbEntity
  8
Layer 1
370
     0
100
AcDbVertex
100
AcDb2dVertex
 10
20.73451388370526
 20
27.00444986304055
 30
0.0
  0
VERTEX
  5
48
330
46
100
AcDbEntity
  8
Layer 1
370
     0
100
AcDbVertex
100
AcDb2dVertex
 10
18.23451144292401
 20
27.00444986304055
 30
0.0
  0
VERTEX
  5
49
330
46
100
AcDbEntity
  8
Layer 1
370
     0
100
AcDbVertex
100
AcDb2dVertex
 10
18.23451144292401
 20
28.50444443731833
 30
0.0
  0
VERTEX
  5
4A
330
46
100
AcDbEntity
  8
Layer 1
370
     0
100
AcDbVertex
100
AcDb2dVertex
 10
20.73451388370526
 20
28.50444443731833
 30
0.0
  0
VERTEX
  5
4B
330
46
100
AcDbEntity
  8
Layer 1
370
     0
100
AcDbVertex
100
AcDb2dVertex
 10
20.73451388370526
 20
27.00444986304055
 30
0.0
  0
SEQEND
  5
4C
330
46
100
AcDbEntity
  8
Layer 1
370
     0
  0
INSERT
  5
4E
330
1F
100
AcDbEntity
  8
Layer 1
100
AcDbBlockReference
  2
block 2
 10
0.0
 20
0.0
 30
0.0
  0
INSERT
  5
53
330
1F
100
AcDbEntity
  8
Layer 2
100
AcDbBlockReference
  2
block 3
 10
0.0
 20
0.0
 30
0.0
  0
ENDSEC
  0
SECTION
  2
OBJECTS
  0
DICTIONARY
  5
C
330
0
100
AcDbDictionary
281
     1
  3
ACAD_GROUP
350
D
  3
ACAD_LAYOUT
350
1A
  3
ACAD_MLINESTYLE
350
17
  3
ACAD_PLOTSETTINGS
350
19
  3
ACAD_PLOTSTYLENAME
350
E
  3
ACAD_TABLESTYLE
350
78
  3
ACAD_VISUALSTYLE
350
2A
  0
DICTIONARY
  5
D
102
{ACAD_REACTORS
330
C
102
}
330
C
100
AcDbDictionary
281
     1
  0
DICTIONARY
  5
1A
102
{ACAD_REACTORS
330
C
102
}
330
C
100
AcDbDictionary
281
     1
  3
Layout1
350
1E
  3
Layout2
350
26
  3
Model
350
22
  0
DICTIONARY
  5
17
102
{ACAD_REACTORS
330
C
102
}
330
C
100
AcDbDictionary
281
     1
  3
Standard
350
18
  0
DICTIONARY
  5
19
102
{ACAD_REACTORS
330
C
102
}
330
C
100
AcDbDictionary
281
     1
  0
ACDBDICTIONARYWDFLT
  5
E
102
{ACAD_REACTORS
330
C
102
}
330
C
100
AcDbDictionary
281
     1
  3
Normal
350
F
100
AcDbDictionaryWithDefault
340
F
  0
DICTIONARY
  5
78
102
{ACAD_REACTORS
330
C
102
}
330
C
100
AcDbDictionary
281
     1
  0
DICTIONARY
  5
2A
102
{ACAD_REACTORS
330
C
102
}
330
C
100
AcDbDictionary
281
     1
  3
2dWireframe
350
2F
  3
3D Hidden
350
31
  3
3dWireframe
350
30
  3
Basic
350
32
  3
Brighten
350
36
  3
ColorChange
350
3A
  3
Conceptual
350
34
  3
Dim
350
35
  3
Facepattern
350
39
  3
Flat
350
2B
  3
FlatWithEdges
350
2C
  3
Gouraud
350
2D
  3
GouraudWithEdges
350
2E
  3
Linepattern
350
38
  3
Realistic
350
33
  3
Thicken
350
37
  0
LAYOUT
  5
1E
102
{ACAD_REACTORS
330
1A
102
}
330
1A
100
AcDbPlotSettings
  1

  2
none_device
  4

  6

 40
0.0
 41
0.0
 42
0.0
 43
0.0
 44
0.0
 45
0.0
 46
0.0
 47
0.0
 48
0.0
 49
0.0
140
0.0
141
0.0
142
1.0
143
1.0
 70
   688
 72
     0
 73
     0
 74
     5
  7

 75
    16
 76
     0
 77
     2
 78
   300
147
1.0
148
0.0
149
0.0
100
AcDbLayout
  1
Layout1
 70
     1
 71
     1
 10
0.0
 20
0.0
 11
12.0
 21
9.0
 12
0.0
 22
0.0
 32
0.0
 14
1.000000000000000E+20
 24
1.000000000000000E+20
 34
1.000000000000000E+20
 15
-1.000000000000000E+20
 25
-1.000000000000000E+20
 35
-1.000000000000000E+20
146
0.0
 13
0.0
 23
0.0
 33
0.0
 16
1.0
 26
0.0
 36
0.0
 17
0.0
 27
1.0
 37
0.0
 76
     0
330
1B
  0
LAYOUT
  5
26
102
{ACAD_REACTORS
330
1A
102
}
330
1A
100
AcDbPlotSettings
  1

  2
none_device
  4

  6

 40
0.0
 41
0.0
 42
0.0
 43
0.0
 44
0.0
 45
0.0
 46
0.0
 47
0.0
 48
0.0
 49
0.0
140
0.0
141
0.0
142
1.0
143
1.0
 70
   688
 72
     0
 73
     0
 74
     5
  7

 75
    16
 76
     0
 77
     2
 78
   300
147
1.0
148
0.0
149
0.0
100
AcDbLayout
  1
Layout2
 70
     1
 71
     2
 10
0.0
 20
0.0
 11
0.0
 21
0.0
 12
0.0
 22
0.0
 32
0.0
 14
0.0
 24
0.0
 34
0.0
 15
0.0
 25
0.0
 35
0.0
146
0.0
 13
0.0
 23
0.0
 33
0.0
 16
1.0
 26
0.0
 36
0.0
 17
0.0
 27
1.0
 37
0.0
 76
     0
330
23
  0
LAYOUT
  5
22
102
{ACAD_REACTORS
330
1A
102
}
330
1A
100
AcDbPlotSettings
  1

  2
none_device
  4

  6

 40
0.0
 41
0.0
 42
0.0
 43
0.0
 44
0.0
 45
0.0
 46
0.0
 47
0.0
 48
0.0
 49
0.0
140
0.0
141
0.0
142
1.0
143
1.0
 70
  1712
 72
     0
 73
     0
 74
     0
  7

 75
     0
 76
     0
 77
     2
 78
   300
147
1.0
148
0.0
149
0.0
100
AcDbLayout
  1
Model
 70
     1
 71
     0
 10
0.0
 20
0.0
 11
12.0
 21
9.0
 12
0.0
 22
0.0
 32
0.0
 14
1.000000000000000E+20
 24
1.000000000000000E+20
 34
1.000000000000000E+20
 15
-1.000000000000000E+20
 25
-1.000000000000000E+20
 35
-1.000000000000000E+20
146
0.0
 13
0.0
 23
0.0
 33
0.0
 16
1.0
 26
0.0
 36
0.0
 17
0.0
 27
1.0
 37
0.0
 76
     0
330
1F
331
29
  0
MLINESTYLE
  5
18
102
{ACAD_REACTORS
330
17
102
}
330
17
100
AcDbMlineStyle
  2
Standard
 70
     0
  3

 62
   256
 51
90.0
 52
90.0
 71
     2
 49
0.5
 62
   256
  6
BYLAYER
 49
-0.5
 62
   256
  6
BYLAYER
  0
ACDBPLACEHOLDER
  5
F
102
{ACAD_REACTORS
330
E
102
}
330
E
  0
VISUALSTYLE
  5
2F
102
{ACAD_REACTORS
330
2A
102
}
330
2A
100
AcDbVisualStyle
  2
2dWireframe
 70
     4
 71
     0
 72
     2
 73
     0
 90
        0
 40
-0.6
 41
-30.0
 62
     5
 63
     7
421
 16777215
 74
     1
 91
        4
 64
     7
 65
   257
 75
     1
175
     1
 42
1.0
 92
        0
 66
   257
 43
1.0
 76
     1
 77
     6
 78
     2
 67
     7
 79
     5
170
     0
171
     0
290
     0
174
     0
 93
        1
 44
0.0
173
     0
291
     0
 45
0.0
1001
ACAD
1000
AcDbSavedByObjectVersion
1070
     0
  0
VISUALSTYLE
  5
31
102
{ACAD_REACTORS
330
2A
102
}
330
2A
100
AcDbVisualStyle
  2
3D Hidden
 70
     6
 71
     1
 72
     2
 73
     2
 90
        0
 40
-0.6
 41
-30.0
 62
     5
 63
     7
421
 16777215
 74
     2
 91
        2
 64
     7
 65
   257
 75
     2
175
     1
 42
40.0
 92
        0
 66
   257
 43
1.0
 76
     1
 77
     6
 78
     2
 67
     7
 79
     3
170
     0
171
     0
290
     0
174
     0
 93
        1
 44
0.0
173
     0
291
     0
 45
0.0
1001
ACAD
1000
AcDbSavedByObjectVersion
1070
     0
  0
VISUALSTYLE
  5
30
102
{ACAD_REACTORS
330
2A
102
}
330
2A
100
AcDbVisualStyle
  2
3dWireframe
 70
     5
 71
     0
 72
     2
 73
     0
 90
        0
 40
-0.6
 41
-30.0
 62
     5
 63
     7
421
 16777215
 74
     1
 91
        4
 64
     7
 65
   257
 75
     1
175
     1
 42
1.0
 92
        0
 66
   257
 43
1.0
 76
     1
 77
     6
 78
     2
 67
     7
 79
     5
170
     0
171
     0
290
     0
174
     0
 93
        1
 44
0.0
173
     0
291
     0
 45
0.0
1001
ACAD
1000
AcDbSavedByObjectVersion
1070
     0
  0
VISUALSTYLE
  5
32
102
{ACAD_REACTORS
330
2A
102
}
330
2A
100
AcDbVisualStyle
  2
Basic
 70
     7
 71
     1
 72
     0
 73
     1
 90
        0
 40
-0.6
 41
-30.0
 62
     5
 63
     7
421
 16777215
 74
     0
 91
        4
 64
     7
 65
   257
 75
     1
175
     1
 42
1.0
 92
        8
 66
     7
 43
1.0
 76
     1
 77
     6
 78
     2
 67
     7
 79
     5
170
     0
171
     0
290
     0
174
     0
 93
        1
 44
0.0
173
     0
291
     1
 45
0.0
1001
ACAD
1000
AcDbSavedByObjectVersion
1070
     0
  0
VISUALSTYLE
  5
36
102
{ACAD_REACTORS
330
2A
102
}
330
2A
100
AcDbVisualStyle
  2
Brighten
 70
    12
 71
     2
 72
     2
 73
     0
 90
        0
 40
-0.6
 41
-30.0
 62
     5
 63
     7
421
 16777215
 74
     1
 91
        4
 64
     7
 65
   257
 75
     1
175
     1
 42
1.0
 92
        8
 66
     7
 43
1.0
 76
     1
 77
     6
 78
     2
 67
     7
 79
     5
170
     0
171
     0
290
     0
174
     0
 93
        1
 44
50.0
173
     0
291
     1
 45
0.0
1001
ACAD
1000
AcDbSavedByObjectVersion
1070
     0
  0
VISUALSTYLE
  5
3A
102
{ACAD_REACTORS
330
2A
102
}
330
2A
100
AcDbVisualStyle
  2
ColorChange
 70
    16
 71
     2
 72
     2
 73
     3
 90
        0
 40
-0.6
 41
-30.0
 62
     5
 63
     8
421
  8421504
 74
     1
 91
        4
 64
     7
 65
   257
 75
     1
175
     1
 42
1.0
 92
        8
 66
     8
424
  8421504
 43
1.0
 76
     1
 77
     6
 78
     2
 67
     7
 79
     5
170
     0
171
     0
290
     0
174
     0
 93
        1
 44
0.0
173
     0
291
     1
 45
0.0
1001
ACAD
1000
AcDbSavedByObjectVersion
1070
     0
  0
VISUALSTYLE
  5
34
102
{ACAD_REACTORS
330
2A
102
}
330
2A
100
AcDbVisualStyle
  2
Conceptual
 70
     9
 71
     3
 72
     2
 73
     0
 90
        0
 40
-0.6
 41
-30.0
 62
     5
 63
     7
421
 16777215
 74
     2
 91
        2
 64
     7
 65
   257
 75
     1
175
     1
 42
40.0
 92
        8
 66
     7
 43
1.0
 76
     1
 77
     6
 78
     2
 67
     7
 79
     3
170
     0
171
     0
290
     0
174
     0
 93
        1
 44
0.0
173
     0
291
     0
 45
0.0
1001
ACAD
1000
AcDbSavedByObjectVersion
1070
     0
  0
VISUALSTYLE
  5
35
102
{ACAD_REACTORS
330
2A
102
}
330
2A
100
AcDbVisualStyle
  2
Dim
 70
    11
 71
     2
 72
     2
 73
     0
 90
        0
 40
-0.6
 41
-30.0
 62
     5
 63
     7
421
 16777215
 74
     1
 91
        4
 64
     7
 65
   257
 75
     1
175
     1
 42
1.0
 92
        8
 66
     7
 43
1.0
 76
     1
 77
     6
 78
     2
 67
     7
 79
     5
170
     0
171
     0
290
     0
174
     0
 93
        1
 44
-50.0
173
     0
291
     1
 45
0.0
1001
ACAD
1000
AcDbSavedByObjectVersion
1070
     0
  0
VISUALSTYLE
  5
39
102
{ACAD_REACTORS
330
2A
102
}
330
2A
100
AcDbVisualStyle
  2
Facepattern
 70
    15
 71
     2
 72
     2
 73
     0
 90
        0
 40
-0.6
 41
-30.0
 62
     5
 63
     7
421
 16777215
 74
     1
 91
        4
 64
     7
 65
   257
 75
     1
175
     1
 42
1.0
 92
        8
 66
     7
 43
1.0
 76
     1
 77
     6
 78
     2
 67
     7
 79
     5
170
     0
171
     0
290
     0
174
     0
 93
        1
 44
0.0
173
     0
291
     1
 45
0.0
1001
ACAD
1000
AcDbSavedByObjectVersion
1070
     0
  0
VISUALSTYLE
  5
2B
102
{ACAD_REACTORS
330
2A
102
}
330
2A
100
AcDbVisualStyle
  2
Flat
 70
     0
 71
     2
 72
     1
 73
     1
 90
        2
 40
-0.6
 41
30.0
 62
     5
 63
     7
421
 16777215
 74
     0
 91
        4
 64
     7
 65
   257
 75
     1
175
     1
 42
1.0
 92
        8
 66
     7
 43
1.0
 76
     1
 77
     6
 78
     2
 67
     7
 79
     5
170
     0
171
     0
290
     0
174
     0
 93
       13
 44
0.0
173
     0
291
     1
 45
0.0
1001
ACAD
1000
AcDbSavedByObjectVersion
1070
     0
  0
VISUALSTYLE
  5
2C
102
{ACAD_REACTORS
330
2A
102
}
330
2A
100
AcDbVisualStyle
  2
FlatWithEdges
 70
     1
 71
     2
 72
     1
 73
     1
 90
        2
 40
-0.6
 41
30.0
 62
     5
 63
     7
421
 16777215
 74
     1
 91
        4
 64
     7
 65
   257
 75
     1
175
     1
 42
1.0
 92
        0
 66
   257
 43
1.0
 76
     1
 77
     6
 78
     2
 67
     7
 79
     5
170
     0
171
     0
290
     0
174
     0
 93
       13
 44
0.0
173
     0
291
     1
 45
0.0
1001
ACAD
1000
AcDbSavedByObjectVersion
1070
     0
  0
VISUALSTYLE
  5
2D
102
{ACAD_REACTORS
330
2A
102
}
330
2A
100
AcDbVisualStyle
  2
Gouraud
 70
     2
 71
     2
 72
     2
 73
     1
 90
        2
 40
-0.6
 41
30.0
 62
     5
 63
     7
421
 16777215
 74
     0
 91
        4
 64
     7
 65
   257
 75
     1
175
     1
 42
1.0
 92
        0
 66
     7
 43
1.0
 76
     1
 77
     6
 78
     2
 67
     7
 79
     5
170
     0
171
     0
290
     0
174
     0
 93
       13
 44
0.0
173
     0
291
     1
 45
0.0
1001
ACAD
1000
AcDbSavedByObjectVersion
1070
     0
  0
VISUALSTYLE
  5
2E
102
{ACAD_REACTORS
330
2A
102
}
330
2A
100
AcDbVisualStyle
  2
GouraudWithEdges
 70
     3
 71
     2
 72
     2
 73
     1
 90
        2
 40
-0.6
 41
30.0
 62
     5
 63
     7
421
 16777215
 74
     1
 91
        4
 64
     7
 65
   257
 75
     1
175
     1
 42
1.0
 92
        0
 66
   257
 43
1.0
 76
     1
 77
     6
 78
     2
 67
     7
 79
     5
170
     0
171
     0
290
     0
174
     0
 93
       13
 44
0.0
173
     0
291
     1
 45
0.0
1001
ACAD
1000
AcDbSavedByObjectVersion
1070
     0
  0
VISUALSTYLE
  5
38
102
{ACAD_REACTORS
330
2A
102
}
330
2A
100
AcDbVisualStyle
  2
Linepattern
 70
    14
 71
     2
 72
     2
 73
     0
 90
        0
 40
-0.6
 41
-30.0
 62
     5
 63
     7
421
 16777215
 74
     1
 91
        4
 64
     7
 65
   257
 75
     7
175
     7
 42
1.0
 92
        8
 66
     7
 43
1.0
 76
     1
 77
     6
 78
     2
 67
     7
 79
     5
170
     0
171
     0
290
     0
174
     0
 93
        1
 44
0.0
173
     0
291
     1
 45
0.0
1001
ACAD
1000
AcDbSavedByObjectVersion
1070
     0
  0
VISUALSTYLE
  5
33
102
{ACAD_REACTORS
330
2A
102
}
330
2A
100
AcDbVisualStyle
  2
Realistic
 70
     8
 71
     2
 72
     2
 73
     0
 90
        0
 40
-0.6
 41
-30.0
 62
     5
 63
     7
421
 16777215
 74
     1
 91
        0
 64
     7
 65
   257
 75
     1
175
     1
 42
1.0
 92
        8
 66
     8
424
  7895160
 43
1.0
 76
     1
 77
     6
 78
     2
 67
     7
 79
     5
170
     0
171
     0
290
     0
174
     0
 93
       13
 44
0.0
173
     0
291
     0
 45
0.0
1001
ACAD
1000
AcDbSavedByObjectVersion
1070
     0
  0
VISUALSTYLE
  5
37
102
{ACAD_REACTORS
330
2A
102
}
330
2A
100
AcDbVisualStyle
  2
Thicken
 70
    13
 71
     2
 72
     2
 73
     0
 90
        0
 40
-0.6
 41
-30.0
 62
     5
 63
     7
421
 16777215
 74
     1
 91
        4
 64
     7
 65
   257
 75
     1
175
     1
 42
1.0
 92
       12
 66
     7
 43
1.0
 76
     1
 77
     6
 78
     2
 67
     7
 79
     5
170
     0
171
     0
290
     0
174
     0
 93
        1
 44
0.0
173
     0
291
     1
 45
0.0
1001
ACAD
1000
AcDbSavedByObjectVersion
1070
     0
  0
ENDSEC
  0
EOF
