0
SECTION
2
HEADER
9
$INSUNITS
70
1
9
$ACADVER
1
AC1014
9
$HANDSEED
5
FFFF
0
ENDSEC
0
SECTION
2
TABLES
0
TABLE
2
VPORT
5
8
100
AcDbSymbolTable
0
ENDTAB
0
TABLE
2
LTYPE
5
5
100
AcDbSymbolTable
0
LTYPE
5
14
100
AcDbSymbolTableRecord
100
AcDbLinetypeTableRecord
2
BYBLOCK
70
0
0
LTYPE
5
15
100
AcDbSymbolTableRecord
100
AcDbLinetypeTableRecord
2
BYLAYER
70
0
0
ENDTAB
0
TABLE
2
LAYER
5
2
100
AcDbSymbolTable
70
2
0
LAYER
5
50
100
AcDbSymbolTableRecord
100
AcDbLayerTableRecord
2
0
70
0
6
CONTINUOUS
0
ENDTAB
0
TABLE
2
STYLE
5
3
100
AcDbSymbolTable
70
1
0
STYLE
5
11
100
AcDbSymbolTableRecord
100
AcDbTextStyleTableRecord
2
STANDARD
70
0
0
ENDTAB
0
TABLE
2
VIEW
5
6
100
AcDbSymbolTable
70
0
0
ENDTAB
0
TABLE
2
UCS
5
7
100
AcDbSymbolTable
70
0
0
ENDTAB
0
TABLE
2
APPID
5
9
100
AcDbSymbolTable
70
2
0
APPID
5
12
100
AcDbSymbolTableRecord
100
AcDbRegAppTableRecord
2
ACAD
70
0
0
ENDTAB
0
TABLE
2
DIMSTYLE
5
A
100
AcDbSymbolTable
70
1
0
ENDTAB
0
TABLE
2
BLOCK_RECORD
5
1
100
AcDbSymbolTable
70
1
0
BLOCK_RECORD
5
1F
100
AcDbSymbolTableRecord
100
AcDbBlockTableRecord
2
*MODEL_SPACE
0
BLOCK_RECORD
5
1B
100
AcDbSymbolTableRecord
100
AcDbBlockTableRecord
2
*PAPER_SPACE
0
ENDTAB
0
ENDSEC
0
SECTION
2
BLOCKS
0
BLOCK
5
20
100
AcDbEntity
100
AcDbBlockBegin
2
*MODEL_SPACE
0
ENDBLK
5
21
100
AcDbEntity
100
AcDbBlockEnd
0
BLOCK
5
1C
100
AcDbEntity
100
AcDbBlockBegin
2
*PAPER_SPACE
0
ENDBLK
5
1D
100
AcDbEntity
100
AcDbBlockEnd
0
ENDSEC
0
SECTION
2
ENTITIES
0
LWPOLYLINE
5
100
100
AcDbEntity
8
0
100
AcDbPolyline
90
4
70
1
43
0.0
10
158.13973637355306
20
-144.52754527243854
10
158.13973637355306
20
-96.52754527243853
10
254.13973637355306
20
-96.52754527243853
10
254.13973637355306
20
-144.52754527243854
0
ARC
5
101
100
AcDbEntity
8
0
100
AcDbCircle
10
227.24682541949093
20
-97.528844495906455
30
-3.5558293339935224e-46
40
0.12499999999994925
100
AcDbArc
50
134.99999999905577
51
314.99999999905577
0
LINE
5
102
100
AcDbEntity
8
0
100
AcDbLine
10
227.15843707184411
20
-97.440456148256715
30
-1.618232543126549e-32
11
227.15843707184411
21
-97.117232843555158
31
-1.4240697546465659e-32
0
LINE
5
103
100
AcDbEntity
8
0
100
AcDbLine
10
227.15843707184411
20
-97.117232843555158
30
-1.4240697546465659e-32
11
224.15843707184411
21
-97.117232843554675
31
-5.2818652419823796e-32
0
LINE
5
104
100
AcDbEntity
8
0
100
AcDbLine
10
224.15843707184411
20
-97.117232843554675
30
-5.2818652419823796e-32
11
224.15843707184408
21
-97.440456148259145
31
1.8941786387095918e-32
0
ARC
5
105
100
AcDbEntity
8
0
100
AcDbCircle
10
224.07004872419438
20
-97.528844495906071
30
-3.2864483238424981e-46
40
0.12499999999999674
100
AcDbArc
50
-134.99999999966377
51
44.999999999101838
0
LINE
5
106
100
AcDbEntity
8
0
100
AcDbLine
10
223.98166037654659
20
-97.617232843554902
30
7.4238580824320607e-33
11
197.94843707184418
21
-97.617232843554888
31
-1.6423236800737385e-34
0
LINE
5
107
100
AcDbEntity
8
0
100
AcDbLine
10
197.94843707184418
20
-97.617232843554888
30
-1.6423236800737385e-34
11
197.94843707184418
21
-100.61723284355941
31
6.7597108087449626e-32
0
LINE
5
108
100
AcDbEntity
8
0
100
AcDbLine
10
197.94843707184418
20
-100.61723284355941
30
6.7597108087449626e-32
11
198.23166037654602
21
-100.61723284355941
31
3.0755752488634448e-34
0
ARC
5
109
100
AcDbEntity
8
0
100
AcDbCircle
10
198.32004872419466
20
-100.70562119120743
30
1.7402013255756178e-46
40
0.12499999999998089
100
AcDbArc
50
-44.999999999207766
51
135.00000000020268
0
LINE
5
110
100
AcDbEntity
8
0
100
AcDbLine
10
198.40843707184419
20
-100.79400953885451
30
9.5152976315471895e-33
11
198.40843707184416
21
-140.60611554186508
31
2.4985528947814248e-30
0
ELLIPSE
5
111
100
AcDbEntity
8
0
100
AcDbEllipse
10
198.32004872419455
20
-140.51771139386349
30
0
11
-1.0410201456976474e-16
21
-0.12502234507331658
31
0.0
40
0.9998212713630974
41
5.4977871437851924
42
7.0685834705823405
0
LINE
5
112
100
AcDbEntity
8
0
100
AcDbLine
10
198.2316603765465
20
-140.60611554186494
30
1.193923043974376e-32
11
197.94843707184415
21
-140.60611554186508
31
1.4553949132589853e-32
0
LINE
5
113
100
AcDbEntity
8
0
100
AcDbLine
10
197.94843707184415
20
-140.60611554186508
30
1.4553949132589853e-32
11
197.94843707184415
21
-143.6172328435546
31
-2.728148007836722e-31
0
LINE
5
114
100
AcDbEntity
8
0
100
AcDbLine
10
197.94843707184415
20
-143.6172328435546
30
-2.728148007836722e-31
11
223.98166037654553
21
-143.61723284355458
31
3.9170440868301555e-34
0
ARC
5
115
100
AcDbEntity
8
0
100
AcDbCircle
10
224.07004872419429
20
-143.70562119120254
30
-1.1448692931418538e-46
40
0.12500000000000464
100
AcDbArc
50
-44.999999999088018
51
135.00000000025793
0
LINE
5
116
100
AcDbEntity
8
0
100
AcDbLine
10
224.15843707184402
20
-143.79400953884945
30
-3.7540587588725075e-33
11
224.15843707184396
21
-144.11723284355458
31
1.431652156002421e-32
0
LINE
5
117
100
AcDbEntity
8
0
100
AcDbLine
10
224.15843707184396
20
-144.11723284355458
30
1.431652156002421e-32
11
227.15843707184399
21
-144.11723284355458
31
4.5138983071559296e-35
0
LINE
5
118
100
AcDbEntity
8
0
100
AcDbLine
10
227.15843707184399
20
-144.11723284355458
30
4.5138983071559296e-35
11
227.15843707184399
21
-143.79400953885226
31
-2.0382442644708418e-32
0
ARC
5
119
100
AcDbEntity
8
0
100
AcDbCircle
10
227.24682541949085
20
-143.70562119120251
30
6.8584405184450818e-46
40
0.12500000000000464
100
AcDbArc
50
44.999999996794266
51
225.00000000093962
0
LINE
5
120
100
AcDbEntity
8
0
100
AcDbLine
10
227.33521376714413
20
-143.61723284355912
30
-5.0329966125552118e-33
11
253.40843707184382
21
-143.61723284355909
31
3.923062617906107e-34
0
LINE
5
121
100
AcDbEntity
8
0
100
AcDbLine
10
253.40843707184382
20
-143.61723284355909
30
3.923062617906107e-34
11
253.40843707184382
21
-140.61723284355458
31
-6.6914691965422655e-32
0
LINE
5
122
100
AcDbEntity
8
0
100
AcDbLine
10
253.40843707184382
20
-140.61723284355458
30
-6.6914691965422655e-32
11
253.08521376713847
21
-140.61723284355458
31
-4.8633237598097847e-36
0
ARC
5
123
100
AcDbEntity
8
0
100
AcDbCircle
10
252.99682541949056
20
-140.52884449590587
30
-3.3079988046545798e-46
40
0.12499999999998883
100
AcDbArc
50
134.99999999894987
51
314.99999999974204
0
LINE
5
124
100
AcDbEntity
8
0
100
AcDbLine
10
252.90843707184388
20
-140.44045614825595
30
-7.235778986329818e-33
11
252.90843707184388
21
-100.80947592786409
31
2.8358181070898668e-30
0
ARC
5
125
100
AcDbEntity
8
0
100
AcDbCircle
10
252.99682541949062
20
-100.72108758021429
30
-9.8000811492942688e-46
40
0.1250000000000363
100
AcDbArc
50
44.999999999801936
51
225.00000000099027
0
LINE
5
126
100
AcDbEntity
8
0
100
AcDbLine
10
253.08521376713927
20
-100.63269923256625
30
9.4475891567591184e-33
11
253.40843707184382
21
-100.63269923256625
31
4.8633237597978308e-36
0
LINE
5
127
100
AcDbEntity
8
0
100
AcDbLine
10
253.40843707184382
20
-100.63269923256625
30
4.8633237597978308e-36
11
253.40843707184388
21
-97.617232843559421
31
2.7023678432268143e-31
0
LINE
5
128
100
AcDbEntity
8
0
100
AcDbLine
10
253.40843707184388
20
-97.617232843559421
30
2.7023678432268143e-31
11
227.33521376713776
21
-97.617232843556195
31
1.6182325431264779e-32
0
CIRCLE
5
129
100
AcDbEntity
8
0
100
AcDbCircle
10
178.76701433097128
20
-98.640671449953771
30
0
40
0.12499999999999875
0
CIRCLE
5
130
100
AcDbEntity
8
0
100
AcDbCircle
10
178.76701433097142
20
-142.64067144995087
30
0
40
0.12500000000000153
0
CIRCLE
5
131
100
AcDbEntity
8
0
100
AcDbCircle
10
194.95701433097153
20
-142.64067144995124
30
0
40
0.13625000000000159
0
CIRCLE
5
132
100
AcDbEntity
8
0
100
AcDbCircle
10
194.95701433097153
20
-98.640671449951057
30
0
40
0.1362500000000002
0
LWPOLYLINE
5
133
100
AcDbEntity
8
0
100
AcDbPolyline
90
36
70
1
43
0.0
10
194.64671366178212
20
-140.16198374398087
42
-0.52675240197344408
10
196.68701433097152
20
-141.56129614186545
10
196.68701433097155
20
-144.14067144995121
10
177.49701433097152
20
-144.14067144995121
10
177.49701433097152
20
-138.30910862666315
42
-0.54454090549489509
10
179.61381814393818
20
-136.94179262210903
42
0.10806778617068251
10
187.09201433097152
20
-138.52377857831945
42
0.2694512557027231
10
187.42486302444479
20
-138.33036282840501
10
187.41579833266988
20
-137.93589109920734
42
0.25716705325699052
10
187.09201433097155
20
-137.75756432158266
42
-0.13664110334549517
10
178.22169675540883
20
-135.28734338127799
42
-0.26270379262744187
10
177.49701433097152
20
-134.00325512223051
10
177.49701433097152
20
-107.31337017720409
42
-0.26160161801478327
10
178.21640624915744
20
-106.03249117331397
42
-0.13769180642612314
10
187.09201433097155
20
-103.54105900744626
42
0.30695245425972234
10
187.46391361935267
20
-103.2889991799903
10
187.46994195101797
20
-103.00845605673591
42
0.31874632676103831
10
187.09201433097158
20
-102.74028389245581
42
0.10803177910038157
10
179.61362661990466
20
-104.32177216648611
42
-0.54449550577026484
10
177.49701433097152
20
-102.95436978052336
10
177.49701433097152
20
-97.140671449951
10
196.68701433097155
20
-97.140671449951014
10
196.68701433097158
20
-99.750777304845101
42
-0.52736777730627959
10
194.64401907198237
20
-101.14904628780774
42
0.092867885938227299
10
187.09201433097155
20
-99.734166304501002
42
0.3073746784647951
10
186.71420077131657
20
-99.990660292305336
10
186.71995393027603
20
-100.3044319198809
42
0.29736980199113211
10
187.09201433097147
20
-100.54717659540087
42
-0.11338340979385358
10
195.84162959280539
20
-102.55713868680712
42
-0.28733545827322332
10
196.68701433097155
20
-103.90676043343623
10
196.68701433097149
20
-137.35926671899625
42
-0.28780215864738257
10
195.83930158146489
20
-138.71001515702747
42
-0.11294683555649848
10
187.09201433097152
20
-140.71150496713517
42
0.32184439771678081
10
186.68535496000885
20
-141.00351451071398
10
186.68102052504443
20
-141.26423504273737
42
0.33104181575127972
10
187.09201433097147
20
-141.56983793276726
42
0.09238216155869225
0
CIRCLE
5
134
100
AcDbEntity
8
0
100
AcDbCircle
10
186.97701433097143
20
-120.64067144995224
30
0
40
0.66992187500000377
0
CIRCLE
5
135
100
AcDbEntity
8
0
100
AcDbCircle
10
186.56076433097144
20
-121.36163759860277
30
0
40
0.094999999999998613
0
CIRCLE
5
136
100
AcDbEntity
8
0
100
AcDbCircle
10
187.80951433097144
20
-120.64067144995224
30
0
40
0.094999999999998613
0
CIRCLE
5
137
100
AcDbEntity
8
0
100
AcDbCircle
10
186.56076433097144
20
-119.91970530130168
30
0
40
0.094999999999998613
0
CIRCLE
5
138
100
AcDbEntity
8
0
100
AcDbCircle
10
173.7840339458036
20
-107.35190473837952
30
0
40
0.062499999999999757
0
CIRCLE
5
139
100
AcDbEntity
8
0
100
AcDbCircle
10
162.2840339458036
20
-133.85190473837673
30
0
40
0.062499999999999757
0
CIRCLE
5
140
100
AcDbEntity
8
0
100
AcDbCircle
10
173.78403394580383
20
-133.85190473837932
30
0
40
0.062499999999999757
0
CIRCLE
5
141
100
AcDbEntity
8
0
100
AcDbCircle
10
162.28403394580366
20
-107.35190473837694
30
0
40
0.062499999999999757
0
ARC
5
142
100
AcDbEntity
8
0
100
AcDbCircle
10
176.37242229345145
20
-136.51351639073081
30
2.7207482025253467e-47
40
0.1250000000000363
100
AcDbArc
50
134.99999999953019
51
314.99999999953019
0
LINE
5
143
100
AcDbEntity
8
0
100
AcDbLine
10
176.28403394580383
20
-136.42512804308174
30
-6.2096194378806767e-33
11
176.28403394580383
21
-133.77868143367652
31
0
0
ARC
5
144
100
AcDbEntity
8
0
100
AcDbCircle
10
176.37242229345142
20
-133.69029308602748
30
-6.5190204456547911e-47
40
0.12499999999998883
100
AcDbArc
50
44.999999999539405
51
225.00000000046981
0
LINE
5
145
100
AcDbEntity
8
0
100
AcDbLine
10
176.46081064110044
20
-133.60190473837989
30
-2.9159783064066091e-33
11
176.78403394580386
21
-133.60190473837986
31
-8.4986582702182879e-35
0
LINE
5
146
100
AcDbEntity
8
0
100
AcDbLine
10
176.78403394580386
20
-133.60190473837986
30
-8.4986582702182879e-35
11
176.7840339458036
21
-107.60190473838011
31
1.6171745611768095e-30
0
LINE
5
147
100
AcDbEntity
8
0
100
AcDbLine
10
176.7840339458036
20
-107.60190473838011
30
1.6171745611768095e-30
11
176.46081064109904
21
-107.60190473838011
31
8.4986582702496266e-35
0
ARC
5
148
100
AcDbEntity
8
0
100
AcDbCircle
10
176.37242229345131
20
-107.51351639073121
30
6.4651442436245861e-48
40
0.12500000000000464
100
AcDbArc
50
134.99999999958547
51
314.99999999962228
0
LINE
5
149
100
AcDbEntity
8
0
100
AcDbLine
10
176.28403394580363
20
-107.42512804308225
30
1.069793898797362e-33
11
176.2840339458036
21
-104.77868143367679
31
3.7912006779276291e-33
0
ARC
5
150
100
AcDbEntity
8
0
100
AcDbCircle
10
176.37242229345131
20
-104.69029308602788
30
-1.6486117821242695e-46
40
0.12499999999998883
100
AcDbArc
50
44.999999999608498
51
225.00000000039148
0
LINE
5
151
100
AcDbEntity
8
0
100
AcDbLine
10
176.46081064110024
20
-104.60190473838016
30
9.2173803432628779e-33
11
176.7840339458036
21
-104.60190473838013
31
-8.4986582702184407e-35
0
LINE
5
152
100
AcDbEntity
8
0
100
AcDbLine
10
176.7840339458036
20
-104.60190473838013
30
-8.4986582702184407e-35
11
176.7840339458036
21
-100.10190473838021
31
1.9714243525223673e-33
0
LINE
5
153
100
AcDbEntity
8
0
100
AcDbLine
10
176.7840339458036
20
-100.10190473838021
30
1.9714243525223673e-33
11
176.46081064109907
21
-100.10190473838021
31
8.4986582702484495e-35
0
ARC
5
154
100
AcDbEntity
8
0
100
AcDbCircle
10
176.37242229345136
20
-100.01351639073133
30
7.4887920821984793e-47
40
0.12499999999998883
100
AcDbArc
50
134.99999999961312
51
314.99999999961773
0
LINE
5
155
100
AcDbEntity
8
0
100
AcDbLine
10
176.28403394580366
20
-99.925128043082424
30
3.4952619225093442e-33
11
176.28403394580363
21
-97.101904738380242
31
2.1230723796394722e-33
0
LINE
5
156
100
AcDbEntity
8
0
100
AcDbLine
10
176.28403394580363
20
-97.101904738380242
30
2.1230723796394722e-33
11
159.78403394580371
21
-97.101904738380284
31
4.3384205104668829e-33
0
LINE
5
157
100
AcDbEntity
8
0
100
AcDbLine
10
159.78403394580371
20
-97.101904738380284
30
4.3384205104668829e-33
11
159.78403394580369
21
-99.925128043083618
31
-9.0988816270263103e-34
0
ARC
5
158
100
AcDbEntity
8
0
100
AcDbCircle
10
159.69564559815478
20
-100.0135163907314
30
-2.4365512368160159e-46
40
0.12499999999998089
100
AcDbArc
50
-134.99999999963154
51
44.999999999636124
0
LINE
5
159
100
AcDbEntity
8
0
100
AcDbLine
10
159.60725725050705
20
-100.10190473838027
30
-1.9409762721266834e-33
11
159.28403394580366
21
-100.10190473838026
31
8.4986582702175181e-35
0
LINE
5
160
100
AcDbEntity
8
0
100
AcDbLine
10
159.28403394580366
20
-100.10190473838026
30
8.4986582702175181e-35
11
159.28403394580363
21
-119.10190473838006
31
-4.2158151538555237e-31
0
LINE
5
161
100
AcDbEntity
8
0
100
AcDbLine
10
159.28403394580363
20
-119.10190473838006
30
-4.2158151538555237e-31
11
159.60725725050571
21
-119.10190473838006
31
-8.4986582701837226e-35
0
ARC
5
162
100
AcDbEntity
8
0
100
AcDbCircle
10
159.6956455981547
20
-119.19029308602768
30
3.2541226026243751e-46
40
0.12500000000000464
100
AcDbArc
50
-44.99999999960388
51
135.00000000044218
0
LINE
5
163
100
AcDbEntity
8
0
100
AcDbLine
10
159.78403394580363
20
-119.27868143367539
30
-1.3767389836837332e-33
11
159.78403394580363
21
-121.92512804308339
31
-1.3648322440539466e-33
0
ARC
5
164
100
AcDbEntity
8
0
100
AcDbCircle
10
159.69564559815461
20
-122.01351639073103
30
2.0688461579598675e-46
40
0.12499999999998883
100
AcDbArc
50
-134.99999999955784
51
44.999999999553218
0
LINE
5
165
100
AcDbEntity
8
0
100
AcDbLine
10
159.60725725050699
20
-122.10190473838001
30
5.3444555956532377e-33
11
159.28403394580366
21
-122.10190473838001
31
8.4986582702178517e-35
0
LINE
5
166
100
AcDbEntity
8
0
100
AcDbLine
10
159.28403394580366
20
-122.10190473838001
30
8.4986582702178517e-35
11
159.28403394580357
21
-141.10190473837991
31
-2.3657092230268408e-32
0
LINE
5
167
100
AcDbEntity
8
0
100
AcDbLine
10
159.28403394580357
20
-141.10190473837991
30
-2.3657092230268408e-32
11
159.6072572505054
21
-141.10190473837989
31
-8.4986582701772502e-35
0
ARC
5
168
100
AcDbEntity
8
0
100
AcDbCircle
10
159.6956455981545
20
-141.19029308602748
30
-2.7449924934389388e-46
40
0.12499999999997298
100
AcDbArc
50
-44.999999999484139
51
135.00000000048823
0
LINE
5
169
100
AcDbEntity
8
0
100
AcDbLine
10
159.7840339458036
20
-141.27868143367499
30
-3.8007023746274685e-33
11
159.7840339458036
21
-144.10190473837989
31
4.5494408135131552e-34
0
LINE
5
170
100
AcDbEntity
8
0
100
AcDbLine
10
159.7840339458036
20
-144.10190473837989
30
4.5494408135131552e-34
11
176.28403394580383
21
-144.10190473837974
31
-1.5257078462898428e-32
0
LINE
5
171
100
AcDbEntity
8
0
100
AcDbLine
10
176.28403394580383
20
-144.10190473837974
30
-1.5257078462898428e-32
11
176.28403394580383
21
-141.27868143367635
31
-3.5106518277609847e-31
0
ARC
5
172
100
AcDbEntity
8
0
100
AcDbCircle
10
176.37242229345139
20
-141.19029308602731
30
-1.400781252785327e-47
40
0.12500000000000464
100
AcDbArc
50
44.999999999493348
51
225.00000000047896
0
LINE
5
173
100
AcDbEntity
8
0
100
AcDbLine
10
176.46081064110049
20
-141.10190473837977
30
-5.266214691706355e-33
11
176.78403394580383
21
-141.10190473837977
31
6.6661444414929788e-35
0
LINE
5
174
100
AcDbEntity
8
0
100
AcDbLine
10
176.78403394580383
20
-141.10190473837977
30
6.6661444414929788e-35
11
176.78403394580383
21
-136.60190473837986
31
2.8813125152249982e-33
0
LINE
5
175
100
AcDbEntity
8
0
100
AcDbLine
10
176.78403394580383
20
-136.60190473837986
30
2.8813125152249982e-33
11
176.46081064109907
21
-136.60190473837989
31
6.2096194378807301e-33
0
ENDSEC
0
SECTION
2
OBJECTS
0
DICTIONARY
5
C
100
AcDbDictionary
3
ACAD_GROUP
350
D
3
ACAD_MLINESTYLE
350
17
0
DICTIONARY
5
D
100
AcDbDictionary
0
DICTIONARY
5
1A
330
C
100
AcDbDictionary
0
DICTIONARY
5
17
100
AcDbDictionary
0
ENDSEC
0
EOF
