  0
SECTION
  2
HEADER
  9
$ACADVER
  1
AC1014
  9
$HANDSEED
  5
FFFF
  9
$MEASUREMENT
 70
     1
  0
ENDSEC
  0
SECTION
  2
TABLES
  0
TABLE
  2
VPORT
  5
8
330
0
100
AcDbSymbolTable
 70
     4
  0
VPORT
  5
2E
330
8
100
AcDbSymbolTableRecord
100
AcDbViewportTableRecord
  2
*ACTIVE
 70
     0
 10
0.0
 20
0.0
 11
1.0
 21
1.0
 12
210.0
 22
148.5
 13
0.0
 23
0.0
 14
10.0
 24
10.0
 15
10.0
 25
10.0
 16
0.0
 26
0.0
 36
1.0
 17
0.0
 27
0.0
 37
0.0
 40
341.0
 41
1.24
 42
50.0
 43
0.0
 44
0.0
 50
0.0
 51
0.0
 71
     0
 72
   100
 73
     1
 74
     3
 75
     0
 76
     0
 77
     0
 78
     0
  0
ENDTAB
  0
TABLE
  2
LTYPE
  5
5
330
0
100
AcDbSymbolTable
 70
     1
  0
LTYPE
  5
14
330
5
100
AcDbSymbolTableRecord
100
AcDbLinetypeTableRecord
  2
BYBLOCK
 70
     0
  3

 72
    65
 73
     0
 40
0.0
  0
LTYPE
  5
15
330
5
100
AcDbSymbolTableRecord
100
AcDbLinetypeTableRecord
  2
BYLAYER
 70
     0
  3

 72
    65
 73
     0
 40
0.0
  0
LTYPE
  5
16
330
5
100
AcDbSymbolTableRecord
100
AcDbLinetypeTableRecord
  2
CONTINUOUS
 70
     0
  3
Solid line
 72
    65
 73
     0
 40
0.0
  0
ENDTAB
  0
TABLE
  2
LAYER
  5
2
100
AcDbSymbolTable
 70
1
  0
LAYER
  5
50
100
AcDbSymbolTableRecord
100
AcDbLayerTableRecord
  2
0
 70
0
  6
CONTINUOUS
  0
ENDTAB
  0
TABLE
  2
STYLE
  5
3
330
0
100
AcDbSymbolTable
 70
     1
  0
STYLE
  5
11
330
3
100
AcDbSymbolTableRecord
100
AcDbTextStyleTableRecord
  2
STANDARD
 70
     0
 40
0.0
 41
1.0
 50
0.0
 71
     0
 42
2.5
  3
txt
  4

  0
ENDTAB
  0
TABLE
  2
VIEW
  5
6
330
0
100
AcDbSymbolTable
 70
     0
  0
ENDTAB
  0
TABLE
  2
UCS
  5
7
330
0
100
AcDbSymbolTable
 70
     0
  0
ENDTAB
  0
TABLE
  2
APPID
  5
9
330
0
100
AcDbSymbolTable
 70
     2
  0
APPID
  5
12
330
9
100
AcDbSymbolTableRecord
100
AcDbRegAppTableRecord
  2
ACAD
 70
     0
  0
ENDTAB
  0
TABLE
  2
DIMSTYLE
  5
A
330
0
100
AcDbSymbolTable
 70
     1
  0
DIMSTYLE
105
27
330
A
100
AcDbSymbolTableRecord
100
AcDbDimStyleTableRecord
  2
ISO-25
 70
     0
  3

  4

  5

  6

  7

 40
1.0
 41
2.5
 42
0.625
 43
3.75
 44
1.25
 45
0.0
 46
0.0
 47
0.0
 48
0.0
140
2.5
141
2.5
142
0.0
143
0.03937007874016
144
1.0
145
0.0
146
1.0
147
0.625
 71
     0
 72
     0
 73
     0
 74
     0
 75
     0
 76
     0
 77
     1
 78
     8
170
     0
171
     3
172
     1
173
     0
174
     0
175
     0
176
     0
177
     0
178
     0
270
     2
271
     2
272
     2
273
     2
274
     3
340
11
275
     0
280
     0
281
     0
282
     0
283
     0
284
     8
285
     0
286
     0
287
     3
288
     0
  0
ENDTAB
  0
TABLE
  2
BLOCK_RECORD
  5
1
330
0
100
AcDbSymbolTable
 70
     1
  0
BLOCK_RECORD
  5
1F
330
1
100
AcDbSymbolTableRecord
100
AcDbBlockTableRecord
  2
*MODEL_SPACE
  0
BLOCK_RECORD
  5
1B
330
1
100
AcDbSymbolTableRecord
100
AcDbBlockTableRecord
  2
*PAPER_SPACE
  0
ENDTAB
  0
ENDSEC
  0
SECTION
  2
BLOCKS
  0
BLOCK
  5
20
330
1F
100
AcDbEntity
  8
0
100
AcDbBlockBegin
  2
*MODEL_SPACE
 70
     0
 10
0.0
 20
0.0
 30
0.0
  3
*MODEL_SPACE
  1

  0
ENDBLK
  5
21
330
1F
100
AcDbEntity
  8
0
100
AcDbBlockEnd
  0
BLOCK
  5
1C
330
1B
100
AcDbEntity
 67
     1
  8
0
100
AcDbBlockBegin
  2
*PAPER_SPACE
  1

  0
ENDBLK
  5
1D
330
1B
100
AcDbEntity
 67
     1
  8
0
100
AcDbBlockEnd
  0
ENDSEC
  0
SECTION
  2
ENTITIES
  0
SPLINE
  5
100
100
AcDbEntity
  8
0
 62
1
100
AcDbSpline
 70
8
 71
3
 72
8
 73
4
 74
0
 40
0
 40
0
 40
0
 40
0
 40
1
 40
1
 40
1
 40
1
 10
77.522790
 20
148.945415
 30
0.0
 10
77.522790
 20
153.214737
 30
0.0
 10
75.245132
 20
157.159755
 30
0.0
 10
71.547790
 20
159.294419
 30
0.0
  0
SPLINE
  5
101
100
AcDbEntity
  8
0
 62
1
100
AcDbSpline
 70
8
 71
3
 72
8
 73
4
 74
0
 40
0
 40
0
 40
0
 40
0
 40
1
 40
1
 40
1
 40
1
 10
71.547790
 20
159.294419
 30
0.0
 10
67.850447
 20
161.429080
 30
0.0
 10
63.295132
 20
161.429080
 30
0.0
 10
59.597790
 20
159.294419
 30
0.0
  0
SPLINE
  5
102
100
AcDbEntity
  8
0
 62
1
100
AcDbSpline
 70
8
 71
3
 72
8
 73
4
 74
0
 40
0
 40
0
 40
0
 40
0
 40
1
 40
1
 40
1
 40
1
 10
59.597790
 20
159.294419
 30
0.0
 10
55.900447
 20
157.159755
 30
0.0
 10
53.622789
 20
153.214737
 30
0.0
 10
53.622789
 20
148.945415
 30
0.0
  0
SPLINE
  5
103
100
AcDbEntity
  8
0
 62
1
100
AcDbSpline
 70
8
 71
3
 72
8
 73
4
 74
0
 40
0
 40
0
 40
0
 40
0
 40
1
 40
1
 40
1
 40
1
 10
53.622789
 20
148.945415
 30
0.0
 10
53.622789
 20
144.676090
 30
0.0
 10
55.900447
 20
140.731072
 30
0.0
 10
59.597790
 20
138.596411
 30
0.0
  0
SPLINE
  5
104
100
AcDbEntity
  8
0
 62
1
100
AcDbSpline
 70
8
 71
3
 72
8
 73
4
 74
0
 40
0
 40
0
 40
0
 40
0
 40
1
 40
1
 40
1
 40
1
 10
59.597790
 20
138.596411
 30
0.0
 10
63.295132
 20
136.461750
 30
0.0
 10
67.850447
 20
136.461750
 30
0.0
 10
71.547790
 20
138.596411
 30
0.0
  0
SPLINE
  5
105
100
AcDbEntity
  8
0
 62
1
100
AcDbSpline
 70
8
 71
3
 72
8
 73
4
 74
0
 40
0
 40
0
 40
0
 40
0
 40
1
 40
1
 40
1
 40
1
 10
71.547790
 20
138.596411
 30
0.0
 10
75.245132
 20
140.731072
 30
0.0
 10
77.522790
 20
144.676090
 30
0.0
 10
77.522790
 20
148.945415
 30
0.0
  0
SPLINE
  5
106
100
AcDbEntity
  8
0
 62
1
100
AcDbSpline
 70
8
 71
3
 72
8
 73
4
 74
0
 40
0
 40
0
 40
0
 40
0
 40
1
 40
1
 40
1
 40
1
 10
40.522790
 20
148.945415
 30
0.0
 10
40.522790
 20
153.214737
 30
0.0
 10
38.245133
 20
157.159758
 30
0.0
 10
34.547790
 20
159.294419
 30
0.0
  0
SPLINE
  5
107
100
AcDbEntity
  8
0
 62
1
100
AcDbSpline
 70
8
 71
3
 72
8
 73
4
 74
0
 40
0
 40
0
 40
0
 40
0
 40
1
 40
1
 40
1
 40
1
 10
34.547790
 20
159.294419
 30
0.0
 10
30.850445
 20
161.429080
 30
0.0
 10
26.295132
 20
161.429080
 30
0.0
 10
22.597789
 20
159.294419
 30
0.0
  0
SPLINE
  5
108
100
AcDbEntity
  8
0
 62
1
100
AcDbSpline
 70
8
 71
3
 72
8
 73
4
 74
0
 40
0
 40
0
 40
0
 40
0
 40
1
 40
1
 40
1
 40
1
 10
22.597789
 20
159.294419
 30
0.0
 10
18.900446
 20
157.159758
 30
0.0
 10
16.622788
 20
153.214737
 30
0.0
 10
16.622789
 20
148.945415
 30
0.0
  0
SPLINE
  5
109
100
AcDbEntity
  8
0
 62
1
100
AcDbSpline
 70
8
 71
3
 72
8
 73
4
 74
0
 40
0
 40
0
 40
0
 40
0
 40
1
 40
1
 40
1
 40
1
 10
16.622789
 20
148.945415
 30
0.0
 10
16.622789
 20
144.676090
 30
0.0
 10
18.900446
 20
140.731072
 30
0.0
 10
22.597789
 20
138.596411
 30
0.0
  0
SPLINE
  5
10a
100
AcDbEntity
  8
0
 62
1
100
AcDbSpline
 70
8
 71
3
 72
8
 73
4
 74
0
 40
0
 40
0
 40
0
 40
0
 40
1
 40
1
 40
1
 40
1
 10
22.597789
 20
138.596411
 30
0.0
 10
26.295132
 20
136.461750
 30
0.0
 10
30.850445
 20
136.461750
 30
0.0
 10
34.547790
 20
138.596411
 30
0.0
  0
SPLINE
  5
10b
100
AcDbEntity
  8
0
 62
1
100
AcDbSpline
 70
8
 71
3
 72
8
 73
4
 74
0
 40
0
 40
0
 40
0
 40
0
 40
1
 40
1
 40
1
 40
1
 10
34.547790
 20
138.596411
 30
0.0
 10
38.245133
 20
140.731072
 30
0.0
 10
40.522790
 20
144.676090
 30
0.0
 10
40.522790
 20
148.945415
 30
0.0
  0
LWPOLYLINE
  5
10c
100
AcDbEntity
  8
0
 62
1
100
AcDbPolyline
 90
2
 70
0
 10
77.522790
 20
148.945415
 30
0.0
 10
77.522790
 20
148.945415
 30
0.0
  0
LWPOLYLINE
  5
10d
100
AcDbEntity
  8
0
 62
1
100
AcDbPolyline
 90
2
 70
0
 10
40.522790
 20
148.945415
 30
0.0
 10
40.522790
 20
148.945415
 30
0.0
  0
LWPOLYLINE
  5
10e
100
AcDbEntity
  8
0
 62
1
100
AcDbPolyline
 90
2
 70
0
 10
49.572791
 20
118.945413
 30
0.0
 10
54.572789
 20
118.945413
 30
0.0
  0
LWPOLYLINE
  5
10f
100
AcDbEntity
  8
0
 62
1
100
AcDbPolyline
 90
2
 70
0
 10
49.572791
 20
108.945416
 30
0.0
 10
49.572791
 20
118.945413
 30
0.0
  0
LWPOLYLINE
  5
110
100
AcDbEntity
  8
0
 62
1
100
AcDbPolyline
 90
2
 70
0
 10
54.572789
 20
108.945416
 30
0.0
 10
49.572791
 20
108.945416
 30
0.0
  0
LWPOLYLINE
  5
111
100
AcDbEntity
  8
0
 62
1
100
AcDbPolyline
 90
2
 70
0
 10
54.572789
 20
118.945413
 30
0.0
 10
54.572789
 20
108.945416
 30
0.0
  0
LWPOLYLINE
  5
112
100
AcDbEntity
  8
0
 62
1
100
AcDbPolyline
 90
2
 70
0
 10
49.572791
 20
98.945416
 30
0.0
 10
54.572789
 20
98.945416
 30
0.0
  0
LWPOLYLINE
  5
113
100
AcDbEntity
  8
0
 62
1
100
AcDbPolyline
 90
2
 70
0
 10
49.572791
 20
88.945414
 30
0.0
 10
49.572791
 20
98.945416
 30
0.0
  0
LWPOLYLINE
  5
114
100
AcDbEntity
  8
0
 62
1
100
AcDbPolyline
 90
2
 70
0
 10
54.572789
 20
88.945414
 30
0.0
 10
49.572791
 20
88.945414
 30
0.0
  0
LWPOLYLINE
  5
115
100
AcDbEntity
  8
0
 62
1
100
AcDbPolyline
 90
2
 70
0
 10
54.572789
 20
98.945416
 30
0.0
 10
54.572789
 20
88.945414
 30
0.0
  0
LWPOLYLINE
  5
116
100
AcDbEntity
  8
0
 62
1
100
AcDbPolyline
 90
2
 70
0
 10
39.572788
 20
118.945413
 30
0.0
 10
44.572789
 20
118.945413
 30
0.0
  0
LWPOLYLINE
  5
117
100
AcDbEntity
  8
0
 62
1
100
AcDbPolyline
 90
2
 70
0
 10
39.572788
 20
108.945416
 30
0.0
 10
39.572788
 20
118.945413
 30
0.0
  0
LWPOLYLINE
  5
118
100
AcDbEntity
  8
0
 62
1
100
AcDbPolyline
 90
2
 70
0
 10
44.572789
 20
108.945416
 30
0.0
 10
39.572788
 20
108.945416
 30
0.0
  0
LWPOLYLINE
  5
119
100
AcDbEntity
  8
0
 62
1
100
AcDbPolyline
 90
2
 70
0
 10
44.572789
 20
118.945413
 30
0.0
 10
44.572789
 20
108.945416
 30
0.0
  0
LWPOLYLINE
  5
11a
100
AcDbEntity
  8
0
 62
1
100
AcDbPolyline
 90
2
 70
0
 10
44.572789
 20
88.945414
 30
0.0
 10
39.572788
 20
88.945414
 30
0.0
  0
LWPOLYLINE
  5
11b
100
AcDbEntity
  8
0
 62
1
100
AcDbPolyline
 90
2
 70
0
 10
44.572789
 20
98.945416
 30
0.0
 10
44.572789
 20
88.945414
 30
0.0
  0
LWPOLYLINE
  5
11c
100
AcDbEntity
  8
0
 62
1
100
AcDbPolyline
 90
2
 70
0
 10
39.572788
 20
98.945416
 30
0.0
 10
44.572789
 20
98.945416
 30
0.0
  0
LWPOLYLINE
  5
11d
100
AcDbEntity
  8
0
 62
1
100
AcDbPolyline
 90
2
 70
0
 10
39.572788
 20
88.945414
 30
0.0
 10
39.572788
 20
98.945416
 30
0.0
  0
LWPOLYLINE
  5
11e
100
AcDbEntity
  8
0
 62
5
100
AcDbPolyline
 90
2
 70
0
 10
7.072789
 20
78.945414
 30
0.0
 10
12.072789
 20
78.945414
 30
0.0
  0
LWPOLYLINE
  5
11f
100
AcDbEntity
  8
0
 62
5
100
AcDbPolyline
 90
2
 70
0
 10
12.072789
 20
158.945415
 30
0.0
 10
7.072789
 20
158.945415
 30
0.0
  0
LWPOLYLINE
  5
120
100
AcDbEntity
  8
0
 62
5
100
AcDbPolyline
 90
2
 70
0
 10
12.072789
 20
168.945415
 30
0.0
 10
12.072789
 20
158.945415
 30
0.0
  0
LWPOLYLINE
  5
121
100
AcDbEntity
  8
0
 62
5
100
AcDbPolyline
 90
2
 70
0
 10
82.072790
 20
158.945415
 30
0.0
 10
82.072790
 20
168.945415
 30
0.0
  0
LWPOLYLINE
  5
122
100
AcDbEntity
  8
0
 62
5
100
AcDbPolyline
 90
2
 70
0
 10
87.072789
 20
158.945415
 30
0.0
 10
82.072790
 20
158.945415
 30
0.0
  0
LWPOLYLINE
  5
123
100
AcDbEntity
  8
0
 62
5
100
AcDbPolyline
 90
2
 70
0
 10
82.072790
 20
78.945414
 30
0.0
 10
87.072789
 20
78.945414
 30
0.0
  0
LWPOLYLINE
  5
124
100
AcDbEntity
  8
0
 62
5
100
AcDbPolyline
 90
2
 70
0
 10
82.072790
 20
68.945414
 30
0.0
 10
82.072790
 20
78.945414
 30
0.0
  0
LWPOLYLINE
  5
125
100
AcDbEntity
  8
0
 62
5
100
AcDbPolyline
 90
2
 70
0
 10
12.072789
 20
78.945414
 30
0.0
 10
12.072789
 20
68.945414
 30
0.0
  0
LWPOLYLINE
  5
126
100
AcDbEntity
  8
0
 62
5
100
AcDbPolyline
 90
2
 70
0
 10
82.072790
 20
168.945415
 30
0.0
 10
12.072789
 20
168.945415
 30
0.0
  0
LWPOLYLINE
  5
127
100
AcDbEntity
  8
0
 62
5
100
AcDbPolyline
 90
2
 70
0
 10
87.072789
 20
78.945414
 30
0.0
 10
87.072789
 20
158.945415
 30
0.0
  0
LWPOLYLINE
  5
128
100
AcDbEntity
  8
0
 62
5
100
AcDbPolyline
 90
2
 70
0
 10
12.072789
 20
68.945414
 30
0.0
 10
82.072790
 20
68.945414
 30
0.0
  0
LWPOLYLINE
  5
129
100
AcDbEntity
  8
0
 62
5
100
AcDbPolyline
 90
2
 70
0
 10
7.072789
 20
158.945415
 30
0.0
 10
7.072789
 20
78.945414
 30
0.0
  0
LWPOLYLINE
  5
12a
100
AcDbEntity
  8
0
 62
5
100
AcDbPolyline
 90
4
 70
0
 10
16.190436
 20
63.945416
 30
0.0
 10
16.190436
 20
58.945414
 30
0.0
 10
96.190435
 20
58.945414
 30
0.0
 10
96.190435
 20
63.945416
 30
0.0
  0
LWPOLYLINE
  5
12b
100
AcDbEntity
  8
0
 62
5
100
AcDbPolyline
 90
2
 70
0
 10
106.190438
 20
33.945414
 30
0.0
 10
6.190436
 20
54.295287
 30
0.0
  0
LWPOLYLINE
  5
12c
100
AcDbEntity
  8
0
 62
5
100
AcDbPolyline
 90
2
 70
0
 10
106.190438
 20
63.945416
 30
0.0
 10
96.190435
 20
63.945416
 30
0.0
  0
LWPOLYLINE
  5
12d
100
AcDbEntity
  8
0
 62
5
100
AcDbPolyline
 90
2
 70
0
 10
106.190438
 20
33.945414
 30
0.0
 10
106.190438
 20
63.945416
 30
0.0
  0
LWPOLYLINE
  5
12e
100
AcDbEntity
  8
0
 62
5
100
AcDbPolyline
 90
2
 70
0
 10
6.190436
 20
63.945416
 30
0.0
 10
6.190436
 20
54.295287
 30
0.0
  0
LWPOLYLINE
  5
12f
100
AcDbEntity
  8
0
 62
5
100
AcDbPolyline
 90
2
 70
0
 10
16.190436
 20
63.945416
 30
0.0
 10
6.190436
 20
63.945416
 30
0.0
  0
LWPOLYLINE
  5
130
100
AcDbEntity
  8
0
 62
5
100
AcDbPolyline
 90
4
 70
0
 10
92.264397
 20
21.633475
 30
0.0
 10
92.264397
 20
26.633476
 30
0.0
 10
12.264388
 20
26.633476
 30
0.0
 10
12.264388
 20
21.633475
 30
0.0
  0
LWPOLYLINE
  5
131
100
AcDbEntity
  8
0
 62
5
100
AcDbPolyline
 90
2
 70
0
 10
2.264408
 20
51.633474
 30
0.0
 10
102.264405
 20
31.283601
 30
0.0
  0
LWPOLYLINE
  5
132
100
AcDbEntity
  8
0
 62
5
100
AcDbPolyline
 90
2
 70
0
 10
2.264408
 20
21.633475
 30
0.0
 10
12.264388
 20
21.633475
 30
0.0
  0
LWPOLYLINE
  5
133
100
AcDbEntity
  8
0
 62
5
100
AcDbPolyline
 90
2
 70
0
 10
2.264408
 20
51.633474
 30
0.0
 10
2.264408
 20
21.633475
 30
0.0
  0
LWPOLYLINE
  5
134
100
AcDbEntity
  8
0
 62
5
100
AcDbPolyline
 90
2
 70
0
 10
102.264405
 20
21.633475
 30
0.0
 10
102.264405
 20
31.283601
 30
0.0
  0
LWPOLYLINE
  5
135
100
AcDbEntity
  8
0
 62
5
100
AcDbPolyline
 90
2
 70
0
 10
92.264397
 20
21.633475
 30
0.0
 10
102.264405
 20
21.633475
 30
0.0
  0
LWPOLYLINE
  5
136
100
AcDbEntity
  8
0
 62
5
100
AcDbPolyline
 90
3
 70
0
 10
26.484553
 20
14.386590
 30
0.0
 10
36.484554
 20
14.386590
 30
0.0
 10
36.484554
 20
19.386591
 30
0.0
  0
LWPOLYLINE
  5
137
100
AcDbEntity
  8
0
 62
5
100
AcDbPolyline
 90
2
 70
0
 10
26.484553
 20
19.386591
 30
0.0
 10
26.484553
 20
14.386590
 30
0.0
  0
LWPOLYLINE
  5
138
100
AcDbEntity
  8
0
 62
5
100
AcDbPolyline
 90
2
 70
0
 10
46.484554
 20
19.386591
 30
0.0
 10
36.484554
 20
19.386591
 30
0.0
  0
LWPOLYLINE
  5
139
100
AcDbEntity
  8
0
 62
5
100
AcDbPolyline
 90
2
 70
0
 10
46.484554
 20
4.386581
 30
0.0
 10
46.484554
 20
19.386591
 30
0.0
  0
LWPOLYLINE
  5
13a
100
AcDbEntity
  8
0
 62
5
100
AcDbPolyline
 90
2
 70
0
 10
16.484553
 20
4.386581
 30
0.0
 10
46.484554
 20
4.386581
 30
0.0
  0
LWPOLYLINE
  5
13b
100
AcDbEntity
  8
0
 62
5
100
AcDbPolyline
 90
2
 70
0
 10
16.484553
 20
19.386591
 30
0.0
 10
16.484553
 20
4.386581
 30
0.0
  0
LWPOLYLINE
  5
13c
100
AcDbEntity
  8
0
 62
5
100
AcDbPolyline
 90
2
 70
0
 10
26.484553
 20
19.386591
 30
0.0
 10
16.484553
 20
19.386591
 30
0.0
  0
LWPOLYLINE
  5
13d
100
AcDbEntity
  8
0
 62
5
100
AcDbPolyline
 90
3
 70
0
 10
61.778670
 20
15.268943
 30
0.0
 10
71.778670
 20
15.268943
 30
0.0
 10
71.778670
 20
20.268945
 30
0.0
  0
LWPOLYLINE
  5
13e
100
AcDbEntity
  8
0
 62
5
100
AcDbPolyline
 90
2
 70
0
 10
61.778670
 20
20.268945
 30
0.0
 10
61.778670
 20
15.268943
 30
0.0
  0
LWPOLYLINE
  5
13f
100
AcDbEntity
  8
0
 62
5
100
AcDbPolyline
 90
2
 70
0
 10
81.778673
 20
20.268945
 30
0.0
 10
71.778670
 20
20.268945
 30
0.0
  0
LWPOLYLINE
  5
140
100
AcDbEntity
  8
0
 62
5
100
AcDbPolyline
 90
2
 70
0
 10
81.778673
 20
5.268949
 30
0.0
 10
81.778673
 20
20.268945
 30
0.0
  0
LWPOLYLINE
  5
141
100
AcDbEntity
  8
0
 62
5
100
AcDbPolyline
 90
2
 70
0
 10
51.778670
 20
5.268949
 30
0.0
 10
81.778673
 20
5.268949
 30
0.0
  0
SPLINE
  5
142
100
AcDbEntity
  8
0
 62
1
100
AcDbSpline
 70
8
 71
3
 72
8
 73
4
 74
0
 40
0
 40
0
 40
0
 40
0
 40
1
 40
1
 40
1
 40
1
 10
111.846318
 20
139.827769
 30
0.0
 10
111.846318
 20
140.167169
 30
0.0
 10
111.665250
 20
140.480792
 30
0.0
 10
111.371318
 20
140.650492
 30
0.0
  0
SPLINE
  5
143
100
AcDbEntity
  8
0
 62
1
100
AcDbSpline
 70
8
 71
3
 72
8
 73
4
 74
0
 40
0
 40
0
 40
0
 40
0
 40
1
 40
1
 40
1
 40
1
 10
111.371318
 20
140.650492
 30
0.0
 10
111.077386
 20
140.820192
 30
0.0
 10
110.715250
 20
140.820192
 30
0.0
 10
110.421318
 20
140.650492
 30
0.0
  0
SPLINE
  5
144
100
AcDbEntity
  8
0
 62
1
100
AcDbSpline
 70
8
 71
3
 72
8
 73
4
 74
0
 40
0
 40
0
 40
0
 40
0
 40
1
 40
1
 40
1
 40
1
 10
110.421318
 20
140.650492
 30
0.0
 10
110.127387
 20
140.480792
 30
0.0
 10
109.946319
 20
140.167169
 30
0.0
 10
109.946319
 20
139.827769
 30
0.0
  0
SPLINE
  5
145
100
AcDbEntity
  8
0
 62
1
100
AcDbSpline
 70
8
 71
3
 72
8
 73
4
 74
0
 40
0
 40
0
 40
0
 40
0
 40
1
 40
1
 40
1
 40
1
 10
109.946319
 20
139.827769
 30
0.0
 10
109.946319
 20
139.488366
 30
0.0
 10
110.127387
 20
139.174743
 30
0.0
 10
110.421318
 20
139.005043
 30
0.0
  0
SPLINE
  5
146
100
AcDbEntity
  8
0
 62
1
100
AcDbSpline
 70
8
 71
3
 72
8
 73
4
 74
0
 40
0
 40
0
 40
0
 40
0
 40
1
 40
1
 40
1
 40
1
 10
110.421318
 20
139.005043
 30
0.0
 10
110.715250
 20
138.835343
 30
0.0
 10
111.077386
 20
138.835343
 30
0.0
 10
111.371318
 20
139.005043
 30
0.0
  0
SPLINE
  5
147
100
AcDbEntity
  8
0
 62
1
100
AcDbSpline
 70
8
 71
3
 72
8
 73
4
 74
0
 40
0
 40
0
 40
0
 40
0
 40
1
 40
1
 40
1
 40
1
 10
111.371318
 20
139.005043
 30
0.0
 10
111.665250
 20
139.174743
 30
0.0
 10
111.846318
 20
139.488366
 30
0.0
 10
111.846318
 20
139.827769
 30
0.0
  0
LWPOLYLINE
  5
148
100
AcDbEntity
  8
0
 62
5
100
AcDbPolyline
 90
2
 70
0
 10
51.778670
 20
20.268945
 30
0.0
 10
51.778670
 20
5.268949
 30
0.0
  0
SPLINE
  5
149
100
AcDbEntity
  8
0
 62
1
100
AcDbSpline
 70
8
 71
3
 72
8
 73
4
 74
0
 40
0
 40
0
 40
0
 40
0
 40
1
 40
1
 40
1
 40
1
 10
113.896318
 20
147.827767
 30
0.0
 10
113.896318
 20
148.899565
 30
0.0
 10
113.324521
 20
149.889945
 30
0.0
 10
112.396318
 20
150.425843
 30
0.0
  0
SPLINE
  5
14a
100
AcDbEntity
  8
0
 62
1
100
AcDbSpline
 70
8
 71
3
 72
8
 73
4
 74
0
 40
0
 40
0
 40
0
 40
0
 40
1
 40
1
 40
1
 40
1
 10
112.396318
 20
150.425843
 30
0.0
 10
111.468114
 20
150.961743
 30
0.0
 10
110.324522
 20
150.961743
 30
0.0
 10
109.396318
 20
150.425843
 30
0.0
  0
SPLINE
  5
14b
100
AcDbEntity
  8
0
 62
1
100
AcDbSpline
 70
8
 71
3
 72
8
 73
4
 74
0
 40
0
 40
0
 40
0
 40
0
 40
1
 40
1
 40
1
 40
1
 10
109.396318
 20
150.425843
 30
0.0
 10
108.468115
 20
149.889945
 30
0.0
 10
107.896319
 20
148.899565
 30
0.0
 10
107.896319
 20
147.827767
 30
0.0
  0
SPLINE
  5
14c
100
AcDbEntity
  8
0
 62
1
100
AcDbSpline
 70
8
 71
3
 72
8
 73
4
 74
0
 40
0
 40
0
 40
0
 40
0
 40
1
 40
1
 40
1
 40
1
 10
107.896319
 20
147.827767
 30
0.0
 10
107.896319
 20
146.755972
 30
0.0
 10
108.468115
 20
145.765589
 30
0.0
 10
109.396318
 20
145.229691
 30
0.0
  0
SPLINE
  5
14d
100
AcDbEntity
  8
0
 62
1
100
AcDbSpline
 70
8
 71
3
 72
8
 73
4
 74
0
 40
0
 40
0
 40
0
 40
0
 40
1
 40
1
 40
1
 40
1
 10
109.396318
 20
145.229691
 30
0.0
 10
110.324522
 20
144.693794
 30
0.0
 10
111.468114
 20
144.693794
 30
0.0
 10
112.396318
 20
145.229691
 30
0.0
  0
SPLINE
  5
14e
100
AcDbEntity
  8
0
 62
1
100
AcDbSpline
 70
8
 71
3
 72
8
 73
4
 74
0
 40
0
 40
0
 40
0
 40
0
 40
1
 40
1
 40
1
 40
1
 10
112.396318
 20
145.229691
 30
0.0
 10
113.324521
 20
145.765589
 30
0.0
 10
113.896318
 20
146.755972
 30
0.0
 10
113.896318
 20
147.827767
 30
0.0
  0
LWPOLYLINE
  5
14f
100
AcDbEntity
  8
0
 62
5
100
AcDbPolyline
 90
2
 70
0
 10
61.778670
 20
20.268945
 30
0.0
 10
51.778670
 20
20.268945
 30
0.0
  0
SPLINE
  5
150
100
AcDbEntity
  8
0
 62
1
100
AcDbSpline
 70
8
 71
3
 72
8
 73
4
 74
0
 40
0
 40
0
 40
0
 40
0
 40
1
 40
1
 40
1
 40
1
 10
121.896319
 20
139.827769
 30
0.0
 10
121.896319
 20
140.899564
 30
0.0
 10
121.324522
 20
141.889944
 30
0.0
 10
120.396319
 20
142.425845
 30
0.0
  0
SPLINE
  5
151
100
AcDbEntity
  8
0
 62
1
100
AcDbSpline
 70
8
 71
3
 72
8
 73
4
 74
0
 40
0
 40
0
 40
0
 40
0
 40
1
 40
1
 40
1
 40
1
 10
120.396319
 20
142.425845
 30
0.0
 10
119.468115
 20
142.961742
 30
0.0
 10
118.324520
 20
142.961742
 30
0.0
 10
117.396319
 20
142.425845
 30
0.0
  0
SPLINE
  5
152
100
AcDbEntity
  8
0
 62
1
100
AcDbSpline
 70
8
 71
3
 72
8
 73
4
 74
0
 40
0
 40
0
 40
0
 40
0
 40
1
 40
1
 40
1
 40
1
 10
117.396319
 20
142.425845
 30
0.0
 10
116.468116
 20
141.889944
 30
0.0
 10
115.896319
 20
140.899564
 30
0.0
 10
115.896319
 20
139.827769
 30
0.0
  0
SPLINE
  5
153
100
AcDbEntity
  8
0
 62
1
100
AcDbSpline
 70
8
 71
3
 72
8
 73
4
 74
0
 40
0
 40
0
 40
0
 40
0
 40
1
 40
1
 40
1
 40
1
 10
115.896319
 20
139.827769
 30
0.0
 10
115.896319
 20
138.755971
 30
0.0
 10
116.468116
 20
137.765591
 30
0.0
 10
117.396319
 20
137.229690
 30
0.0
  0
SPLINE
  5
154
100
AcDbEntity
  8
0
 62
1
100
AcDbSpline
 70
8
 71
3
 72
8
 73
4
 74
0
 40
0
 40
0
 40
0
 40
0
 40
1
 40
1
 40
1
 40
1
 10
117.396319
 20
137.229690
 30
0.0
 10
118.324520
 20
136.693793
 30
0.0
 10
119.468115
 20
136.693793
 30
0.0
 10
120.396319
 20
137.229690
 30
0.0
  0
SPLINE
  5
155
100
AcDbEntity
  8
0
 62
1
100
AcDbSpline
 70
8
 71
3
 72
8
 73
4
 74
0
 40
0
 40
0
 40
0
 40
0
 40
1
 40
1
 40
1
 40
1
 10
120.396319
 20
137.229690
 30
0.0
 10
121.324522
 20
137.765591
 30
0.0
 10
121.896319
 20
138.755971
 30
0.0
 10
121.896319
 20
139.827769
 30
0.0
  0
LWPOLYLINE
  5
156
100
AcDbEntity
  8
0
 62
1
100
AcDbPolyline
 90
2
 70
0
 10
111.846318
 20
139.827769
 30
0.0
 10
111.846318
 20
139.827769
 30
0.0
  0
SPLINE
  5
157
100
AcDbEntity
  8
0
 62
1
100
AcDbSpline
 70
8
 71
3
 72
8
 73
4
 74
0
 40
0
 40
0
 40
0
 40
0
 40
1
 40
1
 40
1
 40
1
 10
113.896318
 20
131.827768
 30
0.0
 10
113.896318
 20
132.899563
 30
0.0
 10
113.324521
 20
133.889946
 30
0.0
 10
112.396318
 20
134.425844
 30
0.0
  0
SPLINE
  5
158
100
AcDbEntity
  8
0
 62
1
100
AcDbSpline
 70
8
 71
3
 72
8
 73
4
 74
0
 40
0
 40
0
 40
0
 40
0
 40
1
 40
1
 40
1
 40
1
 10
112.396318
 20
134.425844
 30
0.0
 10
111.468114
 20
134.961741
 30
0.0
 10
110.324522
 20
134.961741
 30
0.0
 10
109.396318
 20
134.425844
 30
0.0
  0
SPLINE
  5
159
100
AcDbEntity
  8
0
 62
1
100
AcDbSpline
 70
8
 71
3
 72
8
 73
4
 74
0
 40
0
 40
0
 40
0
 40
0
 40
1
 40
1
 40
1
 40
1
 10
109.396318
 20
134.425844
 30
0.0
 10
108.468115
 20
133.889946
 30
0.0
 10
107.896319
 20
132.899563
 30
0.0
 10
107.896319
 20
131.827768
 30
0.0
  0
SPLINE
  5
15a
100
AcDbEntity
  8
0
 62
1
100
AcDbSpline
 70
8
 71
3
 72
8
 73
4
 74
0
 40
0
 40
0
 40
0
 40
0
 40
1
 40
1
 40
1
 40
1
 10
107.896319
 20
131.827768
 30
0.0
 10
107.896319
 20
130.755970
 30
0.0
 10
108.468115
 20
129.765590
 30
0.0
 10
109.396318
 20
129.229690
 30
0.0
  0
SPLINE
  5
15b
100
AcDbEntity
  8
0
 62
1
100
AcDbSpline
 70
8
 71
3
 72
8
 73
4
 74
0
 40
0
 40
0
 40
0
 40
0
 40
1
 40
1
 40
1
 40
1
 10
109.396318
 20
129.229690
 30
0.0
 10
110.324522
 20
128.693792
 30
0.0
 10
111.468114
 20
128.693792
 30
0.0
 10
112.396318
 20
129.229690
 30
0.0
  0
SPLINE
  5
15c
100
AcDbEntity
  8
0
 62
1
100
AcDbSpline
 70
8
 71
3
 72
8
 73
4
 74
0
 40
0
 40
0
 40
0
 40
0
 40
1
 40
1
 40
1
 40
1
 10
112.396318
 20
129.229690
 30
0.0
 10
113.324521
 20
129.765590
 30
0.0
 10
113.896318
 20
130.755970
 30
0.0
 10
113.896318
 20
131.827768
 30
0.0
  0
LWPOLYLINE
  5
15d
100
AcDbEntity
  8
0
 62
1
100
AcDbPolyline
 90
2
 70
0
 10
113.896318
 20
147.827767
 30
0.0
 10
113.896318
 20
147.827767
 30
0.0
  0
SPLINE
  5
15e
100
AcDbEntity
  8
0
 62
1
100
AcDbSpline
 70
8
 71
3
 72
8
 73
4
 74
0
 40
0
 40
0
 40
0
 40
0
 40
1
 40
1
 40
1
 40
1
 10
105.896317
 20
139.827769
 30
0.0
 10
105.896317
 20
140.899564
 30
0.0
 10
105.324521
 20
141.889944
 30
0.0
 10
104.396317
 20
142.425845
 30
0.0
  0
SPLINE
  5
15f
100
AcDbEntity
  8
0
 62
1
100
AcDbSpline
 70
8
 71
3
 72
8
 73
4
 74
0
 40
0
 40
0
 40
0
 40
0
 40
1
 40
1
 40
1
 40
1
 10
104.396317
 20
142.425845
 30
0.0
 10
103.468116
 20
142.961742
 30
0.0
 10
102.324521
 20
142.961742
 30
0.0
 10
101.396317
 20
142.425845
 30
0.0
  0
SPLINE
  5
160
100
AcDbEntity
  8
0
 62
1
100
AcDbSpline
 70
8
 71
3
 72
8
 73
4
 74
0
 40
0
 40
0
 40
0
 40
0
 40
1
 40
1
 40
1
 40
1
 10
101.396317
 20
142.425845
 30
0.0
 10
100.468114
 20
141.889944
 30
0.0
 10
99.896318
 20
140.899564
 30
0.0
 10
99.896318
 20
139.827769
 30
0.0
  0
SPLINE
  5
161
100
AcDbEntity
  8
0
 62
1
100
AcDbSpline
 70
8
 71
3
 72
8
 73
4
 74
0
 40
0
 40
0
 40
0
 40
0
 40
1
 40
1
 40
1
 40
1
 10
99.896318
 20
139.827769
 30
0.0
 10
99.896318
 20
138.755971
 30
0.0
 10
100.468114
 20
137.765591
 30
0.0
 10
101.396317
 20
137.229690
 30
0.0
  0
SPLINE
  5
162
100
AcDbEntity
  8
0
 62
1
100
AcDbSpline
 70
8
 71
3
 72
8
 73
4
 74
0
 40
0
 40
0
 40
0
 40
0
 40
1
 40
1
 40
1
 40
1
 10
101.396317
 20
137.229690
 30
0.0
 10
102.324521
 20
136.693793
 30
0.0
 10
103.468116
 20
136.693793
 30
0.0
 10
104.396317
 20
137.229690
 30
0.0
  0
SPLINE
  5
163
100
AcDbEntity
  8
0
 62
1
100
AcDbSpline
 70
8
 71
3
 72
8
 73
4
 74
0
 40
0
 40
0
 40
0
 40
0
 40
1
 40
1
 40
1
 40
1
 10
104.396317
 20
137.229690
 30
0.0
 10
105.324521
 20
137.765591
 30
0.0
 10
105.896317
 20
138.755971
 30
0.0
 10
105.896317
 20
139.827769
 30
0.0
  0
LWPOLYLINE
  5
164
100
AcDbEntity
  8
0
 62
1
100
AcDbPolyline
 90
2
 70
0
 10
121.896319
 20
139.827769
 30
0.0
 10
121.896319
 20
139.827769
 30
0.0
  0
SPLINE
  5
165
100
AcDbEntity
  8
0
 62
5
100
AcDbSpline
 70
8
 71
3
 72
8
 73
4
 74
0
 40
0
 40
0
 40
0
 40
0
 40
1
 40
1
 40
1
 40
1
 10
125.896319
 20
139.827769
 30
0.0
 10
125.896319
 20
145.186751
 30
0.0
 10
123.037335
 20
150.138656
 30
0.0
 10
118.396317
 20
152.818150
 30
0.0
  0
SPLINE
  5
166
100
AcDbEntity
  8
0
 62
5
100
AcDbSpline
 70
8
 71
3
 72
8
 73
4
 74
0
 40
0
 40
0
 40
0
 40
0
 40
1
 40
1
 40
1
 40
1
 10
118.396317
 20
152.818150
 30
0.0
 10
113.755303
 20
155.497641
 30
0.0
 10
108.037334
 20
155.497641
 30
0.0
 10
103.396319
 20
152.818150
 30
0.0
  0
SPLINE
  5
167
100
AcDbEntity
  8
0
 62
5
100
AcDbSpline
 70
8
 71
3
 72
8
 73
4
 74
0
 40
0
 40
0
 40
0
 40
0
 40
1
 40
1
 40
1
 40
1
 10
103.396319
 20
152.818150
 30
0.0
 10
98.755302
 20
150.138656
 30
0.0
 10
95.896317
 20
145.186751
 30
0.0
 10
95.896317
 20
139.827769
 30
0.0
  0
SPLINE
  5
168
100
AcDbEntity
  8
0
 62
5
100
AcDbSpline
 70
8
 71
3
 72
8
 73
4
 74
0
 40
0
 40
0
 40
0
 40
0
 40
1
 40
1
 40
1
 40
1
 10
95.896317
 20
139.827769
 30
0.0
 10
95.896317
 20
134.468784
 30
0.0
 10
98.755302
 20
129.516879
 30
0.0
 10
103.396319
 20
126.837388
 30
0.0
  0
SPLINE
  5
169
100
AcDbEntity
  8
0
 62
5
100
AcDbSpline
 70
8
 71
3
 72
8
 73
4
 74
0
 40
0
 40
0
 40
0
 40
0
 40
1
 40
1
 40
1
 40
1
 10
103.396319
 20
126.837388
 30
0.0
 10
108.037334
 20
124.157894
 30
0.0
 10
113.755303
 20
124.157894
 30
0.0
 10
118.396317
 20
126.837388
 30
0.0
  0
SPLINE
  5
16a
100
AcDbEntity
  8
0
 62
5
100
AcDbSpline
 70
8
 71
3
 72
8
 73
4
 74
0
 40
0
 40
0
 40
0
 40
0
 40
1
 40
1
 40
1
 40
1
 10
118.396317
 20
126.837388
 30
0.0
 10
123.037335
 20
129.516879
 30
0.0
 10
125.896319
 20
134.468784
 30
0.0
 10
125.896319
 20
139.827769
 30
0.0
  0
LWPOLYLINE
  5
16b
100
AcDbEntity
  8
0
 62
1
100
AcDbPolyline
 90
2
 70
0
 10
113.896318
 20
131.827768
 30
0.0
 10
113.896318
 20
131.827768
 30
0.0
  0
SPLINE
  5
16c
100
AcDbEntity
  8
0
 62
1
100
AcDbSpline
 70
8
 71
3
 72
8
 73
4
 74
0
 40
0
 40
0
 40
0
 40
0
 40
1
 40
1
 40
1
 40
1
 10
112.728671
 20
105.121883
 30
0.0
 10
112.728855
 20
105.461411
 30
0.0
 10
112.547829
 20
105.775225
 30
0.0
 10
112.253821
 20
105.945041
 30
0.0
  0
SPLINE
  5
16d
100
AcDbEntity
  8
0
 62
1
100
AcDbSpline
 70
8
 71
3
 72
8
 73
4
 74
0
 40
0
 40
0
 40
0
 40
0
 40
1
 40
1
 40
1
 40
1
 10
112.253821
 20
105.945041
 30
0.0
 10
111.959813
 20
106.114857
 30
0.0
 10
111.597530
 20
106.114857
 30
0.0
 10
111.303522
 20
105.945041
 30
0.0
  0
SPLINE
  5
16e
100
AcDbEntity
  8
0
 62
1
100
AcDbSpline
 70
8
 71
3
 72
8
 73
4
 74
0
 40
0
 40
0
 40
0
 40
0
 40
1
 40
1
 40
1
 40
1
 10
111.303522
 20
105.945041
 30
0.0
 10
111.009515
 20
105.775225
 30
0.0
 10
110.828486
 20
105.461411
 30
0.0
 10
110.828672
 20
105.121883
 30
0.0
  0
SPLINE
  5
16f
100
AcDbEntity
  8
0
 62
1
100
AcDbSpline
 70
8
 71
3
 72
8
 73
4
 74
0
 40
0
 40
0
 40
0
 40
0
 40
1
 40
1
 40
1
 40
1
 10
110.828672
 20
105.121883
 30
0.0
 10
110.828486
 20
104.782359
 30
0.0
 10
111.009515
 20
104.468545
 30
0.0
 10
111.303522
 20
104.298729
 30
0.0
  0
SPLINE
  5
170
100
AcDbEntity
  8
0
 62
1
100
AcDbSpline
 70
8
 71
3
 72
8
 73
4
 74
0
 40
0
 40
0
 40
0
 40
0
 40
1
 40
1
 40
1
 40
1
 10
111.303522
 20
104.298729
 30
0.0
 10
111.597530
 20
104.128913
 30
0.0
 10
111.959813
 20
104.128913
 30
0.0
 10
112.253821
 20
104.298729
 30
0.0
  0
SPLINE
  5
171
100
AcDbEntity
  8
0
 62
1
100
AcDbSpline
 70
8
 71
3
 72
8
 73
4
 74
0
 40
0
 40
0
 40
0
 40
0
 40
1
 40
1
 40
1
 40
1
 10
112.253821
 20
104.298729
 30
0.0
 10
112.547829
 20
104.468545
 30
0.0
 10
112.728855
 20
104.782359
 30
0.0
 10
112.728671
 20
105.121883
 30
0.0
  0
LWPOLYLINE
  5
172
100
AcDbEntity
  8
0
 62
1
100
AcDbPolyline
 90
2
 70
0
 10
105.896317
 20
139.827769
 30
0.0
 10
105.896317
 20
139.827769
 30
0.0
  0
SPLINE
  5
173
100
AcDbEntity
  8
0
 62
1
100
AcDbSpline
 70
8
 71
3
 72
8
 73
4
 74
0
 40
0
 40
0
 40
0
 40
0
 40
1
 40
1
 40
1
 40
1
 10
114.778671
 20
113.121884
 30
0.0
 10
114.778671
 20
114.193683
 30
0.0
 10
114.206875
 20
115.184062
 30
0.0
 10
113.278672
 20
115.719960
 30
0.0
  0
SPLINE
  5
174
100
AcDbEntity
  8
0
 62
1
100
AcDbSpline
 70
8
 71
3
 72
8
 73
4
 74
0
 40
0
 40
0
 40
0
 40
0
 40
1
 40
1
 40
1
 40
1
 10
113.278672
 20
115.719960
 30
0.0
 10
112.350468
 20
116.255858
 30
0.0
 10
111.206875
 20
116.255858
 30
0.0
 10
110.278672
 20
115.719960
 30
0.0
  0
SPLINE
  5
175
100
AcDbEntity
  8
0
 62
1
100
AcDbSpline
 70
8
 71
3
 72
8
 73
4
 74
0
 40
0
 40
0
 40
0
 40
0
 40
1
 40
1
 40
1
 40
1
 10
110.278672
 20
115.719960
 30
0.0
 10
109.350469
 20
115.184062
 30
0.0
 10
108.778672
 20
114.193683
 30
0.0
 10
108.778672
 20
113.121884
 30
0.0
  0
SPLINE
  5
176
100
AcDbEntity
  8
0
 62
1
100
AcDbSpline
 70
8
 71
3
 72
8
 73
4
 74
0
 40
0
 40
0
 40
0
 40
0
 40
1
 40
1
 40
1
 40
1
 10
108.778672
 20
113.121884
 30
0.0
 10
108.778672
 20
112.050089
 30
0.0
 10
109.350469
 20
111.059706
 30
0.0
 10
110.278672
 20
110.523809
 30
0.0
  0
SPLINE
  5
177
100
AcDbEntity
  8
0
 62
1
100
AcDbSpline
 70
8
 71
3
 72
8
 73
4
 74
0
 40
0
 40
0
 40
0
 40
0
 40
1
 40
1
 40
1
 40
1
 10
110.278672
 20
110.523809
 30
0.0
 10
111.206875
 20
109.987911
 30
0.0
 10
112.350468
 20
109.987911
 30
0.0
 10
113.278672
 20
110.523809
 30
0.0
  0
SPLINE
  5
178
100
AcDbEntity
  8
0
 62
1
100
AcDbSpline
 70
8
 71
3
 72
8
 73
4
 74
0
 40
0
 40
0
 40
0
 40
0
 40
1
 40
1
 40
1
 40
1
 10
113.278672
 20
110.523809
 30
0.0
 10
114.206875
 20
111.059706
 30
0.0
 10
114.778671
 20
112.050089
 30
0.0
 10
114.778671
 20
113.121884
 30
0.0
  0
LWPOLYLINE
  5
179
100
AcDbEntity
  8
0
 62
5
100
AcDbPolyline
 90
2
 70
0
 10
125.896319
 20
139.827769
 30
0.0
 10
125.896319
 20
139.827769
 30
0.0
  0
SPLINE
  5
17a
100
AcDbEntity
  8
0
 62
1
100
AcDbSpline
 70
8
 71
3
 72
8
 73
4
 74
0
 40
0
 40
0
 40
0
 40
0
 40
1
 40
1
 40
1
 40
1
 10
122.778672
 20
105.121883
 30
0.0
 10
122.778672
 20
106.193682
 30
0.0
 10
122.206873
 20
107.184062
 30
0.0
 10
121.278673
 20
107.719962
 30
0.0
  0
SPLINE
  5
17b
100
AcDbEntity
  8
0
 62
1
100
AcDbSpline
 70
8
 71
3
 72
8
 73
4
 74
0
 40
0
 40
0
 40
0
 40
0
 40
1
 40
1
 40
1
 40
1
 10
121.278673
 20
107.719962
 30
0.0
 10
120.350469
 20
108.255860
 30
0.0
 10
119.206874
 20
108.255860
 30
0.0
 10
118.278670
 20
107.719962
 30
0.0
  0
SPLINE
  5
17c
100
AcDbEntity
  8
0
 62
1
100
AcDbSpline
 70
8
 71
3
 72
8
 73
4
 74
0
 40
0
 40
0
 40
0
 40
0
 40
1
 40
1
 40
1
 40
1
 10
118.278670
 20
107.719962
 30
0.0
 10
117.350469
 20
107.184062
 30
0.0
 10
116.778670
 20
106.193682
 30
0.0
 10
116.778670
 20
105.121883
 30
0.0
  0
SPLINE
  5
17d
100
AcDbEntity
  8
0
 62
1
100
AcDbSpline
 70
8
 71
3
 72
8
 73
4
 74
0
 40
0
 40
0
 40
0
 40
0
 40
1
 40
1
 40
1
 40
1
 10
116.778670
 20
105.121883
 30
0.0
 10
116.778670
 20
104.050088
 30
0.0
 10
117.350469
 20
103.059708
 30
0.0
 10
118.278670
 20
102.523808
 30
0.0
  0
SPLINE
  5
17e
100
AcDbEntity
  8
0
 62
1
100
AcDbSpline
 70
8
 71
3
 72
8
 73
4
 74
0
 40
0
 40
0
 40
0
 40
0
 40
1
 40
1
 40
1
 40
1
 10
118.278670
 20
102.523808
 30
0.0
 10
119.206874
 20
101.987910
 30
0.0
 10
120.350469
 20
101.987910
 30
0.0
 10
121.278673
 20
102.523808
 30
0.0
  0
SPLINE
  5
17f
100
AcDbEntity
  8
0
 62
1
100
AcDbSpline
 70
8
 71
3
 72
8
 73
4
 74
0
 40
0
 40
0
 40
0
 40
0
 40
1
 40
1
 40
1
 40
1
 10
121.278673
 20
102.523808
 30
0.0
 10
122.206873
 20
103.059708
 30
0.0
 10
122.778672
 20
104.050088
 30
0.0
 10
122.778672
 20
105.121883
 30
0.0
  0
LWPOLYLINE
  5
180
100
AcDbEntity
  8
0
 62
1
100
AcDbPolyline
 90
2
 70
0
 10
112.728671
 20
105.121883
 30
0.0
 10
112.728671
 20
105.121883
 30
0.0
  0
SPLINE
  5
181
100
AcDbEntity
  8
0
 62
1
100
AcDbSpline
 70
8
 71
3
 72
8
 73
4
 74
0
 40
0
 40
0
 40
0
 40
0
 40
1
 40
1
 40
1
 40
1
 10
114.778671
 20
97.121885
 30
0.0
 10
114.778671
 20
98.193681
 30
0.0
 10
114.206875
 20
99.184063
 30
0.0
 10
113.278672
 20
99.719961
 30
0.0
  0
SPLINE
  5
182
100
AcDbEntity
  8
0
 62
1
100
AcDbSpline
 70
8
 71
3
 72
8
 73
4
 74
0
 40
0
 40
0
 40
0
 40
0
 40
1
 40
1
 40
1
 40
1
 10
113.278672
 20
99.719961
 30
0.0
 10
112.350468
 20
100.255859
 30
0.0
 10
111.206875
 20
100.255859
 30
0.0
 10
110.278672
 20
99.719961
 30
0.0
  0
SPLINE
  5
183
100
AcDbEntity
  8
0
 62
1
100
AcDbSpline
 70
8
 71
3
 72
8
 73
4
 74
0
 40
0
 40
0
 40
0
 40
0
 40
1
 40
1
 40
1
 40
1
 10
110.278672
 20
99.719961
 30
0.0
 10
109.350469
 20
99.184063
 30
0.0
 10
108.778672
 20
98.193681
 30
0.0
 10
108.778672
 20
97.121885
 30
0.0
  0
SPLINE
  5
184
100
AcDbEntity
  8
0
 62
1
100
AcDbSpline
 70
8
 71
3
 72
8
 73
4
 74
0
 40
0
 40
0
 40
0
 40
0
 40
1
 40
1
 40
1
 40
1
 10
108.778672
 20
97.121885
 30
0.0
 10
108.778672
 20
96.050087
 30
0.0
 10
109.350469
 20
95.059707
 30
0.0
 10
110.278672
 20
94.523810
 30
0.0
  0
SPLINE
  5
185
100
AcDbEntity
  8
0
 62
1
100
AcDbSpline
 70
8
 71
3
 72
8
 73
4
 74
0
 40
0
 40
0
 40
0
 40
0
 40
1
 40
1
 40
1
 40
1
 10
110.278672
 20
94.523810
 30
0.0
 10
111.206875
 20
93.987912
 30
0.0
 10
112.350468
 20
93.987912
 30
0.0
 10
113.278672
 20
94.523810
 30
0.0
  0
SPLINE
  5
186
100
AcDbEntity
  8
0
 62
1
100
AcDbSpline
 70
8
 71
3
 72
8
 73
4
 74
0
 40
0
 40
0
 40
0
 40
0
 40
1
 40
1
 40
1
 40
1
 10
113.278672
 20
94.523810
 30
0.0
 10
114.206875
 20
95.059707
 30
0.0
 10
114.778671
 20
96.050087
 30
0.0
 10
114.778671
 20
97.121885
 30
0.0
  0
LWPOLYLINE
  5
187
100
AcDbEntity
  8
0
 62
1
100
AcDbPolyline
 90
2
 70
0
 10
114.778671
 20
113.121884
 30
0.0
 10
114.778671
 20
113.121884
 30
0.0
  0
SPLINE
  5
188
100
AcDbEntity
  8
0
 62
1
100
AcDbSpline
 70
8
 71
3
 72
8
 73
4
 74
0
 40
0
 40
0
 40
0
 40
0
 40
1
 40
1
 40
1
 40
1
 10
106.778671
 20
105.121883
 30
0.0
 10
106.778671
 20
106.193682
 30
0.0
 10
106.206874
 20
107.184062
 30
0.0
 10
105.278671
 20
107.719962
 30
0.0
  0
SPLINE
  5
189
100
AcDbEntity
  8
0
 62
1
100
AcDbSpline
 70
8
 71
3
 72
8
 73
4
 74
0
 40
0
 40
0
 40
0
 40
0
 40
1
 40
1
 40
1
 40
1
 10
105.278671
 20
107.719962
 30
0.0
 10
104.350467
 20
108.255860
 30
0.0
 10
103.206875
 20
108.255860
 30
0.0
 10
102.278671
 20
107.719962
 30
0.0
  0
SPLINE
  5
18a
100
AcDbEntity
  8
0
 62
1
100
AcDbSpline
 70
8
 71
3
 72
8
 73
4
 74
0
 40
0
 40
0
 40
0
 40
0
 40
1
 40
1
 40
1
 40
1
 10
102.278671
 20
107.719962
 30
0.0
 10
101.350468
 20
107.184062
 30
0.0
 10
100.778671
 20
106.193682
 30
0.0
 10
100.778671
 20
105.121883
 30
0.0
  0
SPLINE
  5
18b
100
AcDbEntity
  8
0
 62
1
100
AcDbSpline
 70
8
 71
3
 72
8
 73
4
 74
0
 40
0
 40
0
 40
0
 40
0
 40
1
 40
1
 40
1
 40
1
 10
100.778671
 20
105.121883
 30
0.0
 10
100.778671
 20
104.050088
 30
0.0
 10
101.350468
 20
103.059708
 30
0.0
 10
102.278671
 20
102.523808
 30
0.0
  0
SPLINE
  5
18c
100
AcDbEntity
  8
0
 62
1
100
AcDbSpline
 70
8
 71
3
 72
8
 73
4
 74
0
 40
0
 40
0
 40
0
 40
0
 40
1
 40
1
 40
1
 40
1
 10
102.278671
 20
102.523808
 30
0.0
 10
103.206875
 20
101.987910
 30
0.0
 10
104.350467
 20
101.987910
 30
0.0
 10
105.278671
 20
102.523808
 30
0.0
  0
SPLINE
  5
18d
100
AcDbEntity
  8
0
 62
1
100
AcDbSpline
 70
8
 71
3
 72
8
 73
4
 74
0
 40
0
 40
0
 40
0
 40
0
 40
1
 40
1
 40
1
 40
1
 10
105.278671
 20
102.523808
 30
0.0
 10
106.206874
 20
103.059708
 30
0.0
 10
106.778671
 20
104.050088
 30
0.0
 10
106.778671
 20
105.121883
 30
0.0
  0
LWPOLYLINE
  5
18e
100
AcDbEntity
  8
0
 62
1
100
AcDbPolyline
 90
2
 70
0
 10
122.778672
 20
105.121883
 30
0.0
 10
122.778672
 20
105.121883
 30
0.0
  0
SPLINE
  5
18f
100
AcDbEntity
  8
0
 62
5
100
AcDbSpline
 70
8
 71
3
 72
8
 73
4
 74
0
 40
0
 40
0
 40
0
 40
0
 40
1
 40
1
 40
1
 40
1
 10
126.778670
 20
105.121883
 30
0.0
 10
126.778670
 20
110.480869
 30
0.0
 10
123.919688
 20
115.432774
 30
0.0
 10
119.278671
 20
118.112265
 30
0.0
  0
SPLINE
  5
190
100
AcDbEntity
  8
0
 62
5
100
AcDbSpline
 70
8
 71
3
 72
8
 73
4
 74
0
 40
0
 40
0
 40
0
 40
0
 40
1
 40
1
 40
1
 40
1
 10
119.278671
 20
118.112265
 30
0.0
 10
114.637656
 20
120.791759
 30
0.0
 10
108.919687
 20
120.791759
 30
0.0
 10
104.278670
 20
118.112265
 30
0.0
  0
SPLINE
  5
191
100
AcDbEntity
  8
0
 62
5
100
AcDbSpline
 70
8
 71
3
 72
8
 73
4
 74
0
 40
0
 40
0
 40
0
 40
0
 40
1
 40
1
 40
1
 40
1
 10
104.278670
 20
118.112265
 30
0.0
 10
99.637655
 20
115.432774
 30
0.0
 10
96.778671
 20
110.480869
 30
0.0
 10
96.778671
 20
105.121883
 30
0.0
  0
SPLINE
  5
192
100
AcDbEntity
  8
0
 62
5
100
AcDbSpline
 70
8
 71
3
 72
8
 73
4
 74
0
 40
0
 40
0
 40
0
 40
0
 40
1
 40
1
 40
1
 40
1
 10
96.778671
 20
105.121883
 30
0.0
 10
96.778671
 20
99.762901
 30
0.0
 10
99.637655
 20
94.810996
 30
0.0
 10
104.278670
 20
92.131505
 30
0.0
  0
SPLINE
  5
193
100
AcDbEntity
  8
0
 62
5
100
AcDbSpline
 70
8
 71
3
 72
8
 73
4
 74
0
 40
0
 40
0
 40
0
 40
0
 40
1
 40
1
 40
1
 40
1
 10
104.278670
 20
92.131505
 30
0.0
 10
108.919687
 20
89.452011
 30
0.0
 10
114.637656
 20
89.452011
 30
0.0
 10
119.278671
 20
92.131505
 30
0.0
  0
SPLINE
  5
194
100
AcDbEntity
  8
0
 62
5
100
AcDbSpline
 70
8
 71
3
 72
8
 73
4
 74
0
 40
0
 40
0
 40
0
 40
0
 40
1
 40
1
 40
1
 40
1
 10
119.278671
 20
92.131505
 30
0.0
 10
123.919688
 20
94.810996
 30
0.0
 10
126.778670
 20
99.762901
 30
0.0
 10
126.778670
 20
105.121883
 30
0.0
  0
LWPOLYLINE
  5
195
100
AcDbEntity
  8
0
 62
1
100
AcDbPolyline
 90
2
 70
0
 10
114.778671
 20
97.121885
 30
0.0
 10
114.778671
 20
97.121885
 30
0.0
  0
LWPOLYLINE
  5
196
100
AcDbEntity
  8
0
 62
1
100
AcDbPolyline
 90
2
 70
0
 10
106.778671
 20
105.121883
 30
0.0
 10
106.778671
 20
105.121883
 30
0.0
  0
LWPOLYLINE
  5
197
100
AcDbEntity
  8
0
 62
5
100
AcDbPolyline
 90
2
 70
0
 10
126.778670
 20
105.121883
 30
0.0
 10
126.778670
 20
105.121883
 30
0.0
  0
ENDSEC
  0
SECTION
  2
OBJECTS
  0
DICTIONARY
  5
C
330
0
100
AcDbDictionary
  3
ACAD_GROUP
350
D
  3
ACAD_MLINESTYLE
350
17
  0
DICTIONARY
  5
D
330
C
100
AcDbDictionary
  0
DICTIONARY
  5
1A
330
C
100
AcDbDictionary
  0
DICTIONARY
  5
17
330
C
100
AcDbDictionary
  3
STANDARD
350
18
  0
DICTIONARY
  5
19
330
C
100
AcDbDictionary
  0
ENDSEC
  0
EOF
