  0
SECTION
  2
HEADER
  9
$ACADVER
  1
AC1015
  9
$ACADMAINTVER
 70
     6
  9
$DWGCODEPAGE
  3
ANSI_1252
  9
$INSBASE
 10
0.0
 20
0.0
 30
0.0
  9
$EXTMIN
 10
-9.5
 20
-7.0
 30
0.0
  9
$EXTMAX
 10
9.5
 20
7.0
 30
0.0
  9
$LIMMIN
 10
0.0
 20
0.0
  9
$LIMMAX
 10
12.0
 20
9.0
  9
$ORTHOMODE
 70
     0
  9
$REGENMODE
 70
     1
  9
$FILLMODE
 70
     1
  9
$QTEXTMODE
 70
     0
  9
$MIRRTEXT
 70
     1
  9
$LTSCALE
 40
1.0
  9
$ATTMODE
 70
     1
  9
$TEXTSIZE
 40
0.125
  9
$TRACEWID
 40
0.05
  9
$TEXTSTYLE
  7
Standard
  9
$CLAYER
  8
0
  9
$CELTYPE
  6
ByLayer
  9
$CECOLOR
 62
   256
  9
$CELTSCALE
 40
1.0
  9
$DISPSILH
 70
     0
  9
$DIMSCALE
 40
1.0
  9
$DIMASZ
 40
0.13
  9
$DIMEXO
 40
0.05
  9
$DIMDLI
 40
0.38
  9
$DIMRND
 40
0.0
  9
$DIMDLE
 40
0.0
  9
$DIMEXE
 40
0.125
  9
$DIMTP
 40
0.0
  9
$DIMTM
 40
0.0
  9
$DIMTXT
 40
0.125
  9
$DIMCEN
 40
0.09
  9
$DIMTSZ
 40
0.0
  9
$DIMTOL
 70
     0
  9
$DIMLIM
 70
     0
  9
$DIMTIH
 70
     1
  9
$DIMTOH
 70
     1
  9
$DIMSE1
 70
     0
  9
$DIMSE2
 70
     0
  9
$DIMTAD
 70
     0
  9
$DIMZIN
 70
     0
  9
$DIMBLK
  1

  9
$DIMASO
 70
     1
  9
$DIMSHO
 70
     1
  9
$DIMPOST
  1

  9
$DIMAPOST
  1

  9
$DIMALT
 70
     0
  9
$DIMALTD
 70
     2
  9
$DIMALTF
 40
25.4
  9
$DIMLFAC
 40
1.0
  9
$DIMTOFL
 70
     0
  9
$DIMTVP
 40
0.0
  9
$DIMTIX
 70
     0
  9
$DIMSOXD
 70
     0
  9
$DIMSAH
 70
     0
  9
$DIMBLK1
  1

  9
$DIMBLK2
  1

  9
$DIMSTYLE
  2
Standard
  9
$DIMCLRD
 70
     0
  9
$DIMCLRE
 70
     0
  9
$DIMCLRT
 70
     0
  9
$DIMTFAC
 40
1.0
  9
$DIMGAP
 40
0.06
  9
$DIMJUST
 70
     0
  9
$DIMSD1
 70
     0
  9
$DIMSD2
 70
     0
  9
$DIMTOLJ
 70
     1
  9
$DIMTZIN
 70
     0
  9
$DIMALTZ
 70
     0
  9
$DIMALTTZ
 70
     0
  9
$DIMUPT
 70
     0
  9
$DIMDEC
 70
     3
  9
$DIMTDEC
 70
     3
  9
$DIMALTU
 70
     2
  9
$DIMALTTD
 70
     2
  9
$DIMTXSTY
  7
Standard
  9
$DIMAUNIT
 70
     0
  9
$DIMADEC
 70
     2
  9
$DIMALTRND
 40
0.0
  9
$DIMAZIN
 70
     0
  9
$DIMDSEP
 70
    46
  9
$DIMATFIT
 70
     3
  9
$DIMFRAC
 70
     0
  9
$DIMLDRBLK
  1

  9
$DIMLUNIT
 70
     2
  9
$DIMLWD
 70
    -2
  9
$DIMLWE
 70
    -2
  9
$DIMTMOVE
 70
     0
  9
$LUNITS
 70
     2
  9
$LUPREC
 70
     2
  9
$SKETCHINC
 40
0.1
  9
$FILLETRAD
 40
0.5
  9
$AUNITS
 70
     0
  9
$AUPREC
 70
     2
  9
$MENU
  1
.
  9
$ELEVATION
 40
0.0
  9
$PELEVATION
 40
0.0
  9
$THICKNESS
 40
0.0
  9
$LIMCHECK
 70
     0
  9
$CHAMFERA
 40
0.5
  9
$CHAMFERB
 40
0.5
  9
$CHAMFERC
 40
1.0
  9
$CHAMFERD
 40
0.0
  9
$SKPOLY
 70
     0
  9
$TDCREATE
 40
2456629.785220567
  9
$TDUCREATE
 40
2456629.993553901
  9
$TDUPDATE
 40
2456629.785259132
  9
$TDUUPDATE
 40
2456629.993592465
  9
$TDINDWG
 40
0.0000000116
  9
$TDUSRTIMER
 40
0.0000000116
  9
$USRTIMER
 70
     1
  9
$ANGBASE
 50
0.0
  9
$ANGDIR
 70
     0
  9
$PDMODE
 70
     0
  9
$PDSIZE
 40
-1.0
  9
$PLINEWID
 40
0.0
  9
$SPLFRAME
 70
     0
  9
$SPLINETYPE
 70
     6
  9
$SPLINESEGS
 70
     8
  9
$HANDSEED
  5
296
  9
$SURFTAB1
 70
     6
  9
$SURFTAB2
 70
     6
  9
$SURFTYPE
 70
     6
  9
$SURFU
 70
     6
  9
$SURFV
 70
     6
  9
$UCSBASE
  2

  9
$UCSNAME
  2

  9
$UCSORG
 10
0.0
 20
0.0
 30
0.0
  9
$UCSXDIR
 10
1.0
 20
0.0
 30
0.0
  9
$UCSYDIR
 10
0.0
 20
1.0
 30
0.0
  9
$UCSORTHOREF
  2

  9
$UCSORTHOVIEW
 70
     0
  9
$UCSORGTOP
 10
0.0
 20
0.0
 30
0.0
  9
$UCSORGBOTTOM
 10
0.0
 20
0.0
 30
0.0
  9
$UCSORGLEFT
 10
0.0
 20
0.0
 30
0.0
  9
$UCSORGRIGHT
 10
0.0
 20
0.0
 30
0.0
  9
$UCSORGFRONT
 10
0.0
 20
0.0
 30
0.0
  9
$UCSORGBACK
 10
0.0
 20
0.0
 30
0.0
  9
$PUCSBASE
  2

  9
$PUCSNAME
  2

  9
$PUCSORG
 10
0.0
 20
0.0
 30
0.0
  9
$PUCSXDIR
 10
1.0
 20
0.0
 30
0.0
  9
$PUCSYDIR
 10
0.0
 20
1.0
 30
0.0
  9
$PUCSORTHOREF
  2

  9
$PUCSORTHOVIEW
 70
     0
  9
$PUCSORGTOP
 10
0.0
 20
0.0
 30
0.0
  9
$PUCSORGBOTTOM
 10
0.0
 20
0.0
 30
0.0
  9
$PUCSORGLEFT
 10
0.0
 20
0.0
 30
0.0
  9
$PUCSORGRIGHT
 10
0.0
 20
0.0
 30
0.0
  9
$PUCSORGFRONT
 10
0.0
 20
0.0
 30
0.0
  9
$PUCSORGBACK
 10
0.0
 20
0.0
 30
0.0
  9
$USERI1
 70
     0
  9
$USERI2
 70
     0
  9
$USERI3
 70
     0
  9
$USERI4
 70
     0
  9
$USERI5
 70
     0
  9
$USERR1
 40
0.0
  9
$USERR2
 40
0.0
  9
$USERR3
 40
0.0
  9
$USERR4
 40
0.0
  9
$USERR5
 40
0.0
  9
$WORLDVIEW
 70
     1
  9
$SHADEDGE
 70
     3
  9
$SHADEDIF
 70
    70
  9
$TILEMODE
 70
     1
  9
$MAXACTVP
 70
    64
  9
$PINSBASE
 10
0.0
 20
0.0
 30
0.0
  9
$PLIMCHECK
 70
     0
  9
$PEXTMIN
 10
1.0000000000E+20
 20
1.0000000000E+20
 30
1.0000000000E+20
  9
$PEXTMAX
 10
-1.0000000000E+20
 20
-1.0000000000E+20
 30
-1.0000000000E+20
  9
$PLIMMIN
 10
0.0
 20
0.0
  9
$PLIMMAX
 10
12.0
 20
9.0
  9
$UNITMODE
 70
     0
  9
$VISRETAIN
 70
     1
  9
$PLINEGEN
 70
     0
  9
$PSLTSCALE
 70
     1
  9
$TREEDEPTH
 70
  3020
  9
$CMLSTYLE
  2
Standard
  9
$CMLJUST
 70
     0
  9
$CMLSCALE
 40
1.0
  9
$PROXYGRAPHICS
 70
     1
  9
$MEASUREMENT
 70
     0
  9
$CELWEIGHT
370
    -1
  9
$ENDCAPS
280
     0
  9
$JOINSTYLE
280
     0
  9
$LWDISPLAY
290
     1
  9
$INSUNITS
 70
     1
  9
$HYPERLINKBASE
  1

  9
$STYLESHEET
  1

  9
$XEDIT
290
     1
  9
$CEPSNTYPE
380
     0
  9
$PSTYLEMODE
290
     1
  9
$FINGERPRINTGUID
  2
{BC3201A6-C097-4BFE-ACB6-535429618BF5}
  9
$VERSIONGUID
  2
{FAEB1C32-E019-11D5-929B-00C0DF256EC4}
  9
$EXTNAMES
290
     1
  9
$PSVPSCALE
 40
0.0
  9
$OLESTARTUP
290
     0
  0
ENDSEC
  0
SECTION
  2
CLASSES
  0
CLASS
  1
ACDBDICTIONARYWDFLT
  2
AcDbDictionaryWithDefault
  3
ObjectDBX Classes
 90
        0
280
     0
281
     0
  0
CLASS
  1
VISUALSTYLE
  2
AcDbVisualStyle
  3
ObjectDBX Classes
 90
     4095
280
     0
281
     0
  0
CLASS
  1
MATERIAL
  2
AcDbMaterial
  3
ObjectDBX Classes
 90
     1153
280
     0
281
     0
  0
CLASS
  1
ACDBPLACEHOLDER
  2
AcDbPlaceHolder
  3
ObjectDBX Classes
 90
        0
280
     0
281
     0
  0
CLASS
  1
LAYOUT
  2
AcDbLayout
  3
ObjectDBX Classes
 90
        0
280
     0
281
     0
  0
ENDSEC
  0
SECTION
  2
TABLES
  0
TABLE
  2
VPORT
  5
8
330
0
100
AcDbSymbolTable
 70
     1
  0
VPORT
  5
29
330
8
100
AcDbSymbolTableRecord
100
AcDbViewportTableRecord
  2
*Active
 70
     0
 10
0.0
 20
0.0
 11
1.0
 21
1.0
 12
0.0
 22
0.0
 13
0.0
 23
0.0
 14
0.5
 24
0.5
 15
0.5
 25
0.5
 16
0.0
 26
0.0
 36
1.0
 17
0.0
 27
0.0
 37
0.0
 40
14.28
 41
1.3571428571
 42
50.0
 43
0.0
 44
0.0
 50
0.0
 51
0.0
 71
     0
 72
   100
 73
     1
 74
     3
 75
     0
 76
     0
 77
     0
 78
     0
281
     0
 65
     1
110
0.0
120
0.0
130
0.0
111
1.0
121
0.0
131
0.0
112
0.0
122
1.0
132
0.0
 79
     0
146
0.0
  0
ENDTAB
  0
TABLE
  2
LTYPE
  5
5
330
0
100
AcDbSymbolTable
 70
     6
  0
LTYPE
  5
14
330
5
100
AcDbSymbolTableRecord
100
AcDbLinetypeTableRecord
  2
ByBlock
 70
     0
  3

 72
    65
 73
     0
 40
0.0
  0
LTYPE
  5
15
330
5
100
AcDbSymbolTableRecord
100
AcDbLinetypeTableRecord
  2
ByLayer
 70
     0
  3

 72
    65
 73
     0
 40
0.0
  0
LTYPE
  5
16
330
5
100
AcDbSymbolTableRecord
100
AcDbLinetypeTableRecord
  2
Continuous
 70
     0
  3
Solid line
 72
    65
 73
     0
 40
0.0
  0
LTYPE
  5
3F
330
5
100
AcDbSymbolTableRecord
100
AcDbLinetypeTableRecord
  2
HIDDEN
 70
     0
  3
Hidden __ __ __ __ __ __ __ __ __ __ __ __ __ __
 72
    65
 73
     2
 40
0.075
 49
0.05
 74
     0
 49
-0.025
 74
     0
  0
LTYPE
  5
40
330
5
100
AcDbSymbolTableRecord
100
AcDbLinetypeTableRecord
  2
PHANTOM
 70
     0
  3
Phantom ______  __  __  ______  __  __  ______
 72
    65
 73
     6
 40
0.5
 49
0.25
 74
     0
 49
-0.05
 74
     0
 49
0.05
 74
     0
 49
-0.05
 74
     0
 49
0.05
 74
     0
 49
-0.05
 74
     0
  0
LTYPE
  5
41
330
5
100
AcDbSymbolTableRecord
100
AcDbLinetypeTableRecord
  2
CENTER
 70
     0
  3
Center ____ _ ____ _ ____ _ ____ _ ____ _ ____
 72
    65
 73
     4
 40
0.4
 49
0.25
 74
     0
 49
-0.05
 74
     0
 49
0.05
 74
     0
 49
-0.05
 74
     0
  0
LTYPE
  5
42
330
5
100
AcDbSymbolTableRecord
100
AcDbLinetypeTableRecord
  2
CENTERX2
 70
     0
  3
Center (2x) ________  __  ________  __  _____
 72
    65
 73
     4
 40
0.8
 49
0.5
 74
     0
 49
-0.1
 74
     0
 49
0.1
 74
     0
 49
-0.1
 74
     0
  0
LTYPE
  5
43
330
5
100
AcDbSymbolTableRecord
100
AcDbLinetypeTableRecord
  2
DOT2
 70
     0
  3
Dot (.5x) ........................................
 72
    65
 73
     2
 40
0.025
 49
0.0
 74
     0
 49
-0.025
 74
     0
  0
ENDTAB
  0
TABLE
  2
LAYER
  5
2
330
0
100
AcDbSymbolTable
 70
     1
  0
LAYER
  5
10
330
2
100
AcDbSymbolTableRecord
100
AcDbLayerTableRecord
  2
0
 70
     0
 62
     7
  6
Continuous
370
    -3
390
F
  0
ENDTAB
  0
TABLE
  2
STYLE
  5
3
330
0
100
AcDbSymbolTable
 70
     2
  0
STYLE
  5
11
330
3
100
AcDbSymbolTableRecord
100
AcDbTextStyleTableRecord
  2
Standard
 70
     0
 40
0.0
 41
1.0
 50
0.0
 71
     0
 42
0.125
  3
txt
  4

  0
STYLE
  5
293
330
3
100
AcDbSymbolTableRecord
100
AcDbTextStyleTableRecord
  2
SLDTEXTSTYLE0
 70
     0
 40
0.0
 41
0.7
 50
0.0
 71
     0
 42
0.2
  3
TXT
  4

  0
ENDTAB
  0
TABLE
  2
VIEW
  5
6
330
0
100
AcDbSymbolTable
 70
     0
  0
ENDTAB
  0
TABLE
  2
UCS
  5
7
330
0
100
AcDbSymbolTable
 70
     0
  0
ENDTAB
  0
TABLE
  2
APPID
  5
9
330
0
100
AcDbSymbolTable
 70
     1
  0
APPID
  5
12
330
9
100
AcDbSymbolTableRecord
100
AcDbRegAppTableRecord
  2
ACAD
 70
     0
  0
ENDTAB
  0
TABLE
  2
DIMSTYLE
  5
A
330
0
100
AcDbSymbolTable
 70
     1
100
AcDbDimStyleTable
  0
DIMSTYLE
105
27
330
A
100
AcDbSymbolTableRecord
100
AcDbDimStyleTableRecord
  2
Standard
 70
     0
178
     0
340
11
  0
ENDTAB
  0
TABLE
  2
BLOCK_RECORD
  5
1
330
0
100
AcDbSymbolTable
 70
     1
  0
BLOCK_RECORD
  5
1F
330
1
100
AcDbSymbolTableRecord
100
AcDbBlockTableRecord
  2
*Model_Space
340
22
  0
BLOCK_RECORD
  5
1B
330
1
100
AcDbSymbolTableRecord
100
AcDbBlockTableRecord
  2
*Paper_Space
340
1E
  0
BLOCK_RECORD
  5
23
330
1
100
AcDbSymbolTableRecord
100
AcDbBlockTableRecord
  2
*Paper_Space0
340
26
  0
ENDTAB
  0
ENDSEC
  0
SECTION
  2
BLOCKS
  0
BLOCK
  5
20
330
1F
100
AcDbEntity
  8
0
100
AcDbBlockBegin
  2
*Model_Space
 70
     0
 10
0.0
 20
0.0
 30
0.0
  3
*Model_Space
  1

  0
ENDBLK
  5
21
330
1F
100
AcDbEntity
  8
0
100
AcDbBlockEnd
  0
BLOCK
  5
1C
330
1B
100
AcDbEntity
 67
     1
  8
0
100
AcDbBlockBegin
  2
*Paper_Space
 70
     0
 10
0.0
 20
0.0
 30
0.0
  3
*Paper_Space
  1

  0
ENDBLK
  5
1D
330
1B
100
AcDbEntity
 67
     1
  8
0
100
AcDbBlockEnd
  0
BLOCK
  5
24
330
23
100
AcDbEntity
  8
0
100
AcDbBlockBegin
  2
*Paper_Space0
 70
     0
 10
0.0
 20
0.0
 30
0.0
  3
*Paper_Space0
  1

  0
ENDBLK
  5
25
330
23
100
AcDbEntity
  8
0
100
AcDbBlockEnd
  0
ENDSEC
  0
SECTION
  2
ENTITIES
  0
SPLINE
  5
44
330
1F
100
AcDbEntity
  8
0
  6
Continuous
 62
     7
370
    15
100
AcDbSpline
210
0.0
220
0.0
230
1.0
 70
     8
 71
     3
 72
    15
 73
    11
 74
     0
 42
0.00000001
 43
0.00000001
 12
1.0
 22
0.0
 32
0.0
 13
1.0
 23
0.0
 33
0.0
 40
0.0
 40
0.0
 40
0.0
 40
0.0
 40
0.1351308714942887
 40
0.2662228880068426
 40
0.3919186921481524
 40
0.5150441964847751
 40
0.6357379327490956
 40
0.7565420125510572
 40
0.8767933621485157
 40
1.0
 40
1.0
 40
1.0
 40
1.0
 10
5.468698102431565
 20
3.36975564955022
 30
0.0
 10
5.475869521999675
 20
3.36495492925728
 30
0.0
 10
5.489998018378176
 20
3.355496974855251
 30
0.0
 10
5.509081311941634
 20
3.339268440321324
 30
0.0
 10
5.526405733659589
 20
3.322251996417693
 30
0.0
 10
5.541100611875524
 20
3.303759940389028
 30
0.0
 10
5.554198328455088
 20
3.284479363412109
 30
0.0
 10
5.564677186943521
 20
3.26386161531105
 30
0.0
 10
5.573355691312243
 20
3.242232778761703
 30
0.0
 10
5.577081139284639
 20
3.227132115899714
 30
0.0
 10
5.578966474508094
 20
3.219490132492024
 30
0.0
  0
SPLINE
  5
45
330
1F
100
AcDbEntity
  8
0
  6
Continuous
 62
     7
370
    15
100
AcDbSpline
210
0.0
220
0.0
230
1.0
 70
     8
 71
     3
 72
    15
 73
    11
 74
     0
 42
0.00000001
 43
0.00000001
 12
1.0
 22
0.0
 32
0.0
 13
1.0
 23
0.0
 33
0.0
 40
0.0
 40
0.0
 40
0.0
 40
0.0
 40
0.1276393933177551
 40
0.2509410106104681
 40
0.3719987141180239
 40
0.4917908017235528
 40
0.6123221567816819
 40
0.7354847271875068
 40
0.8643056663388783
 40
1.0
 40
1.0
 40
1.0
 40
1.0
 10
5.24683548606917
 20
3.394063306721399
 30
0.0
 10
5.256112861498771
 20
3.397558705003995
 30
0.0
 10
5.274352324297855
 20
3.404430711793756
 30
0.0
 10
5.302721070813432
 20
3.410245242169978
 30
0.0
 10
5.330912110243961
 20
3.412849570527113
 30
0.0
 10
5.358997271413029
 20
3.411424769956479
 30
0.0
 10
5.386831280561641
 20
3.406521907455234
 30
0.0
 10
5.414508296867847
 20
3.397990239363005
 30
0.0
 10
5.442072135286137
 20
3.385756917345158
 30
0.0
 10
5.459670350944746
 20
3.375181010001458
 30
0.0
 10
5.468698102431565
 20
3.36975564955022
 30
0.0
  0
SPLINE
  5
46
330
1F
100
AcDbEntity
  8
0
  6
Continuous
 62
     7
370
    15
100
AcDbSpline
210
0.0
220
0.0
230
1.0
 70
     8
 71
     3
 72
    11
 73
     7
 74
     0
 42
0.00000001
 43
0.00000001
 12
1.0
 22
0.0
 32
0.0
 13
1.0
 23
0.0
 33
0.0
 40
0.0
 40
0.0
 40
0.0
 40
0.0
 40
0.256834945461611
 40
0.5064196350778898
 40
0.7520636550192347
 40
1.0
 40
1.0
 40
1.0
 40
1.0
 10
5.113585329030799
 20
3.292413104005561
 30
0.0
 10
5.122959460023008
 20
3.303505926664732
 30
0.0
 10
5.14144309739453
 20
3.325378430007081
 30
0.0
 10
5.173660460757346
 20
3.353272610815854
 30
0.0
 10
5.208599597668922
 20
3.37682813651609
 30
0.0
 10
5.234050789122432
 20
3.388300489715717
 30
0.0
 10
5.24683548606917
 20
3.394063306721399
 30
0.0
  0
SPLINE
  5
47
330
1F
100
AcDbEntity
  8
0
  6
Continuous
 62
     7
370
    15
100
AcDbSpline
210
0.0
220
0.0
230
1.0
 70
     8
 71
     3
 72
    11
 73
     7
 74
     0
 42
0.00000001
 43
0.00000001
 12
1.0
 22
0.0
 32
0.0
 13
1.0
 23
0.0
 33
0.0
 40
0.0
 40
0.0
 40
0.0
 40
0.0
 40
0.2827382869079288
 40
0.5433492939053476
 40
0.7832103802615646
 40
0.9999999999999999
 40
0.9999999999999999
 40
0.9999999999999999
 40
0.9999999999999999
 10
5.030939294648792
 20
3.174631456076122
 30
0.0
 10
5.03832465696178
 20
3.186011399147045
 30
0.0
 10
5.052517398390196
 20
3.207880683635857
 30
0.0
 10
5.073841958714384
 20
3.238823314572233
 30
0.0
 10
5.093715422777381
 20
3.266928476534943
 30
0.0
 10
5.107188935385098
 20
3.284209255072553
 30
0.0
 10
5.113585329030799
 20
3.292413104005561
 30
0.0
  0
SPLINE
  5
4A
330
1F
100
AcDbEntity
  8
0
  6
Continuous
 62
     7
370
    15
100
AcDbSpline
210
0.0
220
0.0
230
1.0
 70
     8
 71
     3
 72
    15
 73
    11
 74
     0
 42
0.00000001
 43
0.00000001
 12
1.0
 22
0.0
 32
0.0
 13
1.0
 23
0.0
 33
0.0
 40
0.0
 40
0.0
 40
0.0
 40
0.0
 40
0.14745038805505
 40
0.2746145298706886
 40
0.3893816983531995
 40
0.4907839141134365
 40
0.5945436569038628
 40
0.7103223394917881
 40
0.846466056601448
 40
0.9999999999999999
 40
0.9999999999999999
 40
0.9999999999999999
 40
0.9999999999999999
 10
5.225400552018221
 20
3.126679077838433
 30
0.0
 10
5.219089974704723
 20
3.130548389936568
 30
0.0
 10
5.207337030239683
 20
3.137754673600979
 30
0.0
 10
5.189229206403037
 20
3.14522332801367
 30
0.0
 10
5.172463608840735
 20
3.149544501751079
 30
0.0
 10
5.156272526710287
 20
3.149818024552447
 30
0.0
 10
5.140435987239721
 20
3.146268777869814
 30
0.0
 10
5.124180646270637
 20
3.138727208995398
 30
0.0
 10
5.107066579342663
 20
3.127645361594869
 30
0.0
 10
5.096017683766908
 20
3.118203643526818
 30
0.0
 10
5.090161586665845
 20
3.113199377043506
 30
0.0
  0
SPLINE
  5
4C
330
1F
100
AcDbEntity
  8
0
  6
Continuous
 62
     7
370
    15
100
AcDbSpline
210
0.0
220
0.0
230
1.0
 70
     8
 71
     3
 72
    13
 73
     9
 74
     0
 42
0.00000001
 43
0.00000001
 12
1.0
 22
0.0
 32
0.0
 13
1.0
 23
0.0
 33
0.0
 40
0.0
 40
0.0
 40
0.0
 40
0.0
 40
0.2172694446569084
 40
0.4215839438772895
 40
0.5341886143447019
 40
0.6680264029580559
 40
0.8227223153656912
 40
1.0
 40
1.0
 40
1.0
 40
1.0
 10
5.449914912799291
 20
2.951221988802834
 30
0.0
 10
5.448504721469955
 20
2.957538511161371
 30
0.0
 10
5.445768423123071
 20
2.96979492582523
 30
0.0
 10
5.437182715778768
 20
2.983477060319643
 30
0.0
 10
5.427886831921403
 20
2.993060346620978
 30
0.0
 10
5.419101849961861
 20
3.001090407012912
 30
0.0
 10
5.407859118454485
 20
3.009119847728061
 30
0.0
 10
5.399693634836552
 20
3.014592917584594
 30
0.0
 10
5.395333173514916
 20
3.017515599269685
 30
0.0
  0
SPLINE
  5
4D
330
1F
100
AcDbEntity
  8
0
  6
Continuous
 62
     7
370
    15
100
AcDbSpline
210
0.0
220
0.0
230
1.0
 70
     8
 71
     3
 72
    11
 73
     7
 74
     0
 42
0.00000001
 43
0.00000001
 12
1.0
 22
0.0
 32
0.0
 13
1.0
 23
0.0
 33
0.0
 40
0.0
 40
0.0
 40
0.0
 40
0.0
 40
0.3065224680084198
 40
0.5743518707656134
 40
0.8007489625092994
 40
0.9999999999999999
 40
0.9999999999999999
 40
0.9999999999999999
 40
0.9999999999999999
 10
5.436214233302808
 20
2.891336760681111
 30
0.0
 10
5.438658283142757
 20
2.897195136841284
 30
0.0
 10
5.443237864557915
 20
2.908172372308251
 30
0.0
 10
5.448345858404919
 20
2.92398159894879
 30
0.0
 10
5.450557025498694
 20
2.938274620307677
 30
0.0
 10
5.450119652425066
 20
2.947093680200736
 30
0.0
 10
5.449914912799291
 20
2.951221988802834
 30
0.0
  0
SPLINE
  5
4F
330
1F
100
AcDbEntity
  8
0
  6
Continuous
 62
     7
370
    15
100
AcDbSpline
210
0.0
220
0.0
230
1.0
 70
     8
 71
     3
 72
    11
 73
     7
 74
     0
 42
0.00000001
 43
0.00000001
 12
1.0
 22
0.0
 32
0.0
 13
1.0
 23
0.0
 33
0.0
 40
0.0
 40
0.0
 40
0.0
 40
0.0
 40
0.2359133295634651
 40
0.4763662082524876
 40
0.7274254186230791
 40
0.9999999999999999
 40
0.9999999999999999
 40
0.9999999999999999
 40
0.9999999999999999
 10
5.563056007996049
 20
2.883823484828202
 30
0.0
 10
5.557528809141361
 20
2.882819283956896
 30
0.0
 10
5.546368054615376
 20
2.880791558934858
 30
0.0
 10
5.530752128647004
 20
2.873062634791607
 30
0.0
 10
5.516007213284301
 20
2.862340905929608
 30
0.0
 10
5.5078558716415
 20
2.852925875516416
 30
0.0
 10
5.503612737277439
 20
2.848024935176102
 30
0.0
  0
SPLINE
  5
50
330
1F
100
AcDbEntity
  8
0
  6
Continuous
 62
     7
370
    15
100
AcDbSpline
210
0.0
220
0.0
230
1.0
 70
     8
 71
     3
 72
    11
 73
     7
 74
     0
 42
0.00000001
 43
0.00000001
 12
1.0
 22
0.0
 32
0.0
 13
1.0
 23
0.0
 33
0.0
 40
0.0
 40
0.0
 40
0.0
 40
0.0
 40
0.2606996691196518
 40
0.5104046647509309
 40
0.7541928082666542
 40
1.0
 40
1.0
 40
1.0
 40
1.0
 10
5.618079704683535
 20
2.873437485855062
 30
0.0
 10
5.613559958810042
 20
2.875416229249941
 30
0.0
 10
5.604711081536395
 20
2.879290265080143
 30
0.0
 10
5.590834539694641
 20
2.882682498638813
 30
0.0
 10
5.576955076245567
 20
2.884770217713598
 30
0.0
 10
5.567701750713502
 20
2.884139928875295
 30
0.0
 10
5.563056007996049
 20
2.883823484828202
 30
0.0
  0
SPLINE
  5
51
330
1F
100
AcDbEntity
  8
0
  6
Continuous
 62
     7
370
    15
100
AcDbSpline
210
0.0
220
0.0
230
1.0
 70
     8
 71
     3
 72
    11
 73
     7
 74
     0
 42
0.00000001
 43
0.00000001
 12
1.0
 22
0.0
 32
0.0
 13
1.0
 23
0.0
 33
0.0
 40
0.0
 40
0.0
 40
0.0
 40
0.0
 40
0.3866876372685177
 40
0.6793311769885527
 40
0.8865828632112907
 40
1.0
 40
1.0
 40
1.0
 40
1.0
 10
5.659623700576096
 20
2.847803956474546
 30
0.0
 10
5.654339852933106
 20
2.851224210111963
 30
0.0
 10
5.645057212133683
 20
2.857232896982633
 30
0.0
 10
5.632705265907555
 20
2.864689090645654
 30
0.0
 10
5.62431744396837
 20
2.870115617465969
 30
0.0
 10
5.619709489093162
 20
2.872569554531844
 30
0.0
 10
5.618079704683535
 20
2.873437485855062
 30
0.0
  0
SPLINE
  5
53
330
1F
100
AcDbEntity
  8
0
  6
Continuous
 62
     7
370
    15
100
AcDbSpline
210
0.0
220
0.0
230
1.0
 70
     8
 71
     3
 72
    23
 73
    19
 74
     0
 42
0.00000001
 43
0.00000001
 12
1.0
 22
0.0
 32
0.0
 13
1.0
 23
0.0
 33
0.0
 40
0.0
 40
0.0
 40
0.0
 40
0.0
 40
0.0710777067535233
 40
0.1386240606232865
 40
0.2030333462876035
 40
0.2643726816595747
 40
0.324716858536142
 40
0.3827688254062309
 40
0.4406911994342338
 40
0.4983944581275783
 40
0.5561386318900796
 40
0.6138381695930165
 40
0.6729457132286759
 40
0.7329652361137409
 40
0.7949833749125972
 40
0.8597218328563463
 40
0.9282997292479307
 40
1.0
 40
1.0
 40
1.0
 40
1.0
 10
6.055617533764754
 20
2.841837531532529
 30
0.0
 10
6.051144015381816
 20
2.835215875288256
 30
0.0
 10
6.042419236378096
 20
2.82230154647042
 30
0.0
 10
6.028080044504825
 20
2.804489114124701
 30
0.0
 10
6.012722141035371
 20
2.789086505438831
 30
0.0
 10
5.996963359507594
 20
2.775282967382905
 30
0.0
 10
5.98021493235804
 20
2.763896947938127
 30
0.0
 10
5.962755897878513
 20
2.754454611953639
 30
0.0
 10
5.944616624262502
 20
2.747091702901881
 30
0.0
 10
5.925741759975868
 20
2.742115169209408
 30
0.0
 10
5.906505993758009
 20
2.7388306243131
 30
0.0
 10
5.886847557983406
 20
2.738381785785459
 30
0.0
 10
5.866961733744352
 20
2.739509561808277
 30
0.0
 10
5.846950999674936
 20
2.743522219102369
 30
0.0
 10
5.826715820505616
 20
2.749210103078045
 30
0.0
 10
5.806293857181924
 20
2.75735488939829
 30
0.0
 10
5.785513423267109
 20
2.767395962684086
 30
0.0
 10
5.772104971480234
 20
2.775712612386172
 30
0.0
 10
5.765251519919945
 20
2.779963495096802
 30
0.0
  0
SPLINE
  5
54
330
1F
100
AcDbEntity
  8
0
  6
Continuous
 62
     7
370
    15
100
AcDbSpline
210
0.0
220
0.0
230
1.0
 70
     8
 71
     3
 72
    15
 73
    11
 74
     0
 42
0.00000001
 43
0.00000001
 12
1.0
 22
0.0
 32
0.0
 13
1.0
 23
0.0
 33
0.0
 40
0.0
 40
0.0
 40
0.0
 40
0.0
 40
0.1208085331106311
 40
0.2373429380021054
 40
0.3550003600775065
 40
0.4703682574769126
 40
0.5904280668372648
 40
0.7169484017792047
 40
0.8542630954498568
 40
1.0
 40
1.0
 40
1.0
 40
1.0
 10
6.098266423165095
 20
2.993870878203175
 30
0.0
 10
6.098730047437692
 20
2.987394373480631
 30
0.0
 10
6.099640893254242
 20
2.974670498608103
 30
0.0
 10
6.09935228017743
 20
2.95554314858446
 30
0.0
 10
6.096513151502379
 20
2.936937444223744
 30
0.0
 10
6.092355995214737
 20
2.91839842834599
 30
0.0
 10
6.085967544127778
 20
2.899991637886149
 30
0.0
 10
6.077944252306708
 20
2.88097245199556
 30
0.0
 10
6.067808264339406
 20
2.861399849882721
 30
0.0
 10
6.059760926898369
 20
2.848486384530588
 30
0.0
 10
6.055617533764754
 20
2.841837531532529
 30
0.0
  0
SPLINE
  5
55
330
1F
100
AcDbEntity
  8
0
  6
Continuous
 62
     7
370
    15
100
AcDbSpline
210
0.0
220
0.0
230
1.0
 70
     8
 71
     3
 72
    15
 73
    11
 74
     0
 42
0.00000001
 43
0.00000001
 12
1.0
 22
0.0
 32
0.0
 13
1.0
 23
0.0
 33
0.0
 40
0.0
 40
0.0
 40
0.0
 40
0.0
 40
0.0862039009878839
 40
0.1855410034494201
 40
0.2994242530386712
 40
0.4308486837268702
 40
0.57116899265157
 40
0.7108590721287081
 40
0.854204699817697
 40
0.9999999999999999
 40
0.9999999999999999
 40
0.9999999999999999
 40
0.9999999999999999
 10
6.042800769074495
 20
3.120933631597973
 30
0.0
 10
6.04608156093879
 20
3.118476204011789
 30
0.0
 10
6.053142974722091
 20
3.113186958687395
 30
0.0
 10
6.061994574448542
 20
3.101945101940923
 30
0.0
 10
6.070681831906143
 20
3.08811318982471
 30
0.0
 10
6.0785164189234
 20
3.071568321916522
 30
0.0
 10
6.085720999160825
 20
3.053439645599059
 30
0.0
 10
6.091434257386848
 20
3.034197319870031
 30
0.0
 10
6.096040702255651
 20
3.014373428148074
 30
0.0
 10
6.097520337584763
 20
3.000743553393044
 30
0.0
 10
6.098266423165094
 20
2.993870878203174
 30
0.0
  0
SPLINE
  5
56
330
1F
100
AcDbEntity
  8
0
  6
Continuous
 62
     7
370
    15
100
AcDbSpline
210
0.0
220
0.0
230
1.0
 70
     8
 71
     3
 72
    13
 73
     9
 74
     0
 42
0.00000001
 43
0.00000001
 12
1.0
 22
0.0
 32
0.0
 13
1.0
 23
0.0
 33
0.0
 40
0.0
 40
0.0
 40
0.0
 40
0.0
 40
0.0998884992779964
 40
0.2096610203322019
 40
0.3311806244554056
 40
0.4748684432602117
 40
0.7569607917536287
 40
1.0
 40
1.0
 40
1.0
 40
1.0
 10
5.990870774208796
 20
3.114083291849731
 30
0.0
 10
5.992061826469594
 20
3.115544284541363
 30
0.0
 10
5.994561786265496
 20
3.118610835952583
 30
0.0
 10
5.99978758307525
 20
3.122171627970398
 30
0.0
 10
6.006479672091062
 20
3.124563902016407
 30
0.0
 10
6.01658380128871
 20
3.126343653382934
 30
0.0
 10
6.029551124228597
 20
3.12716113482808
 30
0.0
 10
6.038608754304249
 20
3.122903932374031
 30
0.0
 10
6.042800769074495
 20
3.120933631597973
 30
0.0
  0
SPLINE
  5
57
330
1F
100
AcDbEntity
  8
0
  6
Continuous
 62
     7
370
    15
100
AcDbSpline
210
0.0
220
0.0
230
1.0
 70
     8
 71
     3
 72
    11
 73
     7
 74
     0
 42
0.00000001
 43
0.00000001
 12
1.0
 22
0.0
 32
0.0
 13
1.0
 23
0.0
 33
0.0
 40
0.0
 40
0.0
 40
0.0
 40
0.0
 40
0.301656354136552
 40
0.5567253610551871
 40
0.7869710915362617
 40
1.0
 40
1.0
 40
1.0
 40
1.0
 10
5.989765880701015
 20
3.074528104271177
 30
0.0
 10
5.988599086992322
 20
3.078474883092612
 30
0.0
 10
5.986445697415602
 20
3.085758906234301
 30
0.0
 10
5.985359791412203
 20
3.096500823696434
 30
0.0
 10
5.986806641152681
 20
3.10607102693284
 30
0.0
 10
5.98955160134707
 20
3.111482598837623
 30
0.0
 10
5.990870774208796
 20
3.114083291849731
 30
0.0
  0
SPLINE
  5
58
330
1F
100
AcDbEntity
  8
0
  6
Continuous
 62
     7
370
    15
100
AcDbSpline
210
0.0
220
0.0
230
1.0
 70
     8
 71
     3
 72
    11
 73
     7
 74
     0
 42
0.00000001
 43
0.00000001
 12
1.0
 22
0.0
 32
0.0
 13
1.0
 23
0.0
 33
0.0
 40
0.0
 40
0.0
 40
0.0
 40
0.0
 40
0.2019124375120316
 40
0.3869590827441279
 40
0.6382453006607031
 40
1.0
 40
1.0
 40
1.0
 40
1.0
 10
5.990428816805683
 20
3.051325340607779
 30
0.0
 10
5.991207754480952
 20
3.05276137558922
 30
0.0
 10
5.99270056498857
 20
3.05551349322028
 30
0.0
 10
5.993054588075204
 20
3.06072807587097
 30
0.0
 10
5.991887786595233
 20
3.06702082383207
 30
0.0
 10
5.990553337492696
 20
3.071742090534687
 30
0.0
 10
5.989765880701015
 20
3.074528104271177
 30
0.0
  0
SPLINE
  5
59
330
1F
100
AcDbEntity
  8
0
  6
Continuous
 62
     7
370
    15
100
AcDbSpline
210
0.0
220
0.0
230
1.0
 70
     8
 71
     3
 72
    11
 73
     7
 74
     0
 42
0.00000001
 43
0.00000001
 12
1.0
 22
0.0
 32
0.0
 13
1.0
 23
0.0
 33
0.0
 40
0.0
 40
0.0
 40
0.0
 40
0.0
 40
0.2722253634581988
 40
0.5014635734477898
 40
0.7243297563074355
 40
1.0
 40
1.0
 40
1.0
 40
1.0
 10
5.971424648471852
 20
3.046905766576656
 30
0.0
 10
5.973208892888529
 20
3.04592013272461
 30
0.0
 10
5.976495631382419
 20
3.044104506629822
 30
0.0
 10
5.982084835169911
 20
3.044060751892296
 30
0.0
 10
5.987059605807131
 20
3.046612918935967
 30
0.0
 10
5.989229148483622
 20
3.049647397907751
 30
0.0
 10
5.990428816805683
 20
3.051325340607779
 30
0.0
  0
SPLINE
  5
5B
330
1F
100
AcDbEntity
  8
0
  6
Continuous
 62
     7
370
    15
100
AcDbSpline
210
0.0
220
0.0
230
1.0
 70
     8
 71
     3
 72
    15
 73
    11
 74
     0
 42
0.00000001
 43
0.00000001
 12
1.0
 22
0.0
 32
0.0
 13
1.0
 23
0.0
 33
0.0
 40
0.0
 40
0.0
 40
0.0
 40
0.0
 40
0.1328527116121914
 40
0.2629879211285175
 40
0.3876386266322609
 40
0.5130654106803569
 40
0.6365844518564086
 40
0.7582596827953703
 40
0.8789173238563992
 40
1.0
 40
1.0
 40
1.0
 40
1.0
 10
5.700946717767099
 20
3.140379757334915
 30
0.0
 10
5.707013524315485
 20
3.142666150228183
 30
0.0
 10
5.719023040889797
 20
3.147192167850152
 30
0.0
 10
5.737538137783023
 20
3.151259653422334
 30
0.0
 10
5.755984911525365
 20
3.153358875089459
 30
0.0
 10
5.774249924234872
 20
3.153142375773371
 30
0.0
 10
5.792184452680526
 20
3.150659643624207
 30
0.0
 10
5.809519231454749
 20
3.146306847659885
 30
0.0
 10
5.826023633776436
 20
3.139660034106426
 30
0.0
 10
5.836180720597339
 20
3.133661323384194
 30
0.0
 10
5.841268193255268
 20
3.130656694466444
 30
0.0
  0
SPLINE
  5
5C
330
1F
100
AcDbEntity
  8
0
  6
Continuous
 62
     7
370
    15
100
AcDbSpline
210
0.0
220
0.0
230
1.0
 70
     8
 71
     3
 72
    13
 73
     9
 74
     0
 42
0.00000001
 43
0.00000001
 12
1.0
 22
0.0
 32
0.0
 13
1.0
 23
0.0
 33
0.0
 40
0.0
 40
0.0
 40
0.0
 40
0.0
 40
0.1793502278061564
 40
0.3371055149589769
 40
0.4734784143172748
 40
0.5904151740882971
 40
0.7989375927691071
 40
1.0
 40
1.0
 40
1.0
 40
1.0
 10
5.555321753441584
 20
3.020830279793028
 30
0.0
 10
5.56284110647557
 20
3.029363618980573
 30
0.0
 10
5.576974433250156
 20
3.045402827496362
 30
0.0
 10
5.597831309810362
 20
3.06700032629564
 30
0.0
 10
5.616334055409294
 20
3.085377115114072
 30
0.0
 10
5.638429437170564
 20
3.10459543126849
 30
0.0
 10
5.665667878547126
 20
3.124241620658925
 30
0.0
 10
5.689330766768067
 20
3.135066095973352
 30
0.0
 10
5.700946717767099
 20
3.140379757334915
 30
0.0
  0
SPLINE
  5
5D
330
1F
100
AcDbEntity
  8
0
  6
Continuous
 62
     7
370
    15
100
AcDbSpline
210
0.0
220
0.0
230
1.0
 70
     8
 71
     3
 72
    15
 73
    11
 74
     0
 42
0.00000001
 43
0.00000001
 12
1.0
 22
0.0
 32
0.0
 13
1.0
 23
0.0
 33
0.0
 40
0.0
 40
0.0
 40
0.0
 40
0.0
 40
0.098735412623647
 40
0.1984799492462899
 40
0.2989390827306293
 40
0.4008591739300614
 40
0.5146718963630557
 40
0.6530095872169482
 40
0.814020626246926
 40
1.0
 40
1.0
 40
1.0
 40
1.0
 10
5.578966474508094
 20
3.219490132492024
 30
0.0
 10
5.580277687560527
 20
3.212953580449483
 30
0.0
 10
5.58291351490132
 20
3.199813669619369
 30
0.0
 10
5.584461220652905
 20
3.179673444023617
 30
0.0
 10
5.584885129661469
 20
3.159272320838064
 30
0.0
 10
5.582842346034753
 20
3.13800336211433
 30
0.0
 10
5.579113092655287
 20
3.11440394060895
 30
0.0
 10
5.573282029334985
 20
3.087135651083388
 30
0.0
 10
5.565217671824208
 20
3.055397986724177
 30
0.0
 10
5.558774926116668
 20
3.032892653026072
 30
0.0
 10
5.555321753441584
 20
3.020830279793028
 30
0.0
  0
SPLINE
  5
5E
330
1F
100
AcDbEntity
  8
0
  6
Continuous
 62
     7
370
    15
100
AcDbSpline
210
0.0
220
0.0
230
1.0
 70
     8
 71
     3
 72
    11
 73
     7
 74
     0
 42
0.00000001
 43
0.00000001
 12
1.0
 22
0.0
 32
0.0
 13
1.0
 23
0.0
 33
0.0
 40
0.0
 40
0.0
 40
0.0
 40
0.0
 40
0.2168035997058479
 40
0.4568754832217932
 40
0.7144349066643285
 40
1.0
 40
1.0
 40
1.0
 40
1.0
 10
6.126496204007221
 20
3.232090352495188
 30
0.0
 10
6.123731636449107
 20
3.237893981019402
 30
0.0
 10
6.117905796192177
 20
3.250124108148461
 30
0.0
 10
6.106542501985894
 20
3.268036755788238
 30
0.0
 10
6.092648370604643
 20
3.28664991128315
 30
0.0
 10
6.081955931005047
 20
3.298685321817144
 30
0.0
 10
6.076334038753971
 20
3.305013324008724
 30
0.0
  0
SPLINE
  5
5F
330
1F
100
AcDbEntity
  8
0
  6
Continuous
 62
     7
370
    15
100
AcDbSpline
210
0.0
220
0.0
230
1.0
 70
     8
 71
     3
 72
    13
 73
     9
 74
     0
 42
0.00000001
 43
0.00000001
 12
1.0
 22
0.0
 32
0.0
 13
1.0
 23
0.0
 33
0.0
 40
0.0
 40
0.0
 40
0.0
 40
0.0
 40
0.1695047962697328
 40
0.319072970094394
 40
0.4486083535219785
 40
0.5565071771409649
 40
0.7650049668777481
 40
1.0
 40
1.0
 40
1.0
 40
1.0
 10
6.132241650247683
 20
3.141489084857158
 30
0.0
 10
6.132994815227355
 20
3.146642018241403
 30
0.0
 10
6.134412560284275
 20
3.156341813148645
 30
0.0
 10
6.136158234228867
 20
3.170027843087661
 30
0.0
 10
6.136515511585498
 20
3.18192748088014
 30
0.0
 10
6.136326215524627
 20
3.195628729829403
 30
0.0
 10
6.133849600968697
 20
3.212530298944486
 30
0.0
 10
6.129043061327201
 20
3.225315705916772
 30
0.0
 10
6.126496204007221
 20
3.232090352495188
 30
0.0
  0
SPLINE
  5
60
330
1F
100
AcDbEntity
  8
0
  6
Continuous
 62
     7
370
    15
100
AcDbSpline
210
0.0
220
0.0
230
1.0
 70
     8
 71
     3
 72
    11
 73
     7
 74
     0
 42
0.00000001
 43
0.00000001
 12
1.0
 22
0.0
 32
0.0
 13
1.0
 23
0.0
 33
0.0
 40
0.0
 40
0.0
 40
0.0
 40
0.0
 40
0.2035966577355357
 40
0.42088070176494
 40
0.6809806130861012
 40
1.0
 40
1.0
 40
1.0
 40
1.0
 10
6.144837436236384
 20
3.094420621425694
 30
0.0
 10
6.142112164835749
 20
3.096676919626177
 30
0.0
 10
6.1364784076201
 20
3.10134120233382
 30
0.0
 10
6.13194408061141
 20
3.112506961105435
 30
0.0
 10
6.130300680213162
 20
3.126153206732884
 30
0.0
 10
6.131552216554792
 20
3.136041771966743
 30
0.0
 10
6.132241650247683
 20
3.141489084857158
 30
0.0
  0
SPLINE
  5
61
330
1F
100
AcDbEntity
  8
0
  6
Continuous
 62
     7
370
    15
100
AcDbSpline
210
0.0
220
0.0
230
1.0
 70
     8
 71
     3
 72
    15
 73
    11
 74
     0
 42
0.00000001
 43
0.00000001
 12
1.0
 22
0.0
 32
0.0
 13
1.0
 23
0.0
 33
0.0
 40
0.0
 40
0.0
 40
0.0
 40
0.0
 40
0.1579758190943229
 40
0.2991184505521504
 40
0.4299649719855477
 40
0.5524653634192763
 40
0.6653519080877105
 40
0.7744149941518735
 40
0.8834456547400601
 40
1.0
 40
1.0
 40
1.0
 40
1.0
 10
6.213782791121909
 20
3.12115904431399
 30
0.0
 10
6.211283106430699
 20
3.117565098127291
 30
0.0
 10
6.206550092125153
 20
3.110760160378613
 30
0.0
 10
6.198534580234602
 20
3.101879597894291
 30
0.0
 10
6.189837481892834
 20
3.095169594043709
 30
0.0
 10
6.180796809985992
 20
3.090440855783932
 30
0.0
 10
6.171513252255692
 20
3.087869620693167
 30
0.0
 10
6.16227381331661
 20
3.087659469861703
 30
0.0
 10
6.153066027524944
 20
3.089611661871639
 30
0.0
 10
6.147640615896787
 20
3.092782385045139
 30
0.0
 10
6.144837436236384
 20
3.094420621425694
 30
0.0
  0
SPLINE
  5
63
330
1F
100
AcDbEntity
  8
0
  6
Continuous
 62
     7
370
    15
100
AcDbSpline
210
0.0
220
0.0
230
1.0
 70
     8
 71
     3
 72
    15
 73
    11
 74
     0
 42
0.00000001
 43
0.00000001
 12
1.0
 22
0.0
 32
0.0
 13
1.0
 23
0.0
 33
0.0
 40
0.0
 40
0.0
 40
0.0
 40
0.0
 40
0.1191566167091866
 40
0.2275740034743231
 40
0.3306147310348491
 40
0.4368635509951696
 40
0.5538976153434074
 40
0.6838015331564972
 40
0.8311421363582246
 40
0.9999999999999999
 40
0.9999999999999999
 40
0.9999999999999999
 40
0.9999999999999999
 10
6.313444185523742
 20
3.345673405095059
 30
0.0
 10
6.31581347952125
 20
3.343927161883096
 30
0.0
 10
6.32033853012533
 20
3.340592059143845
 30
0.0
 10
6.325547666331272
 20
3.334232715890686
 30
0.0
 10
6.329094007132263
 20
3.32716280896378
 30
0.0
 10
6.330379146243753
 20
3.319109934037837
 30
0.0
 10
6.329541049957756
 20
3.31040009197517
 30
0.0
 10
6.327063385187045
 20
3.30097045857333
 30
0.0
 10
6.322434575169638
 20
3.29096239515945
 30
0.0
 10
6.318446591394352
 20
3.28427624024014
 30
0.0
 10
6.316316908643973
 20
3.280705666837545
 30
0.0
  0
SPLINE
  5
64
330
1F
100
AcDbEntity
  8
0
  6
Continuous
 62
     7
370
    15
100
AcDbSpline
210
0.0
220
0.0
230
1.0
 70
     8
 71
     3
 72
    11
 73
     7
 74
     0
 42
0.00000001
 43
0.00000001
 12
1.0
 22
0.0
 32
0.0
 13
1.0
 23
0.0
 33
0.0
 40
0.0
 40
0.0
 40
0.0
 40
0.0
 40
0.2733534632043062
 40
0.5148355813168013
 40
0.7490162473133247
 40
1.0
 40
1.0
 40
1.0
 40
1.0
 10
6.267922573003172
 20
3.343684596781054
 30
0.0
 10
6.271714794957349
 20
3.346016588046927
 30
0.0
 10
6.278857088935903
 20
3.350408674632984
 30
0.0
 10
6.290978064310807
 20
3.352625760123701
 30
0.0
 10
6.302909621180138
 20
3.351424274221196
 30
0.0
 10
6.309852511191444
 20
3.347634117313907
 30
0.0
 10
6.313444185523742
 20
3.345673405095059
 30
0.0
  0
SPLINE
  5
66
330
1F
100
AcDbEntity
  8
0
  6
Continuous
 62
     7
370
    15
100
AcDbSpline
210
0.0
220
0.0
230
1.0
 70
     8
 71
     3
 72
    11
 73
     7
 74
     0
 42
0.00000001
 43
0.00000001
 12
1.0
 22
0.0
 32
0.0
 13
1.0
 23
0.0
 33
0.0
 40
0.0
 40
0.0
 40
0.0
 40
0.0
 40
0.2515069043258811
 40
0.4864563956551796
 40
0.7293110734741303
 40
0.9999999999999999
 40
0.9999999999999999
 40
0.9999999999999999
 40
0.9999999999999999
 10
6.160747902748429
 20
3.323796513640998
 30
0.0
 10
6.167210216771121
 20
3.320250649704821
 30
0.0
 10
6.179709412351841
 20
3.313392356114433
 30
0.0
 10
6.201259323928123
 20
3.310718213738755
 30
0.0
 10
6.222989171280174
 20
3.31520698867097
 30
0.0
 10
6.235916829856971
 20
3.322857584840942
 30
0.0
 10
6.242731001025767
 20
3.326890215462785
 30
0.0
  0
SPLINE
  5
67
330
1F
100
AcDbEntity
  8
0
  6
Continuous
 62
     7
370
    15
100
AcDbSpline
210
0.0
220
0.0
230
1.0
 70
     8
 71
     3
 72
     9
 73
     5
 74
     0
 42
0.00000001
 43
0.00000001
 12
1.0
 22
0.0
 32
0.0
 13
1.0
 23
0.0
 33
0.0
 40
0.0
 40
0.0
 40
0.0
 40
0.0
 40
0.5235577738397212
 40
1.0
 40
1.0
 40
1.0
 40
1.0
 10
6.131357735441457
 20
3.350313957827739
 30
0.0
 10
6.135958093577707
 20
3.345095743431672
 30
0.0
 10
6.144744818493488
 20
3.335128907569802
 30
0.0
 10
6.155583769027001
 20
3.32745343356343
 30
0.0
 10
6.160747902748429
 20
3.323796513640998
 30
0.0
  0
SPLINE
  5
6B
330
1F
100
AcDbEntity
  8
0
  6
Continuous
 62
     7
370
    15
100
AcDbSpline
210
0.0
220
0.0
230
1.0
 70
     8
 71
     3
 72
    13
 73
     9
 74
     0
 42
0.00000001
 43
0.00000001
 12
1.0
 22
0.0
 32
0.0
 13
1.0
 23
0.0
 33
0.0
 40
0.0
 40
0.0
 40
0.0
 40
0.0
 40
0.1969565508446092
 40
0.3613217703438399
 40
0.4976542832133293
 40
0.6025557302873958
 40
0.7911587742949793
 40
0.9999999999999999
 40
0.9999999999999999
 40
0.9999999999999999
 40
0.9999999999999999
 10
6.915373230899514
 20
4.364624644976832
 30
0.0
 10
6.916911356122839
 20
4.369394808645528
 30
0.0
 10
6.919733085719136
 20
4.378145794455405
 30
0.0
 10
6.922716528632958
 20
4.390444918131572
 30
0.0
 10
6.925156775808293
 20
4.400488681438425
 30
0.0
 10
6.926350460387562
 20
4.411356393292641
 30
0.0
 10
6.925899103936248
 20
4.42435487551917
 30
0.0
 10
6.921896181934525
 20
4.433727543902405
 30
0.0
 10
6.919792804930638
 20
4.438652509998149
 30
0.0
  0
SPLINE
  5
6D
330
1F
100
AcDbEntity
  8
0
  6
Continuous
 62
     7
370
    15
100
AcDbSpline
210
0.0
220
0.0
230
1.0
 70
     8
 71
     3
 72
    15
 73
    11
 74
     0
 42
0.00000001
 43
0.00000001
 12
1.0
 22
0.0
 32
0.0
 13
1.0
 23
0.0
 33
0.0
 40
0.0
 40
0.0
 40
0.0
 40
0.0
 40
0.1328801698019214
 40
0.2561085872224808
 40
0.3701592168987246
 40
0.4769191150317734
 40
0.5856694331940141
 40
0.7086429828806751
 40
0.8465788403219516
 40
1.0
 40
1.0
 40
1.0
 40
1.0
 10
7.046855558325436
 20
4.525276161008168
 30
0.0
 10
7.04687240554827
 20
4.515619944145327
 30
0.0
 10
7.046904876295752
 20
4.497008889822154
 30
0.0
 10
7.044307585806131
 20
4.470219680863109
 30
0.0
 10
7.040493960654538
 20
4.445503970128397
 30
0.0
 10
7.034558691819809
 20
4.422279768241855
 30
0.0
 10
7.026320174219002
 20
4.399073381516049
 30
0.0
 10
7.014702219684025
 20
4.374842752056619
 30
0.0
 10
7.000694958960681
 20
4.348191918561738
 30
0.0
 10
6.989388410475708
 20
4.330294948926954
 30
0.0
 10
6.983434670978814
 20
4.320870862068711
 30
0.0
  0
SPLINE
  5
6E
330
1F
100
AcDbEntity
  8
0
  6
Continuous
 62
     7
370
    15
100
AcDbSpline
210
0.0
220
0.0
230
1.0
 70
     8
 71
     3
 72
    23
 73
    19
 74
     0
 42
0.00000001
 43
0.00000001
 12
1.0
 22
0.0
 32
0.0
 13
1.0
 23
0.0
 33
0.0
 40
0.0
 40
0.0
 40
0.0
 40
0.0
 40
0.0715936378905391
 40
0.1408462094947595
 40
0.2090862212801939
 40
0.2755925865539602
 40
0.3402797930277021
 40
0.4042496694223294
 40
0.4670761640300031
 40
0.5296341175730679
 40
0.5908801365616877
 40
0.6508422586992826
 40
0.7098009316912054
 40
0.7680510984817596
 40
0.8260055048371369
 40
0.8838393736111982
 40
0.9414510971264259
 40
1.0
 40
1.0
 40
1.0
 40
1.0
 10
6.775714691516014
 20
4.953974842027139
 30
0.0
 10
6.786243226016381
 20
4.947002661801202
 30
0.0
 10
6.806956018655566
 20
4.933286287194858
 30
0.0
 10
6.836516998978088
 20
4.911215554881333
 30
0.0
 10
6.864327533880206
 20
4.888367836088814
 30
0.0
 10
6.890149587022896
 20
4.864464895792116
 30
0.0
 10
6.914240935527682
 20
4.839856076648524
 30
0.0
 10
6.936217029782389
 20
4.814193761833301
 30
0.0
 10
6.956757572052246
 20
4.787841780071451
 30
0.0
 10
6.975156325965235
 20
4.76052591223838
 30
0.0
 10
6.991829906582306
 20
4.732714405728143
 30
0.0
 10
7.006223642783676
 20
4.704359577724827
 30
0.0
 10
7.018448280206838
 20
4.675575423580614
 30
0.0
 10
7.028355948910676
 20
4.6462928514528
 30
0.0
 10
7.036410038704129
 20
4.616650571967416
 30
0.0
 10
7.042115110434955
 20
4.586580960625351
 30
0.0
 10
7.045741597564188
 20
4.556076893670268
 30
0.0
 10
7.046482246230263
 20
4.535598145805917
 30
0.0
 10
7.046855558325436
 20
4.525276161008168
 30
0.0
  0
SPLINE
  5
6F
330
1F
100
AcDbEntity
  8
0
  6
Continuous
 62
     7
370
    15
100
AcDbSpline
210
0.0
220
0.0
230
1.0
 70
     8
 71
     3
 72
    11
 73
     7
 74
     0
 42
0.00000001
 43
0.00000001
 12
1.0
 22
0.0
 32
0.0
 13
1.0
 23
0.0
 33
0.0
 40
0.0
 40
0.0
 40
0.0
 40
0.0
 40
0.2392099938367823
 40
0.4836746478315279
 40
0.7374542459259144
 40
0.9999999999999999
 40
0.9999999999999999
 40
0.9999999999999999
 40
0.9999999999999999
 10
6.544791948389816
 20
5.050321555905629
 30
0.0
 10
6.564347815172891
 20
5.045772439627008
 30
0.0
 10
6.603889127087299
 20
5.036574277883362
 30
0.0
 10
6.662125196286053
 20
5.015330172255977
 30
0.0
 10
6.719902561898862
 20
4.987993812153102
 30
0.0
 10
6.756901260719348
 20
4.96544212601413
 30
0.0
 10
6.775714691516014
 20
4.953974842027139
 30
0.0
  0
SPLINE
  5
70
330
1F
100
AcDbEntity
  8
0
  6
Continuous
 62
     7
370
    15
100
AcDbSpline
210
0.0
220
0.0
230
1.0
 70
     8
 71
     3
 72
    15
 73
    11
 74
     0
 42
0.00000001
 43
0.00000001
 12
1.0
 22
0.0
 32
0.0
 13
1.0
 23
0.0
 33
0.0
 40
0.0
 40
0.0
 40
0.0
 40
0.0
 40
0.1237832837064666
 40
0.2471474016590978
 40
0.3697896167544836
 40
0.4924519420763024
 40
0.6166490049486189
 40
0.7419454232771862
 40
0.8698448313852921
 40
0.9999999999999999
 40
0.9999999999999999
 40
0.9999999999999999
 40
0.9999999999999999
 10
6.325360097744539
 20
5.038167727320039
 30
0.0
 10
6.334085841167339
 20
5.041030991394452
 30
0.0
 10
6.351507780139349
 20
5.046747823708683
 30
0.0
 10
6.378286225493255
 20
5.052834653991847
 30
0.0
 10
6.405320107406713
 20
5.057024657496188
 30
0.0
 10
6.43263053353375
 20
5.059449474359011
 30
0.0
 10
6.460245023155642
 20
5.060189992666873
 30
0.0
 10
6.488209388260757
 20
5.058717987491906
 30
0.0
 10
6.516515776931799
 20
5.055798426739675
 30
0.0
 10
6.535311790026721
 20
5.052157787621725
 30
0.0
 10
6.544791948389816
 20
5.050321555905629
 30
0.0
  0
SPLINE
  5
71
330
1F
100
AcDbEntity
  8
0
  6
Continuous
 62
     7
370
    15
100
AcDbSpline
210
0.0
220
0.0
230
1.0
 70
     8
 71
     3
 72
    15
 73
    11
 74
     0
 42
0.00000001
 43
0.00000001
 12
1.0
 22
0.0
 32
0.0
 13
1.0
 23
0.0
 33
0.0
 40
0.0
 40
0.0
 40
0.0
 40
0.0
 40
0.1172463035264072
 40
0.2350701911355322
 40
0.3549262849885833
 40
0.476874335530959
 40
0.6013239699851036
 40
0.7297739567913163
 40
0.8623347530131585
 40
1.0
 40
1.0
 40
1.0
 40
1.0
 10
6.158963135472744
 20
4.929225227452849
 30
0.0
 10
6.164105091248354
 20
4.935199365978407
 30
0.0
 10
6.174414333336403
 20
4.947177073102934
 30
0.0
 10
6.191579973587761
 20
4.963780267252193
 30
0.0
 10
6.210120056001274
 20
4.979321020463044
 30
0.0
 10
6.230345578886513
 20
4.99338996207001
 30
0.0
 10
6.251864385173186
 20
5.006510879301922
 30
0.0
 10
6.274870176852051
 20
5.018460958869623
 30
0.0
 10
6.299491851813262
 20
5.029087322474599
 30
0.0
 10
6.316629441928038
 20
5.035103047573656
 30
0.0
 10
6.325360097744539
 20
5.038167727320039
 30
0.0
  0
SPLINE
  5
72
330
1F
100
AcDbEntity
  8
0
  6
Continuous
 62
     7
370
    15
100
AcDbSpline
210
0.0
220
0.0
230
1.0
 70
     8
 71
     3
 72
     9
 73
     5
 74
     0
 42
0.00000001
 43
0.00000001
 12
1.0
 22
0.0
 32
0.0
 13
1.0
 23
0.0
 33
0.0
 40
0.0
 40
0.0
 40
0.0
 40
0.0
 40
0.5439377084548437
 40
1.0
 40
1.0
 40
1.0
 40
1.0
 10
6.120733820103527
 20
4.87486446687003
 30
0.0
 10
6.127300615583251
 20
4.884978424649723
 30
0.0
 10
6.139373313205892
 20
4.903572387933541
 30
0.0
 10
6.152827285869425
 20
4.921190342651731
 30
0.0
 10
6.158963135472743
 20
4.929225227452848
 30
0.0
  0
SPLINE
  5
74
330
1F
100
AcDbEntity
  8
0
  6
Continuous
 62
     7
370
    15
100
AcDbSpline
210
0.0
220
0.0
230
1.0
 70
     8
 71
     3
 72
    13
 73
     9
 74
     0
 42
0.00000001
 43
0.00000001
 12
1.0
 22
0.0
 32
0.0
 13
1.0
 23
0.0
 33
0.0
 40
0.0
 40
0.0
 40
0.0
 40
0.0
 40
0.2415433924126709
 40
0.4510228223098289
 40
0.558948685308895
 40
0.6850720036797973
 40
0.831112284320249
 40
1.0
 40
1.0
 40
1.0
 40
1.0
 10
6.26702172053371
 20
4.862268680881328
 30
0.0
 10
6.260008422912473
 20
4.863017083035949
 30
0.0
 10
6.246912816134602
 20
4.864414539818468
 30
0.0
 10
6.23088626688557
 20
4.860264310643866
 30
0.0
 10
6.219375354529509
 20
4.854477566008765
 30
0.0
 10
6.210317562053547
 20
4.848139495626543
 30
0.0
 10
6.20056867072028
 20
4.839844674360148
 30
0.0
 10
6.194055782704085
 20
4.833440293688547
 30
0.0
 10
6.190563089795275
 20
4.830005790454127
 30
0.0
  0
SPLINE
  5
75
330
1F
100
AcDbEntity
  8
0
  6
Continuous
 62
     7
370
    15
100
AcDbSpline
210
0.0
220
0.0
230
1.0
 70
     8
 71
     3
 72
    11
 73
     7
 74
     0
 42
0.00000001
 43
0.00000001
 12
1.0
 22
0.0
 32
0.0
 13
1.0
 23
0.0
 33
0.0
 40
0.0
 40
0.0
 40
0.0
 40
0.0
 40
0.2920048774471357
 40
0.5532907729889691
 40
0.7898952145184139
 40
1.0
 40
1.0
 40
1.0
 40
1.0
 10
6.348562861407936
 20
4.82867991824479
 30
0.0
 10
6.341208854104183
 20
4.833256184105307
 30
0.0
 10
6.327274482797676
 20
4.841927291579623
 30
0.0
 10
6.30606495235597
 20
4.851897028082632
 30
0.0
 10
6.286273863452277
 20
4.859150495671046
 30
0.0
 10
6.273180187437631
 20
4.861271220988213
 30
0.0
 10
6.26702172053371
 20
4.862268680881328
 30
0.0
  0
SPLINE
  5
77
330
1F
100
AcDbEntity
  8
0
  6
Continuous
 62
     7
370
    15
100
AcDbSpline
210
0.0
220
0.0
230
1.0
 70
     8
 71
     3
 72
    13
 73
     9
 74
     0
 42
0.00000001
 43
0.00000001
 12
1.0
 22
0.0
 32
0.0
 13
1.0
 23
0.0
 33
0.0
 40
0.0
 40
0.0
 40
0.0
 40
0.0
 40
0.1983605817873982
 40
0.4011445158091135
 40
0.5155916673487688
 40
0.6540827333474757
 40
0.8140382070067473
 40
1.0
 40
1.0
 40
1.0
 40
1.0
 10
6.919792804930638
 20
4.438652509998149
 30
0.0
 10
6.916909835173078
 20
4.444729061599332
 30
0.0
 10
6.911079606722105
 20
4.45701766918397
 30
0.0
 10
6.899101298115857
 20
4.469914023092335
 30
0.0
 10
6.887677073292394
 20
4.480172913218743
 30
0.0
 10
6.876633082959821
 20
4.488685617655647
 30
0.0
 10
6.863199157692423
 20
4.497984243731561
 30
0.0
 10
6.853441388449779
 20
4.504380355475965
 30
0.0
 10
6.848195705626438
 20
4.50781884358523
 30
0.0
  0
SPLINE
  5
78
330
1F
100
AcDbEntity
  8
0
  6
Continuous
 62
     7
370
    15
100
AcDbSpline
210
0.0
220
0.0
230
1.0
 70
     8
 71
     3
 72
    15
 73
    11
 74
     0
 42
0.00000001
 43
0.00000001
 12
1.0
 22
0.0
 32
0.0
 13
1.0
 23
0.0
 33
0.0
 40
0.0
 40
0.0
 40
0.0
 40
0.0
 40
0.1069921562076879
 40
0.2053696252514756
 40
0.3082297541522551
 40
0.4171650259626039
 40
0.5372162510067124
 40
0.6719770493154562
 40
0.8258303921313505
 40
0.9999999999999999
 40
0.9999999999999999
 40
0.9999999999999999
 40
0.9999999999999999
 10
7.494013001280092
 20
5.189699233029386
 30
0.0
 10
7.496388943940757
 20
5.187890811322741
 30
0.0
 10
7.500949525493037
 20
5.184419576595309
 30
0.0
 10
7.506259845533657
 20
5.177439234010794
 30
0.0
 10
7.508651453726316
 20
5.169019712102576
 30
0.0
 10
7.509695629820311
 20
5.159770023869013
 30
0.0
 10
7.508031750475588
 20
5.149688879427335
 30
0.0
 10
7.504974737017528
 20
5.138706007035274
 30
0.0
 10
7.499478559475547
 20
5.126981898009992
 30
0.0
 10
7.494753843484076
 20
5.119161049980063
 30
0.0
 10
7.492245171667644
 20
5.1150084319034
 30
0.0
  0
SPLINE
  5
79
330
1F
100
AcDbEntity
  8
0
  6
Continuous
 62
     7
370
    15
100
AcDbSpline
210
0.0
220
0.0
230
1.0
 70
     8
 71
     3
 72
    11
 73
     7
 74
     0
 42
0.00000001
 43
0.00000001
 12
1.0
 22
0.0
 32
0.0
 13
1.0
 23
0.0
 33
0.0
 40
0.0
 40
0.0
 40
0.0
 40
0.0
 40
0.279716844008598
 40
0.516891816119965
 40
0.7489473011829175
 40
1.0
 40
1.0
 40
1.0
 40
1.0
 10
7.442303985115949
 20
5.183953786788925
 30
0.0
 10
7.446474567125569
 20
5.187216608676859
 30
0.0
 10
7.454181431246931
 20
5.193246012938541
 30
0.0
 10
7.467950784843793
 20
5.197285231837593
 30
0.0
 10
7.481875613983545
 20
5.196583906217859
 30
0.0
 10
7.489862516135485
 20
5.192053506902015
 30
0.0
 10
7.494013001280092
 20
5.189699233029386
 30
0.0
  0
SPLINE
  5
7A
330
1F
100
AcDbEntity
  8
0
  6
Continuous
 62
     7
370
    15
100
AcDbSpline
210
0.0
220
0.0
230
1.0
 70
     8
 71
     3
 72
    13
 73
     9
 74
     0
 42
0.00000001
 43
0.00000001
 12
1.0
 22
0.0
 32
0.0
 13
1.0
 23
0.0
 33
0.0
 40
0.0
 40
0.0
 40
0.0
 40
0.0
 40
0.1590780272611711
 40
0.2786124322088421
 40
0.3634712998666592
 40
0.5123705498015497
 40
0.7259982521893347
 40
1.0
 40
1.0
 40
1.0
 40
1.0
 10
7.404074669746731
 20
5.15942515091619
 30
0.0
 10
7.406530279713183
 20
5.159655471254411
 30
0.0
 10
7.410831084023422
 20
5.160058858892056
 30
0.0
 10
7.416143551701492
 20
5.162241564402921
 30
0.0
 10
7.42029199814933
 20
5.165828912278606
 30
0.0
 10
7.425591180154177
 20
5.170254832438244
 30
0.0
 10
7.433361580618862
 20
5.176298866751848
 30
0.0
 10
7.439086897281
 20
5.181199879812696
 30
0.0
 10
7.442303985115949
 20
5.183953786788925
 30
0.0
  0
SPLINE
  5
7B
330
1F
100
AcDbEntity
  8
0
  6
Continuous
 62
     7
370
    15
100
AcDbSpline
210
0.0
220
0.0
230
1.0
 70
     8
 71
     3
 72
    11
 73
     7
 74
     0
 42
0.00000001
 43
0.00000001
 12
1.0
 22
0.0
 32
0.0
 13
1.0
 23
0.0
 33
0.0
 40
0.0
 40
0.0
 40
0.0
 40
0.0
 40
0.3043094800978224
 40
0.5691349639928107
 40
0.8010784760737383
 40
1.0
 40
1.0
 40
1.0
 40
1.0
 10
7.366729269183739
 20
5.171578979501779
 30
0.0
 10
7.370228256191379
 20
5.169522270239757
 30
0.0
 10
7.376772238468784
 20
5.165675708668928
 30
0.0
 10
7.386524783953343
 20
5.161264428521518
 30
0.0
 10
7.395655673698284
 20
5.159062614146396
 30
0.0
 10
7.401415483872609
 20
5.159310641697805
 30
0.0
 10
7.404074669746731
 20
5.15942515091619
 30
0.0
  0
SPLINE
  5
7D
330
1F
100
AcDbEntity
  8
0
  6
Continuous
 62
     7
370
    15
100
AcDbSpline
210
0.0
220
0.0
230
1.0
 70
     8
 71
     3
 72
    11
 73
     7
 74
     0
 42
0.00000001
 43
0.00000001
 12
1.0
 22
0.0
 32
0.0
 13
1.0
 23
0.0
 33
0.0
 40
0.0
 40
0.0
 40
0.0
 40
0.0
 40
0.2038823388473281
 40
0.4318297233844933
 40
0.6928317838883029
 40
1.0
 40
1.0
 40
1.0
 40
1.0
 10
6.707549802441683
 20
5.606907021567437
 30
0.0
 10
6.708608839901694
 20
5.604332319730533
 30
0.0
 10
6.710851917237356
 20
5.59887901372907
 30
0.0
 10
6.717031369837184
 20
5.591647121379502
 30
0.0
 10
6.724838921348702
 20
5.584155918748207
 30
0.0
 10
6.73125920420332
 20
5.579846592541477
 30
0.0
 10
6.734730182733091
 20
5.577516854260466
 30
0.0
  0
SPLINE
  5
7E
330
1F
100
AcDbEntity
  8
0
  6
Continuous
 62
     7
370
    15
100
AcDbSpline
210
0.0
220
0.0
230
1.0
 70
     8
 71
     3
 72
    13
 73
     9
 74
     0
 42
0.00000001
 43
0.00000001
 12
1.0
 22
0.0
 32
0.0
 13
1.0
 23
0.0
 33
0.0
 40
0.0
 40
0.0
 40
0.0
 40
0.0
 40
0.2773846314578037
 40
0.4900065941700162
 40
0.6378809924379791
 40
0.7257010933838761
 40
0.8448641514853394
 40
1.0
 40
1.0
 40
1.0
 40
1.0
 10
6.713958184786812
 20
5.651765697983339
 30
0.0
 10
6.712777078073264
 20
5.647642015346879
 30
0.0
 10
6.7106906247791
 20
5.640357431217219
 30
0.0
 10
6.70800564200511
 20
5.630859230303379
 30
0.0
 10
6.706253268122229
 20
5.624161107716103
 30
0.0
 10
6.704806624793201
 20
5.618842434486339
 30
0.0
 10
6.705124765376986
 20
5.613119678770114
 30
0.0
 10
6.706673743440366
 20
5.609151380774867
 30
0.0
 10
6.707549802441682
 20
5.606907021567435
 30
0.0
  0
SPLINE
  5
7F
330
1F
100
AcDbEntity
  8
0
  6
Continuous
 62
     7
370
    15
100
AcDbSpline
210
0.0
220
0.0
230
1.0
 70
     8
 71
     3
 72
    11
 73
     7
 74
     0
 42
0.00000001
 43
0.00000001
 12
1.0
 22
0.0
 32
0.0
 13
1.0
 23
0.0
 33
0.0
 40
0.0
 40
0.0
 40
0.0
 40
0.0
 40
0.2542789387643971
 40
0.4831133635103608
 40
0.7236171849862568
 40
1.0
 40
1.0
 40
1.0
 40
1.0
 10
6.697163803468542
 20
5.701485905833477
 30
0.0
 10
6.701022455860163
 20
5.698558884746089
 30
0.0
 10
6.708353643195582
 20
5.692997735995569
 30
0.0
 10
6.715290185903001
 20
5.680769744972197
 30
0.0
 10
6.717237449483594
 20
5.666477036029678
 30
0.0
 10
6.715100712595433
 20
5.656891271663455
 30
0.0
 10
6.713958184786812
 20
5.651765697983339
 30
0.0
  0
SPLINE
  5
80
330
1F
100
AcDbEntity
  8
0
  6
Continuous
 62
     7
370
    15
100
AcDbSpline
210
0.0
220
0.0
230
1.0
 70
     8
 71
     3
 72
    15
 73
    11
 74
     0
 42
0.00000001
 43
0.00000001
 12
1.0
 22
0.0
 32
0.0
 13
1.0
 23
0.0
 33
0.0
 40
0.0
 40
0.0
 40
0.0
 40
0.0
 40
0.1736114477407487
 40
0.3244912059392678
 40
0.4605289118764765
 40
0.5809310860388548
 40
0.6923575324211885
 40
0.7925806530541215
 40
0.894173941449039
 40
1.0
 40
1.0
 40
1.0
 40
1.0
 10
6.629544320792355
 20
5.66900203670472
 30
0.0
 10
6.63225011681932
 20
5.673049365301712
 30
0.0
 10
6.637307427424358
 20
5.680614088448492
 30
0.0
 10
6.645872184252285
 20
5.690313312109818
 30
0.0
 10
6.654425294428058
 20
5.69792197969545
 30
0.0
 10
6.663186030063159
 20
5.703448933571067
 30
0.0
 10
6.672024459943048
 20
5.706685178071121
 30
0.0
 10
6.680850952977129
 20
5.707351603102635
 30
0.0
 10
6.689513673928489
 20
5.705914950805565
 30
0.0
 10
6.694579302491284
 20
5.702982203510365
 30
0.0
 10
6.697163803468542
 20
5.701485905833477
 30
0.0
  0
SPLINE
  5
84
330
1F
100
AcDbEntity
  8
0
  6
Continuous
 62
     7
370
    15
100
AcDbSpline
210
0.0
220
0.0
230
1.0
 70
     8
 71
     3
 72
    15
 73
    11
 74
     0
 42
0.00000001
 43
0.00000001
 12
1.0
 22
0.0
 32
0.0
 13
1.0
 23
0.0
 33
0.0
 40
0.0
 40
0.0
 40
0.0
 40
0.0
 40
0.1064943187688058
 40
0.2080946758398424
 40
0.3088390753076338
 40
0.4172674683088904
 40
0.539369596490306
 40
0.6735033491064653
 40
0.8266408080962526
 40
1.0
 40
1.0
 40
1.0
 40
1.0
 10
6.424697064449785
 20
5.27720679884563
 30
0.0
 10
6.422319816731016
 20
5.279018011782212
 30
0.0
 10
6.417674568053457
 20
5.282557203105021
 30
0.0
 10
6.412375091577796
 20
5.289576775334479
 30
0.0
 10
6.409502357690021
 20
5.297897375528449
 30
0.0
 10
6.408611916668412
 20
5.307218672201915
 30
0.0
 10
6.410198080589479
 20
5.317365197497199
 30
0.0
 10
6.413299343637555
 20
5.328421795587311
 30
0.0
 10
6.418787730876139
 20
5.340144871467994
 30
0.0
 10
6.423513634335524
 20
5.347965876979087
 30
0.0
 10
6.426022936659121
 20
5.352118578673172
 30
0.0
  0
SPLINE
  5
85
330
1F
100
AcDbEntity
  8
0
  6
Continuous
 62
     7
370
    15
100
AcDbSpline
210
0.0
220
0.0
230
1.0
 70
     8
 71
     3
 72
    11
 73
     7
 74
     0
 42
0.00000001
 43
0.00000001
 12
1.0
 22
0.0
 32
0.0
 13
1.0
 23
0.0
 33
0.0
 40
0.0
 40
0.0
 40
0.0
 40
0.0
 40
0.2746993289190319
 40
0.5180038920467785
 40
0.7479847610370638
 40
0.9999999999999999
 40
0.9999999999999999
 40
0.9999999999999999
 40
0.9999999999999999
 10
6.477069016718596
 20
5.282731266384534
 30
0.0
 10
6.472881618630227
 20
5.279586636382923
 30
0.0
 10
6.464985390722208
 20
5.273656769039269
 30
0.0
 10
6.451141656834153
 20
5.269282625204223
 30
0.0
 10
6.437007345261764
 20
5.270438522042237
 30
0.0
 10
6.4289236726263
 20
5.274882980687856
 30
0.0
 10
6.424697064449783
 20
5.277206798845629
 30
0.0
  0
SPLINE
  5
86
330
1F
100
AcDbEntity
  8
0
  6
Continuous
 62
     7
370
    15
100
AcDbSpline
210
0.0
220
0.0
230
1.0
 70
     8
 71
     3
 72
    13
 73
     9
 74
     0
 42
0.00000001
 43
0.00000001
 12
1.0
 22
0.0
 32
0.0
 13
1.0
 23
0.0
 33
0.0
 40
0.0
 40
0.0
 40
0.0
 40
0.0
 40
0.1549551056457658
 40
0.2793468317644684
 40
0.3616589924261619
 40
0.5111252137498786
 40
0.7218516445600245
 40
1.0
 40
1.0
 40
1.0
 40
1.0
 10
6.515077353386257
 20
5.307259902257268
 30
0.0
 10
6.51269638836845
 20
5.307014196768023
 30
0.0
 10
6.508404080402897
 20
5.306571248794918
 30
0.0
 10
6.503148167180586
 20
5.304450334813528
 30
0.0
 10
6.498761431051784
 20
5.301132424434793
 30
0.0
 10
6.493618908166545
 20
5.296668679272731
 30
0.0
 10
6.485938236220417
 20
5.290530201491626
 30
0.0
 10
6.480285293626528
 20
5.285559422220147
 30
0.0
 10
6.477069016718596
 20
5.282731266384534
 30
0.0
  0
SPLINE
  5
87
330
1F
100
AcDbEntity
  8
0
  6
Continuous
 62
     7
370
    15
100
AcDbSpline
210
0.0
220
0.0
230
1.0
 70
     8
 71
     3
 72
    11
 73
     7
 74
     0
 42
0.00000001
 43
0.00000001
 12
1.0
 22
0.0
 32
0.0
 13
1.0
 23
0.0
 33
0.0
 40
0.0
 40
0.0
 40
0.0
 40
0.0
 40
0.3061675447867485
 40
0.5661744791884655
 40
0.7991995338051728
 40
1.0
 40
1.0
 40
1.0
 40
1.0
 10
6.553085690053919
 20
5.294664116268567
 30
0.0
 10
6.549518009678798
 20
5.296799742222148
 30
0.0
 10
6.542920544948494
 20
5.300749007690024
 30
0.0
 10
6.533004728100438
 20
5.305264278383151
 30
0.0
 10
6.523711647624332
 20
5.30732919732482
 30
0.0
 10
6.517809309441899
 20
5.307281827741184
 30
0.0
 10
6.515077353386257
 20
5.307259902257268
 30
0.0
  0
SPLINE
  5
89
330
1F
100
AcDbEntity
  8
0
  6
Continuous
 62
     7
370
    15
100
AcDbSpline
210
0.0
220
0.0
230
1.0
 70
     8
 71
     3
 72
    11
 73
     7
 74
     0
 42
0.00000001
 43
0.00000001
 12
1.0
 22
0.0
 32
0.0
 13
1.0
 23
0.0
 33
0.0
 40
0.0
 40
0.0
 40
0.0
 40
0.0
 40
0.2003031019298523
 40
0.4290711681453053
 40
0.6948813849087001
 40
1.0
 40
1.0
 40
1.0
 40
1.0
 10
7.211602220691307
 20
4.859778031606024
 30
0.0
 10
7.210607098680558
 20
4.862270162476249
 30
0.0
 10
7.208475438414268
 20
4.867608579571924
 30
0.0
 10
7.202575977467717
 20
4.874886085707011
 30
0.0
 10
7.194823926770193
 20
4.882237179765649
 30
0.0
 10
7.188476825704153
 20
4.886466165826145
 30
0.0
 10
7.185084776504566
 20
4.888726241509882
 30
0.0
  0
SPLINE
  5
8A
330
1F
100
AcDbEntity
  8
0
  6
Continuous
 62
     7
370
    15
100
AcDbSpline
210
0.0
220
0.0
230
1.0
 70
     8
 71
     3
 72
    13
 73
     9
 74
     0
 42
0.00000001
 43
0.00000001
 12
1.0
 22
0.0
 32
0.0
 13
1.0
 23
0.0
 33
0.0
 40
0.0
 40
0.0
 40
0.0
 40
0.0
 40
0.2768121817170602
 40
0.4899716319107258
 40
0.6417156671882897
 40
0.7251031495329997
 40
0.8444719832660101
 40
1.0
 40
1.0
 40
1.0
 40
1.0
 10
7.205414817047734
 20
4.814919355190121
 30
0.0
 10
7.206480882285804
 20
4.819054219289778
 30
0.0
 10
7.208367871944929
 20
4.826373138919942
 30
0.0
 10
7.211317244637938
 20
4.835836505655468
 30
0.0
 10
7.212591794698541
 20
4.842642031632354
 30
0.0
 10
7.214113545236597
 20
4.847903646450495
 30
0.0
 10
7.214114945004076
 20
4.853572715389504
 30
0.0
 10
7.212510158542354
 20
4.857535827221694
 30
0.0
 10
7.211602220691307
 20
4.859778031606024
 30
0.0
  0
SPLINE
  5
8B
330
1F
100
AcDbEntity
  8
0
  6
Continuous
 62
     7
370
    15
100
AcDbSpline
210
0.0
220
0.0
230
1.0
 70
     8
 71
     3
 72
    11
 73
     7
 74
     0
 42
0.00000001
 43
0.00000001
 12
1.0
 22
0.0
 32
0.0
 13
1.0
 23
0.0
 33
0.0
 40
0.0
 40
0.0
 40
0.0
 40
0.0
 40
0.2502458231511909
 40
0.4838520877556091
 40
0.7213468837576572
 40
1.0
 40
1.0
 40
1.0
 40
1.0
 10
7.221546262261334
 20
4.765420126041539
 30
0.0
 10
7.217763678324161
 20
4.7682757687909
 30
0.0
 10
7.2104500252447
 20
4.773797174458193
 30
0.0
 10
7.203675184091802
 20
4.786009138238572
 30
0.0
 10
7.201935699932799
 20
4.800312453321771
 30
0.0
 10
7.20419505664091
 20
4.809798251192542
 30
0.0
 10
7.205414817047734
 20
4.814919355190121
 30
0.0
  0
SPLINE
  5
8C
330
1F
100
AcDbEntity
  8
0
  6
Continuous
 62
     7
370
    15
100
AcDbSpline
210
0.0
220
0.0
230
1.0
 70
     8
 71
     3
 72
    15
 73
    11
 74
     0
 42
0.00000001
 43
0.00000001
 12
1.0
 22
0.0
 32
0.0
 13
1.0
 23
0.0
 33
0.0
 40
0.0
 40
0.0
 40
0.0
 40
0.0
 40
0.1741898928535534
 40
0.3255723578717026
 40
0.4638111638030557
 40
0.5846144984310455
 40
0.6939257470150481
 40
0.7944827947885739
 40
0.8938213462304035
 40
1.0
 40
1.0
 40
1.0
 40
1.0
 10
7.288723787534411
 20
4.798124973871852
 30
0.0
 10
7.286023015983624
 20
4.794071843413839
 30
0.0
 10
7.280975096454782
 20
4.786496276207499
 30
0.0
 10
7.272316304150002
 20
4.776831537506523
 30
0.0
 10
7.263920106874393
 20
4.768965927116998
 30
0.0
 10
7.25512536794403
 20
4.763524383142883
 30
0.0
 10
7.246406906971804
 20
4.760191652289326
 30
0.0
 10
7.237704804771017
 20
4.759547225441808
 30
0.0
 10
7.22913440016958
 20
4.761032953993082
 30
0.0
 10
7.224131148279229
 20
4.76392564349216
 30
0.0
 10
7.221546262261334
 20
4.765420126041539
 30
0.0
  0
SPLINE
  5
90
330
1F
100
AcDbEntity
  8
0
  6
Continuous
 62
     7
370
    15
100
AcDbSpline
210
0.0
220
0.0
230
1.0
 70
     8
 71
     3
 72
    15
 73
    11
 74
     0
 42
0.00000001
 43
0.00000001
 12
1.0
 22
0.0
 32
0.0
 13
1.0
 23
0.0
 33
0.0
 40
0.0
 40
0.0
 40
0.0
 40
0.0
 40
0.130924330132741
 40
0.257471022488215
 40
0.379936226014153
 40
0.5001143129006217
 40
0.6206319875625802
 40
0.743557382255323
 40
0.8691229123534518
 40
1.0
 40
1.0
 40
1.0
 40
1.0
 10
6.87528485380926
 20
5.870295789239639
 30
0.0
 10
6.872828214422674
 20
5.883224653760007
 30
0.0
 10
6.867997076817403
 20
5.908650088163951
 30
0.0
 10
6.865094291968229
 20
5.946772019194539
 30
0.0
 10
6.865136419496368
 20
5.983900837469546
 30
0.0
 10
6.868973931499608
 20
6.020241021233677
 30
0.0
 10
6.876264792554182
 20
6.056095853813946
 30
0.0
 10
6.887468553613777
 20
6.091482924493863
 30
0.0
 10
6.902057773446007
 20
6.126764011170701
 30
0.0
 10
6.914471197848368
 20
6.149353894228627
 30
0.0
 10
6.920806466329831
 20
6.160882781786003
 30
0.0
  0
SPLINE
  5
91
330
1F
100
AcDbEntity
  8
0
  6
Continuous
 62
     7
370
    15
100
AcDbSpline
210
0.0
220
0.0
230
1.0
 70
     8
 71
     3
 72
    15
 73
    11
 74
     0
 42
0.00000001
 43
0.00000001
 12
1.0
 22
0.0
 32
0.0
 13
1.0
 23
0.0
 33
0.0
 40
0.0
 40
0.0
 40
0.0
 40
0.0
 40
0.1405436430508071
 40
0.2753918671764885
 40
0.4047939376074379
 40
0.5301696326039979
 40
0.6516614623890837
 40
0.769237832709157
 40
0.8850074144400164
 40
1.0
 40
1.0
 40
1.0
 40
1.0
 10
7.143111040095338
 20
5.518497696362216
 30
0.0
 10
7.125440977568842
 20
5.530359966095858
 30
0.0
 10
7.090816917692024
 20
5.553603796552976
 30
0.0
 10
7.04352558486911
 20
5.592705915567496
 30
0.0
 10
7.001178877964366
 20
5.633850100097447
 30
0.0
 10
6.964419716347024
 20
5.677466522585084
 30
0.0
 10
6.933056685889713
 20
5.722971964176739
 30
0.0
 10
6.907712933142781
 20
5.770421859546777
 30
0.0
 10
6.887818105231186
 20
5.819430327850859
 30
0.0
 10
6.879453215847952
 20
5.853378737854026
 30
0.0
 10
6.875284853809261
 20
5.87029578923964
 30
0.0
  0
SPLINE
  5
92
330
1F
100
AcDbEntity
  8
0
  6
Continuous
 62
     7
370
    15
100
AcDbSpline
210
0.0
220
0.0
230
1.0
 70
     8
 71
     3
 72
    15
 73
    11
 74
     0
 42
0.00000001
 43
0.00000001
 12
1.0
 22
0.0
 32
0.0
 13
1.0
 23
0.0
 33
0.0
 40
0.0
 40
0.0
 40
0.0
 40
0.0
 40
0.1152464574603815
 40
0.2306679877058217
 40
0.3477726520603326
 40
0.4675429896526983
 40
0.5916071595229506
 40
0.7207628982510139
 40
0.8567444863512679
 40
1.0
 40
1.0
 40
1.0
 40
1.0
 10
7.562970573052063
 20
5.420604131572833
 30
0.0
 10
7.546227221816612
 20
5.417520303375443
 30
0.0
 10
7.51271508424604
 20
5.411347962286632
 30
0.0
 10
7.461264984379334
 20
5.409871259524609
 30
0.0
 10
7.409313843951387
 20
5.413181943325941
 30
0.0
 10
7.356870019418972
 20
5.423050644151879
 30
0.0
 10
7.303863664346877
 20
5.438096397014951
 30
0.0
 10
7.250347683545305
 20
5.45913212041345
 30
0.0
 10
7.196304627617083
 20
5.485964344286744
 30
0.0
 10
7.161147508486797
 20
5.507466540094788
 30
0.0
 10
7.143111040095339
 20
5.518497696362217
 30
0.0
  0
SPLINE
  5
93
330
1F
100
AcDbEntity
  8
0
  6
Continuous
 62
     7
370
    15
100
AcDbSpline
210
0.0
220
0.0
230
1.0
 70
     8
 71
     3
 72
    15
 73
    11
 74
     0
 42
0.00000001
 43
0.00000001
 12
1.0
 22
0.0
 32
0.0
 13
1.0
 23
0.0
 33
0.0
 40
0.0
 40
0.0
 40
0.0
 40
0.0
 40
0.1307141767629189
 40
0.2583530832035152
 40
0.3823183886828001
 40
0.5056415318600498
 40
0.6277598548416901
 40
0.7496883926811722
 40
0.8740308546291204
 40
1.0
 40
1.0
 40
1.0
 40
1.0
 10
7.817759015946326
 20
5.584791306829067
 30
0.0
 10
7.809312289319146
 20
5.574257013495044
 30
0.0
 10
7.792617559480719
 20
5.553436263752261
 30
0.0
 10
7.764938947697887
 20
5.525196926904296
 30
0.0
 10
7.735532464872488
 20
5.499949639313631
 30
0.0
 10
7.704364794703071
 20
5.47787419225185
 30
0.0
 10
7.671541989958087
 20
5.458750720040142
 30
0.0
 10
7.636970863315604
 20
5.44279687292809
 30
0.0
 10
7.600811525180391
 20
5.429534499735775
 30
0.0
 10
7.57563875330192
 20
5.423593789792903
 30
0.0
 10
7.562970573052063
 20
5.420604131572833
 30
0.0
  0
SPLINE
  5
95
330
1F
100
AcDbEntity
  8
0
  6
Continuous
 62
     7
370
    15
100
AcDbSpline
210
0.0
220
0.0
230
1.0
 70
     8
 71
     3
 72
    11
 73
     7
 74
     0
 42
0.00000001
 43
0.00000001
 12
1.0
 22
0.0
 32
0.0
 13
1.0
 23
0.0
 33
0.0
 40
0.0
 40
0.0
 40
0.0
 40
0.0
 40
0.219069133632677
 40
0.4522916950126688
 40
0.7077948748415295
 40
1.0
 40
1.0
 40
1.0
 40
1.0
 10
7.694010943074871
 20
5.60490036867068
 30
0.0
 10
7.6984635937362
 20
5.605144223768803
 30
0.0
 10
7.707656568033935
 20
5.605647688742801
 30
0.0
 10
7.721380805712803
 20
5.610399937352271
 30
0.0
 10
7.735123908734874
 20
5.618418173776103
 30
0.0
 10
7.743618707336543
 20
5.625598346445826
 30
0.0
 10
7.748150724956133
 20
5.629429004543414
 30
0.0
  0
SPLINE
  5
96
330
1F
100
AcDbEntity
  8
0
  6
Continuous
 62
     7
370
    15
100
AcDbSpline
210
0.0
220
0.0
230
1.0
 70
     8
 71
     3
 72
    11
 73
     7
 74
     0
 42
0.00000001
 43
0.00000001
 12
1.0
 22
0.0
 32
0.0
 13
1.0
 23
0.0
 33
0.0
 40
0.0
 40
0.0
 40
0.0
 40
0.0
 40
0.3195200418746502
 40
0.5917564676591139
 40
0.8157089941675226
 40
1.0
 40
1.0
 40
1.0
 40
1.0
 10
7.606503377258628
 20
5.640477939621222
 30
0.0
 10
7.615186442409684
 20
5.635168330598463
 30
0.0
 10
7.63126762446041
 20
5.62533484578316
 30
0.0
 10
7.654603897186361
 20
5.613956246864754
 30
0.0
 10
7.675157367659992
 20
5.606545109939949
 30
0.0
 10
7.688147074974527
 20
5.605411918636666
 30
0.0
 10
7.694010943074871
 20
5.60490036867068
 30
0.0
  0
SPLINE
  5
98
330
1F
100
AcDbEntity
  8
0
  6
Continuous
 62
     7
370
    15
100
AcDbSpline
210
0.0
220
0.0
230
1.0
 70
     8
 71
     3
 72
    15
 73
    11
 74
     0
 42
0.00000001
 43
0.00000001
 12
1.0
 22
0.0
 32
0.0
 13
1.0
 23
0.0
 33
0.0
 40
0.0
 40
0.0
 40
0.0
 40
0.0
 40
0.1362630862683882
 40
0.2595739425077603
 40
0.3708283456233152
 40
0.4764918674302899
 40
0.5841409543678522
 40
0.705006142093448
 40
0.8429386405482042
 40
1.0
 40
1.0
 40
1.0
 40
1.0
 10
6.9895308425138
 20
6.116687041474769
 30
0.0
 10
6.988409537253051
 20
6.110595052736135
 30
0.0
 10
6.986273510283028
 20
6.098990137730129
 30
0.0
 10
6.985768390361278
 20
6.082072962122528
 30
0.0
 10
6.987741257246094
 20
6.066701217718958
 30
0.0
 10
6.992076537356666
 20
6.052470842596409
 30
0.0
 10
7.000208410598804
 20
6.039519341014562
 30
0.0
 10
7.010939336480702
 20
6.026739757842224
 30
0.0
 10
7.025366126490809
 20
6.014429854546917
 30
0.0
 10
7.036445724963231
 20
6.006894827767861
 30
0.0
 10
7.042344752185725
 20
6.002883010173342
 30
0.0
  0
SPLINE
  5
9A
330
1F
100
AcDbEntity
  8
0
  6
Continuous
 62
     7
370
    15
100
AcDbSpline
210
0.0
220
0.0
230
1.0
 70
     8
 71
     3
 72
    11
 73
     7
 74
     0
 42
0.00000001
 43
0.00000001
 12
1.0
 22
0.0
 32
0.0
 13
1.0
 23
0.0
 33
0.0
 40
0.0
 40
0.0
 40
0.0
 40
0.0
 40
0.2433157076332848
 40
0.4877500528449455
 40
0.7382735555827545
 40
1.0
 40
1.0
 40
1.0
 40
1.0
 10
-4.95681927785345
 20
-2.081341167730291
 30
0.0
 10
-4.956986388673601
 20
-2.091307209036683
 30
0.0
 10
-4.95732137860152
 20
-2.111285110262747
 30
0.0
 10
-4.952090971801293
 20
-2.141122846039756
 30
0.0
 10
-4.944239412586628
 20
-2.171126017910461
 30
0.0
 10
-4.935599951712586
 20
-2.190240481402427
 30
0.0
 10
-4.931185748472932
 20
-2.200006730465955
 30
0.0
  0
SPLINE
  5
9B
330
1F
100
AcDbEntity
  8
0
  6
Continuous
 62
     7
370
    15
100
AcDbSpline
210
0.0
220
0.0
230
1.0
 70
     8
 71
     3
 72
    11
 73
     7
 74
     0
 42
0.00000001
 43
0.00000001
 12
1.0
 22
0.0
 32
0.0
 13
1.0
 23
0.0
 33
0.0
 40
0.0
 40
0.0
 40
0.0
 40
0.0
 40
0.1353311707568882
 40
0.3436204153806861
 40
0.631614829781533
 40
0.9999999999999999
 40
0.9999999999999999
 40
0.9999999999999999
 40
0.9999999999999999
 10
-4.95615634174878
 20
-2.045321639376635
 30
0.0
 10
-4.955978772606546
 20
-2.046940754211377
 30
0.0
 10
-4.955527905433291
 20
-2.051051861127478
 30
0.0
 10
-4.955774588910989
 20
-2.058658177351806
 30
0.0
 10
-4.955824710067466
 20
-2.06905259239491
 30
0.0
 10
-4.956461747970221
 20
-2.076923637857903
 30
0.0
 10
-4.956819277853448
 20
-2.081341167730291
 30
0.0
  0
SPLINE
  5
9C
330
1F
100
AcDbEntity
  8
0
  6
Continuous
 62
     7
370
    15
100
AcDbSpline
210
0.0
220
0.0
230
1.0
 70
     8
 71
     3
 72
    11
 73
     7
 74
     0
 42
0.00000001
 43
0.00000001
 12
1.0
 22
0.0
 32
0.0
 13
1.0
 23
0.0
 33
0.0
 40
0.0
 40
0.0
 40
0.0
 40
0.0
 40
0.2473728085948643
 40
0.4978643889709112
 40
0.7406069244468485
 40
1.0
 40
1.0
 40
1.0
 40
1.0
 10
-4.975602467485722
 20
-2.017257344279002
 30
0.0
 10
-4.973245751811282
 20
-2.01893806964352
 30
0.0
 10
-4.968502607987599
 20
-2.022320710247338
 30
0.0
 10
-4.962771315295782
 20
-2.028927163285169
 30
0.0
 10
-4.958694268574976
 20
-2.036788043255449
 30
0.0
 10
-4.957020814297977
 20
-2.042414912706446
 30
0.0
 10
-4.95615634174878
 20
-2.045321639376635
 30
0.0
  0
SPLINE
  5
9D
330
1F
100
AcDbEntity
  8
0
  6
Continuous
 62
     7
370
    15
100
AcDbSpline
210
0.0
220
0.0
230
1.0
 70
     8
 71
     3
 72
    13
 73
     9
 74
     0
 42
0.00000001
 43
0.00000001
 12
1.0
 22
0.0
 32
0.0
 13
1.0
 23
0.0
 33
0.0
 40
0.0
 40
0.0
 40
0.0
 40
0.0
 40
0.278014995253315
 40
0.5302003714992829
 40
0.6534784605921791
 40
0.7660837461422154
 40
0.8814641160858941
 40
1.0
 40
1.0
 40
1.0
 40
1.0
 10
-5.027311483649867
 20
-2.034935640403496
 30
0.0
 10
-5.023911882174333
 20
-2.030382435406922
 30
0.0
 10
-5.017428526973886
 20
-2.021699051338029
 30
0.0
 10
-5.005626873729246
 20
-2.014774877147393
 30
0.0
 10
-4.995962411473284
 20
-2.012414575431099
 30
0.0
 10
-4.988791282313112
 20
-2.012099752888441
 30
0.0
 10
-4.981799540444715
 20
-2.013618274359516
 30
0.0
 10
-4.977686652661952
 20
-2.016033460740492
 30
0.0
 10
-4.975602467485722
 20
-2.017257344279002
 30
0.0
  0
SPLINE
  5
9F
330
1F
100
AcDbEntity
  8
0
  6
Continuous
 62
     7
370
    15
100
AcDbSpline
210
0.0
220
0.0
230
1.0
 70
     8
 71
     3
 72
    13
 73
     9
 74
     0
 42
0.00000001
 43
0.00000001
 12
1.0
 22
0.0
 32
0.0
 13
1.0
 23
0.0
 33
0.0
 40
0.0
 40
0.0
 40
0.0
 40
0.0
 40
0.1309729800495235
 40
0.2494639067391593
 40
0.3675774728313002
 40
0.4850752431261203
 40
0.7293162773129
 40
0.9999999999999999
 40
0.9999999999999999
 40
0.9999999999999999
 40
0.9999999999999999
 10
-5.13448615390461
 20
-2.27469753159194
 30
0.0
 10
-5.136858921893225
 20
-2.273029908822173
 30
0.0
 10
-5.141378327132397
 20
-2.26985359191348
 30
0.0
 10
-5.146605114443375
 20
-2.263566400640653
 30
0.0
 10
-5.150497682720045
 20
-2.256720045444152
 30
0.0
 10
-5.15310788584846
 20
-2.246381875156043
 30
0.0
 10
-5.152338968311864
 20
-2.23195312943348
 30
0.0
 10
-5.14686550684779
 20
-2.22187694439435
 30
0.0
 10
-5.143988238071524
 20
-2.216580133082668
 30
0.0
  0
SPLINE
  5
A0
330
1F
100
AcDbEntity
  8
0
  6
Continuous
 62
     7
370
    15
100
AcDbSpline
210
0.0
220
0.0
230
1.0
 70
     8
 71
     3
 72
    11
 73
     7
 74
     0
 42
0.00000001
 43
0.00000001
 12
1.0
 22
0.0
 32
0.0
 13
1.0
 23
0.0
 33
0.0
 40
0.0
 40
0.0
 40
0.0
 40
0.0
 40
0.2005333975867948
 40
0.4560287791214594
 40
0.7319767352604465
 40
1.0
 40
1.0
 40
1.0
 40
1.0
 10
-5.096477817236948
 20
-2.280884935235513
 30
0.0
 10
-5.099034220245516
 20
-2.281704961464346
 30
0.0
 10
-5.104847682526453
 20
-2.283569765853453
 30
0.0
 10
-5.114718858977669
 20
-2.282651097114156
 30
0.0
 10
-5.125070928644272
 20
-2.280053234979831
 30
0.0
 10
-5.131378374902127
 20
-2.276465342990199
 30
0.0
 10
-5.13448615390461
 20
-2.27469753159194
 30
0.0
  0
SPLINE
  5
A2
330
1F
100
AcDbEntity
  8
0
  6
Continuous
 62
     7
370
    15
100
AcDbSpline
210
0.0
220
0.0
230
1.0
 70
     8
 71
     3
 72
    11
 73
     7
 74
     0
 42
0.00000001
 43
0.00000001
 12
1.0
 22
0.0
 32
0.0
 13
1.0
 23
0.0
 33
0.0
 40
0.0
 40
0.0
 40
0.0
 40
0.0
 40
0.2517077237609813
 40
0.5129498297795827
 40
0.766129219948014
 40
0.9999999999999999
 40
0.9999999999999999
 40
0.9999999999999999
 40
0.9999999999999999
 10
-5.010959059734709
 20
-2.274255574188828
 30
0.0
 10
-5.015861143733449
 20
-2.271518683436916
 30
0.0
 10
-5.025850996707158
 20
-2.265941231842098
 30
0.0
 10
-5.042758331813941
 20
-2.263307332978388
 30
0.0
 10
-5.059637003112718
 20
-2.262815937485381
 30
0.0
 10
-5.069597253770921
 20
-2.2672600686899
 30
0.0
 10
-5.07437994708133
 20
-2.269394042754592
 30
0.0
  0
SPLINE
  5
A3
330
1F
100
AcDbEntity
  8
0
  6
Continuous
 62
     7
370
    15
100
AcDbSpline
210
0.0
220
0.0
230
1.0
 70
     8
 71
     3
 72
     9
 73
     5
 74
     0
 42
0.00000001
 43
0.00000001
 12
1.0
 22
0.0
 32
0.0
 13
1.0
 23
0.0
 33
0.0
 40
0.0
 40
0.0
 40
0.0
 40
0.0
 40
0.5509796789913193
 40
1.0
 40
1.0
 40
1.0
 40
1.0
 10
-4.98090595632307
 20
-2.306960422019141
 30
0.0
 10
-4.985482622571381
 20
-2.300067808261828
 30
0.0
 10
-4.99378903825751
 20
-2.287558066033344
 30
0.0
 10
-5.005638438316475
 20
-2.278377731119024
 30
0.0
 10
-5.010959059734711
 20
-2.274255574188828
 30
0.0
  0
SPLINE
  5
A7
330
1F
100
AcDbEntity
  8
0
  6
Continuous
 62
     7
370
    15
100
AcDbSpline
210
0.0
220
0.0
230
1.0
 70
     8
 71
     3
 72
    15
 73
    11
 74
     0
 42
0.00000001
 43
0.00000001
 12
1.0
 22
0.0
 32
0.0
 13
1.0
 23
0.0
 33
0.0
 40
0.0
 40
0.0
 40
0.0
 40
0.0
 40
0.1069921562076752
 40
0.2053696252514818
 40
0.3082297541522517
 40
0.4171650259626084
 40
0.5372162510067104
 40
0.6719770493154507
 40
0.8258303921313518
 40
1.0
 40
1.0
 40
1.0
 40
1.0
 10
-4.675777054120452
 20
-3.312171540231221
 30
0.0
 10
-4.673401111459788
 20
-3.313979961937868
 30
0.0
 10
-4.668840529907505
 20
-3.317451196665297
 30
0.0
 10
-4.663530209866889
 20
-3.324431539249816
 30
0.0
 10
-4.661138601674229
 20
-3.332851061158032
 30
0.0
 10
-4.660094425580232
 20
-3.342100749391593
 30
0.0
 10
-4.66175830492496
 20
-3.352181893833273
 30
0.0
 10
-4.664815318383017
 20
-3.363164766225332
 30
0.0
 10
-4.670311495924997
 20
-3.374888875250614
 30
0.0
 10
-4.675036211916471
 20
-3.382709723280544
 30
0.0
 10
-4.677544883732901
 20
-3.386862341357207
 30
0.0
  0
SPLINE
  5
A8
330
1F
100
AcDbEntity
  8
0
  6
Continuous
 62
     7
370
    15
100
AcDbSpline
210
0.0
220
0.0
230
1.0
 70
     8
 71
     3
 72
    11
 73
     7
 74
     0
 42
0.00000001
 43
0.00000001
 12
1.0
 22
0.0
 32
0.0
 13
1.0
 23
0.0
 33
0.0
 40
0.0
 40
0.0
 40
0.0
 40
0.0
 40
0.2797168440085881
 40
0.516891816119958
 40
0.7489473011829143
 40
0.9999999999999999
 40
0.9999999999999999
 40
0.9999999999999999
 40
0.9999999999999999
 10
-4.727486070284596
 20
-3.317916986471682
 30
0.0
 10
-4.723315488274975
 20
-3.314654164583748
 30
0.0
 10
-4.715608624153615
 20
-3.308624760322066
 30
0.0
 10
-4.701839270556751
 20
-3.304585541423013
 30
0.0
 10
-4.687914441416996
 20
-3.305286867042747
 30
0.0
 10
-4.679927539265059
 20
-3.309817266358593
 30
0.0
 10
-4.675777054120452
 20
-3.312171540231221
 30
0.0
  0
SPLINE
  5
A9
330
1F
100
AcDbEntity
  8
0
  6
Continuous
 62
     7
370
    15
100
AcDbSpline
210
0.0
220
0.0
230
1.0
 70
     8
 71
     3
 72
    13
 73
     9
 74
     0
 42
0.00000001
 43
0.00000001
 12
1.0
 22
0.0
 32
0.0
 13
1.0
 23
0.0
 33
0.0
 40
0.0
 40
0.0
 40
0.0
 40
0.0
 40
0.1590780272611469
 40
0.2786124322088388
 40
0.3634712998666442
 40
0.5123705498015263
 40
0.7259982521893211
 40
1.0
 40
1.0
 40
1.0
 40
1.0
 10
-4.765715385653813
 20
-3.342445622344417
 30
0.0
 10
-4.763259775687362
 20
-3.342215302006197
 30
0.0
 10
-4.758958971377121
 20
-3.341811914368549
 30
0.0
 10
-4.753646503699057
 20
-3.339629208857689
 30
0.0
 10
-4.749498057251214
 20
-3.336041860981998
 30
0.0
 10
-4.74419887524637
 20
-3.331615940822363
 30
0.0
 10
-4.736428474781682
 20
-3.32557190650876
 30
0.0
 10
-4.730703158119544
 20
-3.320670893447911
 30
0.0
 10
-4.727486070284596
 20
-3.317916986471682
 30
0.0
  0
SPLINE
  5
AA
330
1F
100
AcDbEntity
  8
0
  6
Continuous
 62
     7
370
    15
100
AcDbSpline
210
0.0
220
0.0
230
1.0
 70
     8
 71
     3
 72
    11
 73
     7
 74
     0
 42
0.00000001
 43
0.00000001
 12
1.0
 22
0.0
 32
0.0
 13
1.0
 23
0.0
 33
0.0
 40
0.0
 40
0.0
 40
0.0
 40
0.0
 40
0.3043094800978257
 40
0.5691349639928064
 40
0.8010784760737303
 40
1.0
 40
1.0
 40
1.0
 40
1.0
 10
-4.803060786216807
 20
-3.330291793758827
 30
0.0
 10
-4.799561799209163
 20
-3.332348503020847
 30
0.0
 10
-4.79301781693176
 20
-3.336195064591679
 30
0.0
 10
-4.783265271447204
 20
-3.34060634473909
 30
0.0
 10
-4.774134381702261
 20
-3.342808159114212
 30
0.0
 10
-4.768374571527934
 20
-3.3425601315628
 30
0.0
 10
-4.765715385653813
 20
-3.342445622344417
 30
0.0
  0
SPLINE
  5
AC
330
1F
100
AcDbEntity
  8
0
  6
Continuous
 62
     7
370
    15
100
AcDbSpline
210
0.0
220
0.0
230
1.0
 70
     8
 71
     3
 72
    11
 73
     7
 74
     0
 42
0.00000001
 43
0.00000001
 12
1.0
 22
0.0
 32
0.0
 13
1.0
 23
0.0
 33
0.0
 40
0.0
 40
0.0
 40
0.0
 40
0.0
 40
0.2038823388473267
 40
0.4318297233844798
 40
0.6928317838882968
 40
1.0
 40
1.0
 40
1.0
 40
1.0
 10
-5.462240252958862
 20
-2.894963751693171
 30
0.0
 10
-5.461181215498853
 20
-2.897538453530077
 30
0.0
 10
-5.458938138163192
 20
-2.90299175953154
 30
0.0
 10
-5.452758685563363
 20
-2.910223651881105
 30
0.0
 10
-5.44495113405184
 20
-2.917714854512401
 30
0.0
 10
-5.438530851197223
 20
-2.92202418071913
 30
0.0
 10
-5.435059872667454
 20
-2.924353919000142
 30
0.0
  0
SPLINE
  5
AD
330
1F
100
AcDbEntity
  8
0
  6
Continuous
 62
     7
370
    15
100
AcDbSpline
210
0.0
220
0.0
230
1.0
 70
     8
 71
     3
 72
    13
 73
     9
 74
     0
 42
0.00000001
 43
0.00000001
 12
1.0
 22
0.0
 32
0.0
 13
1.0
 23
0.0
 33
0.0
 40
0.0
 40
0.0
 40
0.0
 40
0.0
 40
0.2773846314578006
 40
0.4900065941699993
 40
0.6378809924379869
 40
0.7257010933838733
 40
0.8448641514853263
 40
1.0
 40
1.0
 40
1.0
 40
1.0
 10
-5.455831870613734
 20
-2.850105075277269
 30
0.0
 10
-5.457012977327278
 20
-2.854228757913728
 30
0.0
 10
-5.459099430621442
 20
-2.861513342043388
 30
0.0
 10
-5.461784413395439
 20
-2.871011542957229
 30
0.0
 10
-5.463536787278315
 20
-2.877709665544505
 30
0.0
 10
-5.464983430607344
 20
-2.883028338774267
 30
0.0
 10
-5.464665290023556
 20
-2.888751094490492
 30
0.0
 10
-5.46311631196018
 20
-2.89271939248574
 30
0.0
 10
-5.462240252958864
 20
-2.894963751693172
 30
0.0
  0
SPLINE
  5
AE
330
1F
100
AcDbEntity
  8
0
  6
Continuous
 62
     7
370
    15
100
AcDbSpline
210
0.0
220
0.0
230
1.0
 70
     8
 71
     3
 72
    11
 73
     7
 74
     0
 42
0.00000001
 43
0.00000001
 12
1.0
 22
0.0
 32
0.0
 13
1.0
 23
0.0
 33
0.0
 40
0.0
 40
0.0
 40
0.0
 40
0.0
 40
0.2542789387643994
 40
0.4831133635103596
 40
0.7236171849862517
 40
1.0
 40
1.0
 40
1.0
 40
1.0
 10
-5.472626251932003
 20
-2.80038486742713
 30
0.0
 10
-5.468767599540383
 20
-2.803311888514517
 30
0.0
 10
-5.461436412204963
 20
-2.808873037265037
 30
0.0
 10
-5.454499869497539
 20
-2.821101028288407
 30
0.0
 10
-5.452552605916953
 20
-2.83539373723093
 30
0.0
 10
-5.454689342805113
 20
-2.844979501597153
 30
0.0
 10
-5.455831870613734
 20
-2.850105075277269
 30
0.0
  0
SPLINE
  5
AF
330
1F
100
AcDbEntity
  8
0
  6
Continuous
 62
     7
370
    15
100
AcDbSpline
210
0.0
220
0.0
230
1.0
 70
     8
 71
     3
 72
    15
 73
    11
 74
     0
 42
0.00000001
 43
0.00000001
 12
1.0
 22
0.0
 32
0.0
 13
1.0
 23
0.0
 33
0.0
 40
0.0
 40
0.0
 40
0.0
 40
0.0
 40
0.1736114477407587
 40
0.3244912059392674
 40
0.4605289118764898
 40
0.5809310860388455
 40
0.6923575324211931
 40
0.7925806530541123
 40
0.8941739414490422
 40
1.0
 40
1.0
 40
1.0
 40
1.0
 10
-5.540245734608191
 20
-2.832868736555888
 30
0.0
 10
-5.537539938581225
 20
-2.828821407958894
 30
0.0
 10
-5.532482627976187
 20
-2.821256684812112
 30
0.0
 10
-5.523917871148258
 20
-2.811557461150789
 30
0.0
 10
-5.515364760972486
 20
-2.803948793565159
 30
0.0
 10
-5.506604025337387
 20
-2.79842183968954
 30
0.0
 10
-5.497765595457499
 20
-2.795185595189484
 30
0.0
 10
-5.488939102423416
 20
-2.794519170157972
 30
0.0
 10
-5.480276381472058
 20
-2.795955822455042
 30
0.0
 10
-5.475210752909263
 20
-2.798888569750242
 30
0.0
 10
-5.472626251932003
 20
-2.80038486742713
 30
0.0
  0
SPLINE
  5
B3
330
1F
100
AcDbEntity
  8
0
  6
Continuous
 62
     7
370
    15
100
AcDbSpline
210
0.0
220
0.0
230
1.0
 70
     8
 71
     3
 72
    15
 73
    11
 74
     0
 42
0.00000001
 43
0.00000001
 12
1.0
 22
0.0
 32
0.0
 13
1.0
 23
0.0
 33
0.0
 40
0.0
 40
0.0
 40
0.0
 40
0.0
 40
0.1064943187687977
 40
0.2080946758398397
 40
0.3088390753076313
 40
0.4172674683088947
 40
0.5393695964903106
 40
0.6735033491064699
 40
0.8266408080962576
 40
1.0
 40
1.0
 40
1.0
 40
1.0
 10
-5.745092990950762
 20
-3.224663974414978
 30
0.0
 10
-5.747470238669532
 20
-3.222852761478397
 30
0.0
 10
-5.752115487347089
 20
-3.219313570155587
 30
0.0
 10
-5.757414963822746
 20
-3.212293997926127
 30
0.0
 10
-5.760287697710523
 20
-3.203973397732157
 30
0.0
 10
-5.761178138732133
 20
-3.194652101058693
 30
0.0
 10
-5.759591974811065
 20
-3.184505575763408
 30
0.0
 10
-5.756490711762989
 20
-3.173448977673296
 30
0.0
 10
-5.751002324524406
 20
-3.161725901792614
 30
0.0
 10
-5.746276421065021
 20
-3.153904896281519
 30
0.0
 10
-5.743767118741424
 20
-3.149752194587436
 30
0.0
  0
SPLINE
  5
B4
330
1F
100
AcDbEntity
  8
0
  6
Continuous
 62
     7
370
    15
100
AcDbSpline
210
0.0
220
0.0
230
1.0
 70
     8
 71
     3
 72
    11
 73
     7
 74
     0
 42
0.00000001
 43
0.00000001
 12
1.0
 22
0.0
 32
0.0
 13
1.0
 23
0.0
 33
0.0
 40
0.0
 40
0.0
 40
0.0
 40
0.0
 40
0.2746993289190327
 40
0.5180038920467772
 40
0.7479847610370632
 40
1.0
 40
1.0
 40
1.0
 40
1.0
 10
-5.692721038681948
 20
-3.219139506876073
 30
0.0
 10
-5.696908436770316
 20
-3.222284136877682
 30
0.0
 10
-5.704804664678336
 20
-3.228214004221337
 30
0.0
 10
-5.718648398566393
 20
-3.232588148056384
 30
0.0
 10
-5.732782710138784
 20
-3.231432251218371
 30
0.0
 10
-5.740866382774245
 20
-3.226987792572749
 30
0.0
 10
-5.745092990950761
 20
-3.224663974414977
 30
0.0
  0
SPLINE
  5
B5
330
1F
100
AcDbEntity
  8
0
  6
Continuous
 62
     7
370
    15
100
AcDbSpline
210
0.0
220
0.0
230
1.0
 70
     8
 71
     3
 72
    13
 73
     9
 74
     0
 42
0.00000001
 43
0.00000001
 12
1.0
 22
0.0
 32
0.0
 13
1.0
 23
0.0
 33
0.0
 40
0.0
 40
0.0
 40
0.0
 40
0.0
 40
0.1549551056457424
 40
0.279346831764476
 40
0.3616589924261694
 40
0.5111252137498786
 40
0.7218516445600168
 40
1.0
 40
1.0
 40
1.0
 40
1.0
 10
-5.654712702014288
 20
-3.194610871003338
 30
0.0
 10
-5.657093667032093
 20
-3.194856576492584
 30
0.0
 10
-5.661385974997646
 20
-3.195299524465689
 30
0.0
 10
-5.666641888219958
 20
-3.19742043844708
 30
0.0
 10
-5.671028624348764
 20
-3.200738348825817
 30
0.0
 10
-5.676171147233998
 20
-3.205202093987875
 30
0.0
 10
-5.683851819180131
 20
-3.21134057176898
 30
0.0
 10
-5.689504761774017
 20
-3.21631135104046
 30
0.0
 10
-5.692721038681948
 20
-3.219139506876073
 30
0.0
  0
SPLINE
  5
B6
330
1F
100
AcDbEntity
  8
0
  6
Continuous
 62
     7
370
    15
100
AcDbSpline
210
0.0
220
0.0
230
1.0
 70
     8
 71
     3
 72
    11
 73
     7
 74
     0
 42
0.00000001
 43
0.00000001
 12
1.0
 22
0.0
 32
0.0
 13
1.0
 23
0.0
 33
0.0
 40
0.0
 40
0.0
 40
0.0
 40
0.0
 40
0.3061675447867538
 40
0.5661744791884697
 40
0.7991995338051734
 40
1.0
 40
1.0
 40
1.0
 40
1.0
 10
-5.616704365346625
 20
-3.20720665699204
 30
0.0
 10
-5.620272045721745
 20
-3.205071031038459
 30
0.0
 10
-5.626869510452052
 20
-3.201121765570584
 30
0.0
 10
-5.636785327300104
 20
-3.196606494877455
 30
0.0
 10
-5.646078407776216
 20
-3.194541575935788
 30
0.0
 10
-5.651980745958649
 20
-3.194588945519425
 30
0.0
 10
-5.654712702014288
 20
-3.194610871003338
 30
0.0
  0
SPLINE
  5
B8
330
1F
100
AcDbEntity
  8
0
  6
Continuous
 62
     7
370
    15
100
AcDbSpline
210
0.0
220
0.0
230
1.0
 70
     8
 71
     3
 72
    11
 73
     7
 74
     0
 42
0.00000001
 43
0.00000001
 12
1.0
 22
0.0
 32
0.0
 13
1.0
 23
0.0
 33
0.0
 40
0.0
 40
0.0
 40
0.0
 40
0.0
 40
0.2003031019298523
 40
0.4290711681453053
 40
0.6948813849087001
 40
1.0
 40
1.0
 40
1.0
 40
1.0
 10
-4.958187834709237
 20
-3.642092741654583
 30
0.0
 10
-4.959182956719984
 20
-3.639600610784357
 30
0.0
 10
-4.961314616986274
 20
-3.634262193688682
 30
0.0
 10
-4.967214077932829
 20
-3.626984687553596
 30
0.0
 10
-4.974966128630353
 20
-3.619633593494958
 30
0.0
 10
-4.981313229696391
 20
-3.615404607434462
 30
0.0
 10
-4.984705278895978
 20
-3.613144531750725
 30
0.0
  0
SPLINE
  5
B9
330
1F
100
AcDbEntity
  8
0
  6
Continuous
 62
     7
370
    15
100
AcDbSpline
210
0.0
220
0.0
230
1.0
 70
     8
 71
     3
 72
    13
 73
     9
 74
     0
 42
0.00000001
 43
0.00000001
 12
1.0
 22
0.0
 32
0.0
 13
1.0
 23
0.0
 33
0.0
 40
0.0
 40
0.0
 40
0.0
 40
0.0
 40
0.2768121817170602
 40
0.4899716319107258
 40
0.6417156671882897
 40
0.7251031495329997
 40
0.8444719832660101
 40
1.0
 40
1.0
 40
1.0
 40
1.0
 10
-4.964375238352811
 20
-3.686951418070486
 30
0.0
 10
-4.963309173114742
 20
-3.682816553970829
 30
0.0
 10
-4.961422183455615
 20
-3.675497634340662
 30
0.0
 10
-4.958472810762609
 20
-3.666034267605141
 30
0.0
 10
-4.957198260702002
 20
-3.659228741628252
 30
0.0
 10
-4.955676510163947
 20
-3.653967126810112
 30
0.0
 10
-4.955675110396471
 20
-3.648298057871104
 30
0.0
 10
-4.95727989685819
 20
-3.644334946038914
 30
0.0
 10
-4.958187834709237
 20
-3.642092741654583
 30
0.0
  0
SPLINE
  5
BA
330
1F
100
AcDbEntity
  8
0
  6
Continuous
 62
     7
370
    15
100
AcDbSpline
210
0.0
220
0.0
230
1.0
 70
     8
 71
     3
 72
    11
 73
     7
 74
     0
 42
0.00000001
 43
0.00000001
 12
1.0
 22
0.0
 32
0.0
 13
1.0
 23
0.0
 33
0.0
 40
0.0
 40
0.0
 40
0.0
 40
0.0
 40
0.2502458231511909
 40
0.4838520877556091
 40
0.7213468837576572
 40
1.0
 40
1.0
 40
1.0
 40
1.0
 10
-4.948243793139211
 20
-3.736450647219069
 30
0.0
 10
-4.952026377076383
 20
-3.733595004469706
 30
0.0
 10
-4.959340030155846
 20
-3.728073598802414
 30
0.0
 10
-4.966114871308742
 20
-3.715861635022035
 30
0.0
 10
-4.967854355467749
 20
-3.701558319938838
 30
0.0
 10
-4.965594998759631
 20
-3.692072522068063
 30
0.0
 10
-4.964375238352811
 20
-3.686951418070486
 30
0.0
  0
SPLINE
  5
BB
330
1F
100
AcDbEntity
  8
0
  6
Continuous
 62
     7
370
    15
100
AcDbSpline
210
0.0
220
0.0
230
1.0
 70
     8
 71
     3
 72
    15
 73
    11
 74
     0
 42
0.00000001
 43
0.00000001
 12
1.0
 22
0.0
 32
0.0
 13
1.0
 23
0.0
 33
0.0
 40
0.0
 40
0.0
 40
0.0
 40
0.0
 40
0.1741898928535506
 40
0.325572357871705
 40
0.4638111638030589
 40
0.5846144984310493
 40
0.6939257470150465
 40
0.7944827947885729
 40
0.893821346230403
 40
1.0
 40
1.0
 40
1.0
 40
1.0
 10
-4.881066267866134
 20
-3.703745799388755
 30
0.0
 10
-4.883767039416921
 20
-3.707798929846768
 30
0.0
 10
-4.888814958945761
 20
-3.715374497053106
 30
0.0
 10
-4.897473751250545
 20
-3.725039235754085
 30
0.0
 10
-4.905869948526151
 20
-3.732904846143609
 30
0.0
 10
-4.914664687456518
 20
-3.738346390117725
 30
0.0
 10
-4.923383148428739
 20
-3.741679120971279
 30
0.0
 10
-4.93208525062953
 20
-3.7423235478188
 30
0.0
 10
-4.940655655230963
 20
-3.740837819267524
 30
0.0
 10
-4.945658907121317
 20
-3.737945129768447
 30
0.0
 10
-4.948243793139211
 20
-3.736450647219069
 30
0.0
  0
SPLINE
  5
BF
330
1F
100
AcDbEntity
  8
0
  6
Continuous
 62
     7
370
    15
100
AcDbSpline
210
0.0
220
0.0
230
1.0
 70
     8
 71
     3
 72
    15
 73
    11
 74
     0
 42
0.00000001
 43
0.00000001
 12
1.0
 22
0.0
 32
0.0
 13
1.0
 23
0.0
 33
0.0
 40
0.0
 40
0.0
 40
0.0
 40
0.0
 40
0.1126044199792798
 40
0.2160653117005568
 40
0.321656807353064
 40
0.4300681524012518
 40
0.5509492952549747
 40
0.68423855046036
 40
0.8331097429651539
 40
1.0
 40
1.0
 40
1.0
 40
1.0
 10
-6.393616241615981
 20
-4.236961877446613
 30
0.0
 10
-6.396179880076477
 20
-4.235184375387311
 30
0.0
 10
-6.401098988430805
 20
-4.231773705215018
 30
0.0
 10
-6.406237211313206
 20
-4.224432872988901
 30
0.0
 10
-6.409993246168516
 20
-4.216472208940778
 30
0.0
 10
-6.41117106287077
 20
-4.207225869850035
 30
0.0
 10
-6.410503680683664
 20
-4.197225687430925
 30
0.0
 10
-6.407400114710058
 20
-4.186528553625276
 30
0.0
 10
-6.402493214797113
 20
-4.175170687854866
 30
0.0
 10
-6.397986824591746
 20
-4.167743460100621
 30
0.0
 10
-6.395605049929986
 20
-4.163817927231521
 30
0.0
  0
SPLINE
  5
C0
330
1F
100
AcDbEntity
  8
0
  6
Continuous
 62
     7
370
    15
100
AcDbSpline
210
0.0
220
0.0
230
1.0
 70
     8
 71
     3
 72
    15
 73
    11
 74
     0
 42
0.00000001
 43
0.00000001
 12
1.0
 22
0.0
 32
0.0
 13
1.0
 23
0.0
 33
0.0
 40
0.0
 40
0.0
 40
0.0
 40
0.0
 40
0.1619882288835842
 40
0.3047177547455547
 40
0.436400193104068
 40
0.552988910864288
 40
0.6644226030273581
 40
0.7747803859653096
 40
0.882995095326373
 40
1.0
 40
1.0
 40
1.0
 40
1.0
 10
-6.327543609850686
 20
-4.220609453531456
 30
0.0
 10
-6.330417707923159
 20
-4.223419467232441
 30
0.0
 10
-6.335824203923509
 20
-4.228705413450073
 30
0.0
 10
-6.344666055990418
 20
-4.234989313671048
 30
0.0
 10
-6.353172947511222
 20
-4.23969612125445
 30
0.0
 10
-6.361605418235528
 20
-4.242665558204928
 30
0.0
 10
-6.369929889346079
 20
-4.244200116546882
 30
0.0
 10
-6.378137726545693
 20
-4.243381534872745
 30
0.0
 10
-6.38622337580562
 20
-4.241182383210663
 30
0.0
 10
-6.391088656618066
 20
-4.238404847916589
 30
0.0
 10
-6.393616241615982
 20
-4.236961877446614
 30
0.0
  0
SPLINE
  5
C1
330
1F
100
AcDbEntity
  8
0
  6
Continuous
 62
     7
370
    15
100
AcDbSpline
210
0.0
220
0.0
230
1.0
 70
     8
 71
     3
 72
    11
 73
     7
 74
     0
 42
0.00000001
 43
0.00000001
 12
1.0
 22
0.0
 32
0.0
 13
1.0
 23
0.0
 33
0.0
 40
0.0
 40
0.0
 40
0.0
 40
0.0
 40
0.1994496828223336
 40
0.4268955006057965
 40
0.6957159322770722
 40
1.0
 40
1.0
 40
1.0
 40
1.0
 10
-6.297048549035935
 20
-4.19961647688362
 30
0.0
 10
-6.299454577123985
 20
-4.200317977292038
 30
0.0
 10
-6.304604360019526
 20
-4.201819445551044
 30
0.0
 10
-6.311901262852733
 20
-4.206702287814614
 30
0.0
 10
-6.319874185832304
 20
-4.212742631612682
 30
0.0
 10
-6.324883803665756
 20
-4.217881188469419
 30
0.0
 10
-6.327543609850686
 20
-4.220609453531456
 30
0.0
  0
SPLINE
  5
C2
330
1F
100
AcDbEntity
  8
0
  6
Continuous
 62
     7
370
    15
100
AcDbSpline
210
0.0
220
0.0
230
1.0
 70
     8
 71
     3
 72
    11
 73
     7
 74
     0
 42
0.00000001
 43
0.00000001
 12
1.0
 22
0.0
 32
0.0
 13
1.0
 23
0.0
 33
0.0
 40
0.0
 40
0.0
 40
0.0
 40
0.0
 40
0.3199435674425095
 40
0.5889126863868105
 40
0.8163320286137458
 40
1.0
 40
1.0
 40
1.0
 40
1.0
 10
-6.230754938569083
 20
-4.204478008317856
 30
0.0
 10
-6.237730291450949
 20
-4.202866890343953
 30
0.0
 10
-6.250569661334182
 20
-4.199901342945449
 30
0.0
 10
-6.268681465335927
 20
-4.197733897778092
 30
0.0
 10
-6.283974443176396
 20
-4.196978488708334
 30
0.0
 10
-6.293011099413419
 20
-4.1988018326948
 30
0.0
 10
-6.297048549035934
 20
-4.19961647688362
 30
0.0
  0
SPLINE
  5
CA
330
1F
100
AcDbEntity
  8
0
  6
Continuous
 62
     7
370
    15
100
AcDbSpline
210
0.0
220
0.0
230
1.0
 70
     8
 71
     3
 72
    11
 73
     7
 74
     0
 42
0.00000001
 43
0.00000001
 12
1.0
 22
0.0
 32
0.0
 13
1.0
 23
0.0
 33
0.0
 40
0.0
 40
0.0
 40
0.0
 40
0.0
 40
0.2370910118199325
 40
0.4786893927679529
 40
0.7326005427504635
 40
1.0
 40
1.0
 40
1.0
 40
1.0
 10
-5.79508823797009
 20
-4.937012456216589
 30
0.0
 10
-5.790885121329241
 20
-4.948548087525579
 30
0.0
 10
-5.782398982031527
 20
-4.971838655582578
 30
0.0
 10
-5.776389209360977
 20
-5.00940312544765
 30
0.0
 10
-5.774656208929911
 20
-5.048902182793607
 30
0.0
 10
-5.777498749005216
 20
-5.07572787325008
 30
0.0
 10
-5.77895679275649
 20
-5.089487760290346
 30
0.0
  0
SPLINE
  5
CB
330
1F
100
AcDbEntity
  8
0
  6
Continuous
 62
     7
370
    15
100
AcDbSpline
210
0.0
220
0.0
230
1.0
 70
     8
 71
     3
 72
    15
 73
    11
 74
     0
 42
0.00000001
 43
0.00000001
 12
1.0
 22
0.0
 32
0.0
 13
1.0
 23
0.0
 33
0.0
 40
0.0
 40
0.0
 40
0.0
 40
0.0
 40
0.1413764376819382
 40
0.277173958400533
 40
0.4070229183462382
 40
0.531704301774242
 40
0.65327092056262
 40
0.7713194551688697
 40
0.8861985298057353
 40
0.9999999999999999
 40
0.9999999999999999
 40
0.9999999999999999
 40
0.9999999999999999
 10
-5.938503415280045
 20
-4.777244854991477
 30
0.0
 10
-5.929970547409819
 20
-4.782974222161688
 30
0.0
 10
-5.913241530871572
 20
-4.794206867457715
 30
0.0
 10
-5.889725550766906
 20
-4.812221282114498
 30
0.0
 10
-5.86877804719107
 20
-4.831396535755609
 30
0.0
 10
-5.849578890902282
 20
-4.850873047202362
 30
0.0
 10
-5.832425309877618
 20
-4.871114023939501
 30
0.0
 10
-5.818003420662659
 20
-4.89249597121943
 30
0.0
 10
-5.805030722162798
 20
-4.914160489159363
 30
0.0
 10
-5.798391971506081
 20
-4.929419101430498
 30
0.0
 10
-5.79508823797009
 20
-4.937012456216589
 30
0.0
  0
SPLINE
  5
CD
330
1F
100
AcDbEntity
  8
0
  6
Continuous
 62
     7
370
    15
100
AcDbSpline
210
0.0
220
0.0
230
1.0
 70
     8
 71
     3
 72
    15
 73
    11
 74
     0
 42
0.00000001
 43
0.00000001
 12
1.0
 22
0.0
 32
0.0
 13
1.0
 23
0.0
 33
0.0
 40
0.0
 40
0.0
 40
0.0
 40
0.0
 40
0.1144214527766927
 40
0.228827433786321
 40
0.3462193832544604
 40
0.4693878165698611
 40
0.5959585497826481
 40
0.7260059350839456
 40
0.859717722152977
 40
1.0
 40
1.0
 40
1.0
 40
1.0
 10
-6.429739068839411
 20
-4.375947532965473
 30
0.0
 10
-6.429939342734743
 20
-4.382290437601163
 30
0.0
 10
-6.430339863444899
 20
-4.394975389201706
 30
0.0
 10
-6.42731013967531
 20
-4.414019382445741
 30
0.0
 10
-6.421249761607383
 20
-4.432788594629451
 30
0.0
 10
-6.412107634808259
 20
-4.451008661939121
 30
0.0
 10
-6.400446099896842
 20
-4.468597132903388
 30
0.0
 10
-6.385803962042176
 20
-4.484545083064602
 30
0.0
 10
-6.369531421217653
 20
-4.49999294938161
 30
0.0
 10
-6.35688338543274
 20
-4.508419194335616
 30
0.0
 10
-6.350407714980746
 20
-4.512733349228742
 30
0.0
  0
SPLINE
  5
CE
330
1F
100
AcDbEntity
  8
0
  6
Continuous
 62
     7
370
    15
100
AcDbSpline
210
0.0
220
0.0
230
1.0
 70
     8
 71
     3
 72
    11
 73
     7
 74
     0
 42
0.00000001
 43
0.00000001
 12
1.0
 22
0.0
 32
0.0
 13
1.0
 23
0.0
 33
0.0
 40
0.0
 40
0.0
 40
0.0
 40
0.0
 40
0.1140711608197673
 40
0.3127049936754171
 40
0.6137074534226611
 40
1.0
 40
1.0
 40
1.0
 40
1.0
 10
-6.429076132734743
 20
-4.337055281491586
 30
0.0
 10
-6.428902233874394
 20
-4.338526995198086
 30
0.0
 10
-6.428425522305622
 20
-4.342561426179375
 30
0.0
 10
-6.428665963578501
 20
-4.350544683665444
 30
0.0
 10
-6.429106377597827
 20
-4.362024891955141
 30
0.0
 10
-6.429511417251752
 20
-4.370937962542989
 30
0.0
 10
-6.429739068839411
 20
-4.375947532965473
 30
0.0
  0
SPLINE
  5
CF
330
1F
100
AcDbEntity
  8
0
  6
Continuous
 62
     7
370
    15
100
AcDbSpline
210
0.0
220
0.0
230
1.0
 70
     8
 71
     3
 72
    11
 73
     7
 74
     0
 42
0.00000001
 43
0.00000001
 12
1.0
 22
0.0
 32
0.0
 13
1.0
 23
0.0
 33
0.0
 40
0.0
 40
0.0
 40
0.0
 40
0.0
 40
0.2583841640062818
 40
0.4961418711395247
 40
0.7458948024080692
 40
1.0
 40
1.0
 40
1.0
 40
1.0
 10
-6.446091492754568
 20
-4.31142175211107
 30
0.0
 10
-6.443881963152251
 20
-4.313030966149375
 30
0.0
 10
-6.439639287694767
 20
-4.316120932854956
 30
0.0
 10
-6.434481514720194
 20
-4.322179113915463
 30
0.0
 10
-6.43099780644895
 20
-4.329277161963775
 30
0.0
 10
-6.429720368757536
 20
-4.334447687521625
 30
0.0
 10
-6.429076132734743
 20
-4.337055281491586
 30
0.0
  0
SPLINE
  5
D0
330
1F
100
AcDbEntity
  8
0
  6
Continuous
 62
     7
370
    15
100
AcDbSpline
210
0.0
220
0.0
230
1.0
 70
     8
 71
     3
 72
    11
 73
     7
 74
     0
 42
0.00000001
 43
0.00000001
 12
1.0
 22
0.0
 32
0.0
 13
1.0
 23
0.0
 33
0.0
 40
0.0
 40
0.0
 40
0.0
 40
0.0
 40
0.2762806747276377
 40
0.5282777752640488
 40
0.7570519186992538
 40
1.0
 40
1.0
 40
1.0
 40
1.0
 10
-6.483215914616005
 20
-4.311863709514183
 30
0.0
 10
-6.479962192280483
 20
-4.310297745339748
 30
0.0
 10
-6.47374073217137
 20
-4.307303456756123
 30
0.0
 10
-6.463866863123781
 20
-4.305628522373962
 30
0.0
 10
-6.454344632540534
 20
-4.306992244028584
 30
0.0
 10
-6.448897100401578
 20
-4.309915966183411
 30
0.0
 10
-6.446091492754568
 20
-4.31142175211107
 30
0.0
  0
SPLINE
  5
D1
330
1F
100
AcDbEntity
  8
0
  6
Continuous
 62
     7
370
    15
100
AcDbSpline
210
0.0
220
0.0
230
1.0
 70
     8
 71
     3
 72
    13
 73
     9
 74
     0
 42
0.00000001
 43
0.00000001
 12
1.0
 22
0.0
 32
0.0
 13
1.0
 23
0.0
 33
0.0
 40
0.0
 40
0.0
 40
0.0
 40
0.0
 40
0.223970129316196
 40
0.4097955751489371
 40
0.5526783142328794
 40
0.6538577051588292
 40
0.8264454098480403
 40
1.0
 40
1.0
 40
1.0
 40
1.0
 10
-6.515257826341649
 20
-4.349209110077176
 30
0.0
 10
-6.513176740460029
 20
-4.346128061393373
 30
0.0
 10
-6.509369001506638
 20
-4.340490701977209
 30
0.0
 10
-6.504485806390923
 20
-4.332716386426465
 30
0.0
 10
-6.500202716597645
 20
-4.327002516612979
 30
0.0
 10
-6.496061991660594
 20
-4.321465040670212
 30
0.0
 10
-6.490706801359545
 20
-4.316196940951849
 30
0.0
 10
-6.485717522411225
 20
-4.313310807289664
 30
0.0
 10
-6.483215914616006
 20
-4.311863709514183
 30
0.0
  0
SPLINE
  5
D3
330
1F
100
AcDbEntity
  8
0
  6
Continuous
 62
     7
370
    15
100
AcDbSpline
210
0.0
220
0.0
230
1.0
 70
     8
 71
     3
 72
    15
 73
    11
 74
     0
 42
0.00000001
 43
0.00000001
 12
1.0
 22
0.0
 32
0.0
 13
1.0
 23
0.0
 33
0.0
 40
0.0
 40
0.0
 40
0.0
 40
0.0
 40
0.1146068340811197
 40
0.2139061141779497
 40
0.3081294298203346
 40
0.4066764318087988
 40
0.5201412475938503
 40
0.6530016315407132
 40
0.8128610785164425
 40
1.0
 40
1.0
 40
1.0
 40
1.0
 10
-6.620001730879275
 20
-4.57924793839715
 30
0.0
 10
-6.62255268533191
 20
-4.577463212080909
 30
0.0
 10
-6.627313873953716
 20
-4.574132137854497
 30
0.0
 10
-6.632362973588598
 20
-4.567370361204457
 30
0.0
 10
-6.635483172692299
 20
-4.560015982871783
 30
0.0
 10
-6.636037119532282
 20
-4.551626262384875
 30
0.0
 10
-6.634259869859149
 20
-4.542423487114008
 30
0.0
 10
-6.630492232041566
 20
-4.53210050259185
 30
0.0
 10
-6.624975250588543
 20
-4.520348679301526
 30
0.0
 10
-6.620021553737026
 20
-4.512386735026901
 30
0.0
 10
-6.6173499864606
 20
-4.508092796496062
 30
0.0
  0
SPLINE
  5
D4
330
1F
100
AcDbEntity
  8
0
  6
Continuous
 62
     7
370
    15
100
AcDbSpline
210
0.0
220
0.0
230
1.0
 70
     8
 71
     3
 72
    13
 73
     9
 74
     0
 42
0.00000001
 43
0.00000001
 12
1.0
 22
0.0
 32
0.0
 13
1.0
 23
0.0
 33
0.0
 40
0.0
 40
0.0
 40
0.0
 40
0.0
 40
0.1924827725546946
 40
0.352530062659212
 40
0.4822231222684604
 40
0.584110290879822
 40
0.7676207544434203
 40
1.0
 40
1.0
 40
1.0
 40
1.0
 10
-6.560558460160665
 20
-4.572176619947352
 30
0.0
 10
-6.564139717443497
 20
-4.574220761081269
 30
0.0
 10
-6.570698750428938
 20
-4.57796458289171
 30
0.0
 10
-6.580057072039572
 20
-4.582324061631173
 30
0.0
 10
-6.587751934757603
 20
-4.585705684807965
 30
0.0
 10
-6.596499306725759
 20
-4.587635651002166
 30
0.0
 10
-6.607850946039625
 20
-4.586143407729286
 30
0.0
 10
-6.615646146374436
 20
-4.581719696375995
 30
0.0
 10
-6.620001730879275
 20
-4.57924793839715
 30
0.0
  0
SPLINE
  5
D5
330
1F
100
AcDbEntity
  8
0
  6
Continuous
 62
     7
370
    15
100
AcDbSpline
210
0.0
220
0.0
230
1.0
 70
     8
 71
     3
 72
    15
 73
    11
 74
     0
 42
0.00000001
 43
0.00000001
 12
1.0
 22
0.0
 32
0.0
 13
1.0
 23
0.0
 33
0.0
 40
0.0
 40
0.0
 40
0.0
 40
0.0
 40
0.14277618548441
 40
0.2764837444656068
 40
0.401764230071656
 40
0.5218006182846197
 40
0.6394403456643607
 40
0.7561035094914537
 40
0.8761065681499207
 40
1.0
 40
1.0
 40
1.0
 40
1.0
 10
-6.395708348799761
 20
-4.583446533726717
 30
0.0
 10
-6.40283476400753
 20
-4.57914667205573
 30
0.0
 10
-6.416634950324142
 20
-4.570820060363132
 30
0.0
 10
-6.438195888238972
 20
-4.561580085438894
 30
0.0
 10
-6.459365935760779
 20
-4.555083269332211
 30
0.0
 10
-6.480394929163119
 20
-4.552321492361535
 30
0.0
 10
-6.50110223943975
 20
-4.55212246173351
 30
0.0
 10
-6.521542947198941
 20
-4.555574068487419
 30
0.0
 10
-6.541554402749189
 20
-4.562244283081361
 30
0.0
 10
-6.554156767921018
 20
-4.568830820549894
 30
0.0
 10
-6.560558460160665
 20
-4.572176619947352
 30
0.0
  0
SPLINE
  5
D7
330
1F
100
AcDbEntity
  8
0
  6
Continuous
 62
     7
370
    15
100
AcDbSpline
210
0.0
220
0.0
230
1.0
 70
     8
 71
     3
 72
    15
 73
    11
 74
     0
 42
0.00000001
 43
0.00000001
 12
1.0
 22
0.0
 32
0.0
 13
1.0
 23
0.0
 33
0.0
 40
0.0
 40
0.0
 40
0.0
 40
0.0
 40
0.1125597975735662
 40
0.2261537396629009
 40
0.3407598999479831
 40
0.4604615821821667
 40
0.5855882197582076
 40
0.7164724032727187
 40
0.854020159018108
 40
1.0
 40
1.0
 40
1.0
 40
1.0
 10
-5.872651762216305
 20
-4.988058536276064
 30
0.0
 10
-5.874397896290064
 20
-4.981373613106913
 30
0.0
 10
-5.877906207065725
 20
-4.967942348955301
 30
0.0
 10
-5.886276517353299
 20
-4.948718506284979
 30
0.0
 10
-5.896801976961943
 20
-4.930135836208468
 30
0.0
 10
-5.909674332707104
 20
-4.912194341897133
 30
0.0
 10
-5.92503075193769
 20
-4.89497890425974
 30
0.0
 10
-5.942585699460277
 20
-4.878398453694229
 30
0.0
 10
-5.96232128079457
 20
-4.862341265029427
 30
0.0
 10
-5.976794289275952
 20
-4.85270069872678
 30
0.0
 10
-5.984246006502173
 20
-4.847737060787897
 30
0.0
  0
SPLINE
  5
D8
330
1F
100
AcDbEntity
  8
0
  6
Continuous
 62
     7
370
    15
100
AcDbSpline
210
0.0
220
0.0
230
1.0
 70
     8
 71
     3
 72
    11
 73
     7
 74
     0
 42
0.00000001
 43
0.00000001
 12
1.0
 22
0.0
 32
0.0
 13
1.0
 23
0.0
 33
0.0
 40
0.0
 40
0.0
 40
0.0
 40
0.0
 40
0.2589670615385296
 40
0.5086391108289342
 40
0.751685570637805
 40
1.0
 40
1.0
 40
1.0
 40
1.0
 10
-5.889667122236132
 20
-5.128159033062676
 30
0.0
 10
-5.884754994848755
 20
-5.116732934808733
 30
0.0
 10
-5.875107049307921
 20
-5.094290851164579
 30
0.0
 10
-5.868013398067523
 20
-5.058757107974834
 30
0.0
 10
-5.866551030216874
 20
-5.023058390897511
 30
0.0
 10
-5.870603701740077
 20
-4.999808244168599
 30
0.0
 10
-5.872651762216305
 20
-4.988058536276064
 30
0.0
  0
SPLINE
  5
DA
330
1F
100
AcDbEntity
  8
0
  6
Continuous
 62
     7
370
    15
100
AcDbSpline
210
0.0
220
0.0
230
1.0
 70
     8
 71
     3
 72
    11
 73
     7
 74
     0
 42
0.00000001
 43
0.00000001
 12
1.0
 22
0.0
 32
0.0
 13
1.0
 23
0.0
 33
0.0
 40
0.0
 40
0.0
 40
0.0
 40
0.0
 40
0.228531951747223
 40
0.4677371475095642
 40
0.7274097784083199
 40
1.0
 40
1.0
 40
1.0
 40
1.0
 10
-5.77895679275649
 20
-5.089487760290346
 30
0.0
 10
-5.780182821269821
 20
-5.096726287532373
 30
0.0
 10
-5.782692138129922
 20
-5.111541406637033
 30
0.0
 10
-5.788545869523882
 20
-5.134192684755232
 30
0.0
 10
-5.796763241530986
 20
-5.157591632252483
 30
0.0
 10
-5.803400790622071
 20
-5.173346359330711
 30
0.0
 10
-5.806800109152567
 20
-5.181414900137713
 30
0.0
  0
SPLINE
  5
DB
330
1F
100
AcDbEntity
  8
0
  6
Continuous
 62
     7
370
    15
100
AcDbSpline
210
0.0
220
0.0
230
1.0
 70
     8
 71
     3
 72
    15
 73
    11
 74
     0
 42
0.00000001
 43
0.00000001
 12
1.0
 22
0.0
 32
0.0
 13
1.0
 23
0.0
 33
0.0
 40
0.0
 40
0.0
 40
0.0
 40
0.0
 40
0.1229144324058297
 40
0.2346734038945787
 40
0.3422939406684699
 40
0.4511765734055457
 40
0.5670022370977358
 40
0.6951822837233707
 40
0.8390750559000819
 40
0.9999999999999999
 40
0.9999999999999999
 40
0.9999999999999999
 40
0.9999999999999999
 10
-6.459288598911006
 20
-5.567817149881919
 30
0.0
 10
-6.457560804867899
 20
-5.565291169438267
 30
0.0
 10
-6.454262027813093
 20
-5.560468461337353
 30
0.0
 10
-6.447636929111485
 20
-5.554952810857607
 30
0.0
 10
-6.440124044895345
 20
-5.551596152652778
 30
0.0
 10
-6.431962233560864
 20
-5.550046802266248
 30
0.0
 10
-6.423131406394863
 20
-5.550278848269978
 30
0.0
 10
-6.41377357230407
 20
-5.552721634750202
 30
0.0
 10
-6.403731501525777
 20
-5.556652407821306
 30
0.0
 10
-6.397283205586408
 20
-5.560633086859146
 30
0.0
 10
-6.39387890325038
 20
-5.562734639746126
 30
0.0
  0
SPLINE
  5
DC
330
1F
100
AcDbEntity
  8
0
  6
Continuous
 62
     7
370
    15
100
AcDbSpline
210
0.0
220
0.0
230
1.0
 70
     8
 71
     3
 72
    13
 73
     9
 74
     0
 42
0.00000001
 43
0.00000001
 12
1.0
 22
0.0
 32
0.0
 13
1.0
 23
0.0
 33
0.0
 40
0.0
 40
0.0
 40
0.0
 40
0.0
 40
0.1907480067694936
 40
0.3512991373549113
 40
0.4845739487144519
 40
0.5921235896153682
 40
0.7849864549776818
 40
1.0
 40
1.0
 40
1.0
 40
1.0
 10
-6.446692812922305
 20
-5.624608676181854
 30
0.0
 10
-6.449105551123339
 20
-5.621406709765465
 30
0.0
 10
-6.453549072515994
 20
-5.61550967283718
 30
0.0
 10
-6.458897521183155
 20
-5.606827272515616
 30
0.0
 10
-6.462728494072386
 20
-5.599310275604944
 30
0.0
 10
-6.465987199049876
 20
-5.590751111152817
 30
0.0
 10
-6.465681968946957
 20
-5.579386704257717
 30
0.0
 10
-6.461495507441377
 20
-5.571810810205184
 30
0.0
 10
-6.459288598911006
 20
-5.567817149881919
 30
0.0
  0
SPLINE
  5
DD
330
1F
100
AcDbEntity
  8
0
  6
Continuous
 62
     7
370
    15
100
AcDbSpline
210
0.0
220
0.0
230
1.0
 70
     8
 71
     3
 72
    15
 73
    11
 74
     0
 42
0.00000001
 43
0.00000001
 12
1.0
 22
0.0
 32
0.0
 13
1.0
 23
0.0
 33
0.0
 40
0.0
 40
0.0
 40
0.0
 40
0.0
 40
0.1124492473795136
 40
0.2212322872030502
 40
0.3265453264580048
 40
0.4310494265303447
 40
0.5439370260572256
 40
0.6760464607464041
 40
0.8275102540308725
 40
1.0
 40
1.0
 40
1.0
 40
1.0
 10
-6.373327884005657
 20
-5.79343640417077
 30
0.0
 10
-6.373813249237879
 20
-5.786429705429713
 30
0.0
 10
-6.374768155232857
 20
-5.772644748888432
 30
0.0
 10
-6.377958620354856
 20
-5.752452689215456
 30
0.0
 10
-6.383480111327934
 20
-5.733306689634847
 30
0.0
 10
-6.390414313079108
 20
-5.714354320276415
 30
0.0
 10
-6.400220498193389
 20
-5.694818081588996
 30
0.0
 10
-6.412595411262481
 20
-5.673360139511265
 30
0.0
 10
-6.428526438937906
 20
-5.649729966563262
 30
0.0
 10
-6.440380887014508
 20
-5.633337095168047
 30
0.0
 10
-6.446692812922306
 20
-5.624608676181855
 30
0.0
  0
SPLINE
  5
DE
330
1F
100
AcDbEntity
  8
0
  6
Continuous
 62
     7
370
    15
100
AcDbSpline
210
0.0
220
0.0
230
1.0
 70
     8
 71
     3
 72
    11
 73
     7
 74
     0
 42
0.00000001
 43
0.00000001
 12
1.0
 22
0.0
 32
0.0
 13
1.0
 23
0.0
 33
0.0
 40
0.0
 40
0.0
 40
0.0
 40
0.0
 40
0.3092348225190086
 40
0.5790527654054034
 40
0.807984150845007
 40
0.9999999999999999
 40
0.9999999999999999
 40
0.9999999999999999
 40
0.9999999999999999
 10
-6.402939030014183
 20
-5.9324320074496
 30
0.0
 10
-6.398166239419175
 20
-5.918497138046444
 30
0.0
 10
-6.389229026041242
 20
-5.892403619219134
 30
0.0
 10
-6.379780593482514
 20
-5.855106640055288
 30
0.0
 10
-6.373755735558299
 20
-5.822659107066459
 30
0.0
 10
-6.373461912108442
 20
-5.802590662004365
 30
0.0
 10
-6.373327884005656
 20
-5.793436404170769
 30
0.0
  0
CIRCLE
  5
E8
330
1F
100
AcDbEntity
  8
0
  6
Continuous
 62
     7
370
    15
100
AcDbCircle
 10
1.6486699089
 20
-0.1220414131
 30
0.0
 40
0.3749999999999996
  0
CIRCLE
  5
E9
330
1F
100
AcDbEntity
  8
0
  6
Continuous
 62
     7
370
    15
100
AcDbCircle
 10
-2.5411936588
 20
-0.6040097147
 30
0.0
 40
0.2499999999999996
  0
CIRCLE
  5
EA
330
1F
100
AcDbEntity
  8
0
  6
Continuous
 62
     7
370
    15
100
AcDbCircle
 10
-0.4474658444
 20
-0.2629762279
 30
0.0
 40
0.2499999999999998
  0
CIRCLE
  5
EB
330
1F
100
AcDbEntity
  8
0
  6
Continuous
 62
     7
370
    15
100
AcDbCircle
 10
-0.1064323576
 20
-2.3567040424
 30
0.0
 40
0.2499999999999996
  0
CIRCLE
  5
EC
330
1F
100
AcDbEntity
  8
0
  6
Continuous
 62
     7
370
    15
100
AcDbCircle
 10
-2.2001601721
 20
-2.6977375291
 30
0.0
 40
0.2499999999999996
  0
CIRCLE
  5
ED
330
1F
100
AcDbEntity
  8
0
  6
Continuous
 62
     7
370
    15
100
AcDbCircle
 10
-3.6616709198
 20
-0.5946817771
 30
0.0
 40
0.2499999999999987
  0
CIRCLE
  5
EE
330
1F
100
AcDbEntity
  8
0
  6
Continuous
 62
     7
370
    15
100
AcDbCircle
 10
-1.7257248267
 20
0.9871250141
 30
0.0
 40
0.2499999999999993
  0
CIRCLE
  5
EF
330
1F
100
AcDbEntity
  8
0
  6
Continuous
 62
     7
370
    15
100
AcDbCircle
 10
0.6121330849
 20
0.1014499126
 30
0.0
 40
0.2500000000000002
  0
CIRCLE
  5
F0
330
1F
100
AcDbEntity
  8
0
  6
Continuous
 62
     7
370
    15
100
AcDbCircle
 10
1.0140449034
 20
-2.3660319799
 30
0.0
 40
0.2499999999999997
  0
CIRCLE
  5
F1
330
1F
100
AcDbEntity
  8
0
  6
Continuous
 62
     7
370
    15
100
AcDbCircle
 10
-0.9219011897
 20
-3.9478387711
 30
0.0
 40
0.2500000000000003
  0
CIRCLE
  5
F2
330
1F
100
AcDbEntity
  8
0
  6
Continuous
 62
     7
370
    15
100
AcDbCircle
 10
-3.2597591013
 20
-3.0621636697
 30
0.0
 40
0.2500000000000013
  0
CIRCLE
  5
F3
330
1F
100
AcDbEntity
  8
0
  6
Continuous
 62
     7
370
    15
100
AcDbCircle
 10
-3.7912949008
 20
-1.882268697
 30
0.0
 40
0.2499999999999996
  0
CIRCLE
  5
FA
330
1F
100
AcDbEntity
  8
0
  6
Continuous
 62
     7
370
    15
100
AcDbCircle
 10
-2.8043021438
 20
-1.7215039696
 30
0.0
 40
0.25
  0
CIRCLE
  5
FB
330
1F
100
AcDbEntity
  8
0
  6
Continuous
 62
     7
370
    15
100
AcDbCircle
 10
-2.2094881096
 20
-3.8182147901
 30
0.0
 40
0.2499999999999996
  0
CIRCLE
  5
FC
330
1F
100
AcDbEntity
  8
0
  6
Continuous
 62
     7
370
    15
100
AcDbCircle
 10
0.2579937829
 20
-3.4163029716
 30
0.0
 40
0.2500000000000004
  0
CIRCLE
  5
FD
330
1F
100
AcDbEntity
  8
0
  6
Continuous
 62
     7
370
    15
100
AcDbCircle
 10
1.1436688844
 20
-1.0784450601
 30
0.0
 40
0.2500000000000003
  0
CIRCLE
  5
FE
330
1F
100
AcDbEntity
  8
0
  6
Continuous
 62
     7
370
    15
100
AcDbCircle
 10
-0.4381379068
 20
0.8575010331
 30
0.0
 40
0.25
  0
CIRCLE
  5
FF
330
1F
100
AcDbEntity
  8
0
  6
Continuous
 62
     7
370
    15
100
AcDbCircle
 10
-2.9056197994
 20
0.4555892146
 30
0.0
 40
0.2499999999999991
  0
CIRCLE
  5
100
330
1F
100
AcDbEntity
  8
0
  6
Continuous
 62
     7
370
    15
100
AcDbCircle
 10
-1.3238130082
 20
-1.4803568785
 30
0.0
 40
0.5000000000000002
  0
CIRCLE
  5
101
330
1F
100
AcDbEntity
  8
0
  6
Continuous
 62
     7
370
    15
100
AcDbCircle
 10
-1.0826659171
 20
-2.9608460141
 30
0.0
 40
0.2499999999999993
  0
CIRCLE
  5
102
330
1F
100
AcDbEntity
  8
0
  6
Continuous
 62
     7
370
    15
100
AcDbCircle
 10
0.1566761273
 20
-1.2392097874
 30
0.0
 40
0.2499999999999996
  0
CIRCLE
  5
103
330
1F
100
AcDbEntity
  8
0
  6
Continuous
 62
     7
370
    15
100
AcDbCircle
 10
-1.5649600993
 20
0.000132257
 30
0.0
 40
0.2499999999999996
  0
CIRCLE
  5
108
330
1F
100
AcDbEntity
  8
0
  6
Continuous
 62
     7
370
    15
100
AcDbCircle
 10
3.0637747201
 20
2.2374725714
 30
0.0
 40
0.3750000000000004
  0
SPLINE
  5
109
330
1F
100
AcDbEntity
  8
0
  6
Continuous
 62
     7
370
    15
100
AcDbSpline
210
0.0
220
0.0
230
1.0
 70
     8
 71
     3
 72
    11
 73
     7
 74
     0
 42
0.00000001
 43
0.00000001
 12
1.0
 22
0.0
 32
0.0
 13
1.0
 23
0.0
 33
0.0
 40
0.0
 40
0.0
 40
0.0
 40
0.0
 40
0.287285358726786
 40
0.515876959806952
 40
0.7391458536116806
 40
1.0
 40
1.0
 40
1.0
 40
1.0
 10
-7.147416275556921
 20
-5.892655841169489
 30
0.0
 10
-7.150704881487129
 20
-5.897235779917803
 30
0.0
 10
-7.156610215600907
 20
-5.905459954265049
 30
0.0
 10
-7.169516503070662
 20
-5.912978938940764
 30
0.0
 10
-7.184097773481902
 20
-5.91312856260252
 30
0.0
 10
-7.192427369501914
 20
-5.908440548855022
 30
0.0
 10
-7.196915504705503
 20
-5.90591456326286
 30
0.0
  0
SPLINE
  5
10A
330
1F
100
AcDbEntity
  8
0
  6
Continuous
 62
     7
370
    15
100
AcDbSpline
210
0.0
220
0.0
230
1.0
 70
     8
 71
     3
 72
    13
 73
     9
 74
     0
 42
0.00000001
 43
0.00000001
 12
1.0
 22
0.0
 32
0.0
 13
1.0
 23
0.0
 33
0.0
 40
0.0
 40
0.0
 40
0.0
 40
0.0
 40
0.175221410070443
 40
0.3240706265714896
 40
0.455000636871628
 40
0.5620983145882158
 40
0.7632652615786298
 40
1.0
 40
1.0
 40
1.0
 40
1.0
 10
-7.159128146739398
 20
-5.836969208377334
 30
0.0
 10
-7.156746808084935
 20
-5.839745629445932
 30
0.0
 10
-7.152342540880829
 20
-5.844880598482908
 30
0.0
 10
-7.14650801310341
 20
-5.852416410872372
 30
0.0
 10
-7.142788545783766
 20
-5.859637268598608
 30
0.0
 10
-7.139885164437873
 20
-5.868382753628214
 30
0.0
 10
-7.140381946925478
 20
-5.880271524839687
 30
0.0
 10
-7.144947879410931
 20
-5.888310096138106
 30
0.0
 10
-7.147416275556921
 20
-5.892655841169489
 30
0.0
  0
SPLINE
  5
10B
330
1F
100
AcDbEntity
  8
0
  6
Continuous
 62
     7
370
    15
100
AcDbSpline
210
0.0
220
0.0
230
1.0
 70
     8
 71
     3
 72
    15
 73
    11
 74
     0
 42
0.00000001
 43
0.00000001
 12
1.0
 22
0.0
 32
0.0
 13
1.0
 23
0.0
 33
0.0
 40
0.0
 40
0.0
 40
0.0
 40
0.0
 40
0.1232017833650015
 40
0.2450352765878637
 40
0.3665092898241584
 40
0.4881856412343842
 40
0.611977616161043
 40
0.7377193059572168
 40
0.8665531142731913
 40
1.0
 40
1.0
 40
1.0
 40
1.0
 10
-7.220339247070457
 20
-5.688692499633143
 30
0.0
 10
-7.219949578806652
 20
-5.6954079963044
 30
0.0
 10
-7.219174569970003
 20
-5.708764406733875
 30
0.0
 10
-7.215779755090209
 20
-5.728520685048591
 30
0.0
 10
-7.210611984787596
 20
-5.747767594187589
 30
0.0
 10
-7.204088400128494
 20
-5.766736177403091
 30
0.0
 10
-7.195272240440112
 20
-5.785003342020425
 30
0.0
 10
-7.185233342137912
 20
-5.803073386921688
 30
0.0
 10
-7.17285952042024
 20
-5.820303749488711
 30
0.0
 10
-7.163758627777709
 20
-5.83134929785912
 30
0.0
 10
-7.159128146739398
 20
-5.836969208377334
 30
0.0
  0
SPLINE
  5
10C
330
1F
100
AcDbEntity
  8
0
  6
Continuous
 62
     7
370
    15
100
AcDbSpline
210
0.0
220
0.0
230
1.0
 70
     8
 71
     3
 72
    11
 73
     7
 74
     0
 42
0.00000001
 43
0.00000001
 12
1.0
 22
0.0
 32
0.0
 13
1.0
 23
0.0
 33
0.0
 40
0.0
 40
0.0
 40
0.0
 40
0.0
 40
0.2513049665358415
 40
0.4985214014365025
 40
0.747842737041845
 40
1.0
 40
1.0
 40
1.0
 40
1.0
 10
-7.194926696391498
 20
-5.566270298971026
 30
0.0
 10
-7.199134873908785
 20
-5.575981306986216
 30
0.0
 10
-7.207482765247066
 20
-5.595245332651235
 30
0.0
 10
-7.215922434670919
 20
-5.625661697865308
 30
0.0
 10
-7.220466919288193
 20
-5.656949005342643
 30
0.0
 10
-7.220381964619639
 20
-5.678071518008332
 30
0.0
 10
-7.220339247070457
 20
-5.688692499633143
 30
0.0
  0
SPLINE
  5
110
330
1F
100
AcDbEntity
  8
0
  6
Continuous
 62
     7
370
    15
100
AcDbSpline
210
0.0
220
0.0
230
1.0
 70
     8
 71
     3
 72
    15
 73
    11
 74
     0
 42
0.00000001
 43
0.00000001
 12
1.0
 22
0.0
 32
0.0
 13
1.0
 23
0.0
 33
0.0
 40
0.0
 40
0.0
 40
0.0
 40
0.0
 40
0.1438426522805684
 40
0.2820701243288263
 40
0.416049893862293
 40
0.5467320710068568
 40
0.6713203542109397
 40
0.7867713143027899
 40
0.8957006082306087
 40
1.0
 40
1.0
 40
1.0
 40
1.0
 10
-5.954634860493646
 20
-5.379411816732041
 30
0.0
 10
-5.964365245362375
 20
-5.387910464126805
 30
0.0
 10
-5.98344617042997
 20
-5.404575997536132
 30
0.0
 10
-6.013972436891921
 20
-5.426177733488632
 30
0.0
 10
-6.044887637671088
 20
-5.445030089675532
 30
0.0
 10
-6.076572283716541
 20
-5.459893413378452
 30
0.0
 10
-6.107910821956033
 20
-5.471283978380971
 30
0.0
 10
-6.138461521907647
 20
-5.478402771700587
 30
0.0
 10
-6.167897823597725
 20
-5.481967730410584
 30
0.0
 10
-6.187028108513559
 20
-5.480617555169015
 30
0.0
 10
-6.196385559996096
 20
-5.4799571259401
 30
0.0
  0
SPLINE
  5
111
330
1F
100
AcDbEntity
  8
0
  6
Continuous
 62
     7
370
    15
100
AcDbSpline
210
0.0
220
0.0
230
1.0
 70
     8
 71
     3
 72
    11
 73
     7
 74
     0
 42
0.00000001
 43
0.00000001
 12
1.0
 22
0.0
 32
0.0
 13
1.0
 23
0.0
 33
0.0
 40
0.0
 40
0.0
 40
0.0
 40
0.0
 40
0.2853674780769401
 40
0.5472899394247132
 40
0.7853496637154759
 40
1.0
 40
1.0
 40
1.0
 40
1.0
 10
-5.851879764270026
 20
-5.251465148531019
 30
0.0
 10
-5.860520569991093
 20
-5.264515501721299
 30
0.0
 10
-5.877092276310018
 20
-5.28954402653818
 30
0.0
 10
-5.902846566693333
 20
-5.324093442324513
 30
0.0
 10
-5.92837359431747
 20
-5.353900909537529
 30
0.0
 10
-5.946188165660542
 20
-5.37120646796698
 30
0.0
 10
-5.954634860493647
 20
-5.379411816732043
 30
0.0
  0
SPLINE
  5
114
330
1F
100
AcDbEntity
  8
0
  6
Continuous
 62
     7
370
    15
100
AcDbSpline
210
0.0
220
0.0
230
1.0
 70
     8
 71
     3
 72
    13
 73
     9
 74
     0
 42
0.00000001
 43
0.00000001
 12
1.0
 22
0.0
 32
0.0
 13
1.0
 23
0.0
 33
0.0
 40
0.0
 40
0.0
 40
0.0
 40
0.0
 40
0.2263884784272767
 40
0.4128451467553149
 40
0.514116526515456
 40
0.6455533360419693
 40
0.807185037407247
 40
1.0
 40
1.0
 40
1.0
 40
1.0
 10
-5.999935494312662
 20
-5.216771492386702
 30
0.0
 10
-5.993604635590692
 20
-5.217051304628124
 30
0.0
 10
-5.982059594445863
 20
-5.217561574084755
 30
0.0
 10
-5.967634534674884
 20
-5.214720626573998
 30
0.0
 10
-5.957397879579847
 20
-5.208886507579523
 30
0.0
 10
-5.948089188979561
 20
-5.202967114140515
 30
0.0
 10
-5.937340380559379
 20
-5.194613771779744
 30
0.0
 10
-5.929649450536585
 20
-5.188355168511764
 30
0.0
 10
-5.92546567188823
 20
-5.184950559362613
 30
0.0
  0
SPLINE
  5
115
330
1F
100
AcDbEntity
  8
0
  6
Continuous
 62
     7
370
    15
100
AcDbSpline
210
0.0
220
0.0
230
1.0
 70
     8
 71
     3
 72
    13
 73
     9
 74
     0
 42
0.00000001
 43
0.00000001
 12
1.0
 22
0.0
 32
0.0
 13
1.0
 23
0.0
 33
0.0
 40
0.0
 40
0.0
 40
0.0
 40
0.0
 40
0.215554758065367
 40
0.395640565277918
 40
0.5412111449995484
 40
0.6509894354964855
 40
0.8294466071751906
 40
1.0
 40
1.0
 40
1.0
 40
1.0
 10
-6.12169475887011
 20
-5.15909605128054
 30
0.0
 10
-6.113472683013076
 20
-5.164370299157818
 30
0.0
 10
-6.098381451582925
 20
-5.17405093172799
 30
0.0
 10
-6.077353323670475
 20
-5.186679322582385
 30
0.0
 10
-6.060172202465811
 20
-5.196387630085161
 30
0.0
 10
-6.042824801894064
 20
-5.205634876108904
 30
0.0
 10
-6.023226519529192
 20
-5.213042823318883
 30
0.0
 10
-6.007581065790471
 20
-5.215547509946681
 30
0.0
 10
-5.99993549431266
 20
-5.2167714923867
 30
0.0
  0
SPLINE
  5
117
330
1F
100
AcDbEntity
  8
0
  6
Continuous
 62
     7
370
    15
100
AcDbSpline
210
0.0
220
0.0
230
1.0
 70
     8
 71
     3
 72
    11
 73
     7
 74
     0
 42
0.00000001
 43
0.00000001
 12
1.0
 22
0.0
 32
0.0
 13
1.0
 23
0.0
 33
0.0
 40
0.0
 40
0.0
 40
0.0
 40
0.0
 40
0.2038823388473264
 40
0.4318297233844627
 40
0.6928317838882896
 40
1.0
 40
1.0
 40
1.0
 40
1.0
 10
-6.67966598029944
 20
-4.788735747472399
 30
0.0
 10
-6.678606942839429
 20
-4.791310449309304
 30
0.0
 10
-6.676363865503767
 20
-4.796763755310765
 30
0.0
 10
-6.67018441290394
 20
-4.803995647660332
 30
0.0
 10
-6.662376861392421
 20
-4.811486850291629
 30
0.0
 10
-6.655956578537801
 20
-4.815796176498358
 30
0.0
 10
-6.652485600008031
 20
-4.81812591477937
 30
0.0
  0
SPLINE
  5
118
330
1F
100
AcDbEntity
  8
0
  6
Continuous
 62
     7
370
    15
100
AcDbSpline
210
0.0
220
0.0
230
1.0
 70
     8
 71
     3
 72
    13
 73
     9
 74
     0
 42
0.00000001
 43
0.00000001
 12
1.0
 22
0.0
 32
0.0
 13
1.0
 23
0.0
 33
0.0
 40
0.0
 40
0.0
 40
0.0
 40
0.0
 40
0.2781249465033145
 40
0.4900806639707452
 40
0.6429688597770531
 40
0.7263680709048477
 40
0.8458491646679038
 40
1.0
 40
1.0
 40
1.0
 40
1.0
 10
-6.673257597954311
 20
-4.743877071056496
 30
0.0
 10
-6.674468408533538
 20
-4.747992617614818
 30
0.0
 10
-6.676601963470159
 20
-4.755244573310493
 30
0.0
 10
-6.679006901848034
 20
-4.76487363143322
 30
0.0
 10
-6.680669614395803
 20
-4.771570982215802
 30
0.0
 10
-6.682221178084954
 20
-4.776868879327005
 30
0.0
 10
-6.681819855731476
 20
-4.782491454002582
 30
0.0
 10
-6.680442125868312
 20
-4.786485626302324
 30
0.0
 10
-6.67966598029944
 20
-4.788735747472399
 30
0.0
  0
SPLINE
  5
119
330
1F
100
AcDbEntity
  8
0
  6
Continuous
 62
     7
370
    15
100
AcDbSpline
210
0.0
220
0.0
230
1.0
 70
     8
 71
     3
 72
    11
 73
     7
 74
     0
 42
0.00000001
 43
0.00000001
 12
1.0
 22
0.0
 32
0.0
 13
1.0
 23
0.0
 33
0.0
 40
0.0
 40
0.0
 40
0.0
 40
0.0
 40
0.2517484326713249
 40
0.481392716561498
 40
0.7203135581093242
 40
1.0
 40
1.0
 40
1.0
 40
1.0
 10
-6.689389043167911
 20
-4.69459882060947
 30
0.0
 10
-6.685594479855454
 20
-4.697446250544966
 30
0.0
 10
-6.678338525481621
 20
-4.702891098869634
 30
0.0
 10
-6.671730952690783
 20
-4.715080543593958
 30
0.0
 10
-6.670043504478003
 20
-4.729247116162385
 30
0.0
 10
-6.672131523253021
 20
-4.738751388742424
 30
0.0
 10
-6.673257597954311
 20
-4.743877071056496
 30
0.0
  0
SPLINE
  5
11A
330
1F
100
AcDbEntity
  8
0
  6
Continuous
 62
     7
370
    15
100
AcDbSpline
210
0.0
220
0.0
230
1.0
 70
     8
 71
     3
 72
    11
 73
     7
 74
     0
 42
0.00000001
 43
0.00000001
 12
1.0
 22
0.0
 32
0.0
 13
1.0
 23
0.0
 33
0.0
 40
0.0
 40
0.0
 40
0.0
 40
0.0
 40
0.2777164570419867
 40
0.5319010833203827
 40
0.7684294570114124
 40
1.0
 40
1.0
 40
1.0
 40
1.0
 10
-6.740435123227386
 20
-4.705647755687278
 30
0.0
 10
-6.736472661111404
 20
-4.702214343943471
 30
0.0
 10
-6.72888348935487
 20
-4.695638444749494
 30
0.0
 10
-6.715336459663057
 20
-4.690368112480392
 30
0.0
 10
-6.701376372048697
 20
-4.688679218014022
 30
0.0
 10
-6.693356505545394
 20
-4.692639601769256
 30
0.0
 10
-6.689389043167911
 20
-4.69459882060947
 30
0.0
  0
SPLINE
  5
11F
330
1F
100
AcDbEntity
  8
0
  6
Continuous
 62
     7
370
    15
100
AcDbSpline
210
0.0
220
0.0
230
1.0
 70
     8
 71
     3
 72
    15
 73
    11
 74
     0
 42
0.00000001
 43
0.00000001
 12
1.0
 22
0.0
 32
0.0
 13
1.0
 23
0.0
 33
0.0
 40
0.0
 40
0.0
 40
0.0
 40
0.0
 40
0.1120701784222276
 40
0.2171945557393368
 40
0.3177521205280338
 40
0.4279332504760824
 40
0.5487131430575279
 40
0.6820922216267994
 40
0.8302571081295772
 40
1.0
 40
1.0
 40
1.0
 40
1.0
 10
-6.961855782186669
 20
-5.118877927597317
 30
0.0
 10
-6.964421591839536
 20
-5.117104437880347
 30
0.0
 10
-6.969394189327209
 20
-5.113667374456263
 30
0.0
 10
-6.974442873176234
 20
-5.106303813264605
 30
0.0
 10
-6.977786999799299
 20
-5.09817969569237
 30
0.0
 10
-6.97880391856839
 20
-5.088959865032861
 30
0.0
 10
-6.977549378639546
 20
-5.078911494540108
 30
0.0
 10
-6.974282183986904
 20
-5.068262507209783
 30
0.0
 10
-6.969391312720315
 20
-5.056759584561504
 30
0.0
 10
-6.964766891567506
 20
-5.049283683876452
 30
0.0
 10
-6.962297739589782
 20
-5.045292019979112
 30
0.0
  0
SPLINE
  5
120
330
1F
100
AcDbEntity
  8
0
  6
Continuous
 62
     7
370
    15
100
AcDbSpline
210
0.0
220
0.0
230
1.0
 70
     8
 71
     3
 72
    11
 73
     7
 74
     0
 42
0.00000001
 43
0.00000001
 12
1.0
 22
0.0
 32
0.0
 13
1.0
 23
0.0
 33
0.0
 40
0.0
 40
0.0
 40
0.0
 40
0.0
 40
0.2812767268111649
 40
0.5197743406158024
 40
0.7491870913460562
 40
1.0
 40
1.0
 40
1.0
 40
1.0
 10
-6.910367744724082
 20
-5.1129115026553
 30
0.0
 10
-6.914537753832324
 20
-5.116171622638337
 30
0.0
 10
-6.922243559282958
 20
-5.1221960340204
 30
0.0
 10
-6.935947869385501
 20
-5.126246837959539
 30
0.0
 10
-6.949734644096503
 20
-5.125470070948295
 30
0.0
 10
-6.957697126223072
 20
-5.121139634052231
 30
0.0
 10
-6.961855782186669
 20
-5.118877927597317
 30
0.0
  0
SPLINE
  5
121
330
1F
100
AcDbEntity
  8
0
  6
Continuous
 62
     7
370
    15
100
AcDbSpline
210
0.0
220
0.0
230
1.0
 70
     8
 71
     3
 72
    13
 73
     9
 74
     0
 42
0.00000001
 43
0.00000001
 12
1.0
 22
0.0
 32
0.0
 13
1.0
 23
0.0
 33
0.0
 40
0.0
 40
0.0
 40
0.0
 40
0.0
 40
0.1543829586730638
 40
0.2783153882153163
 40
0.3603236243735681
 40
0.5129303057977825
 40
0.7228786629268203
 40
1.0
 40
1.0
 40
1.0
 40
1.0
 10
-6.872138429354865
 20
-5.088382866782566
 30
0.0
 10
-6.874518729409842
 20
-5.088629384770504
 30
0.0
 10
-6.878809838607151
 20
-5.089073797483567
 30
0.0
 10
-6.884072593463712
 20
-5.091186351871571
 30
0.0
 10
-6.888484024235841
 20
-5.094564384310097
 30
0.0
 10
-6.893822415874836
 20
-5.098878261020499
 30
0.0
 10
-6.90147944811797
 20
-5.105135927845271
 30
0.0
 10
-6.907144549817336
 20
-5.110091818048075
 30
0.0
 10
-6.910367744724082
 20
-5.1129115026553
 30
0.0
  0
SPLINE
  5
122
330
1F
100
AcDbEntity
  8
0
  6
Continuous
 62
     7
370
    15
100
AcDbSpline
210
0.0
220
0.0
230
1.0
 70
     8
 71
     3
 72
    11
 73
     7
 74
     0
 42
0.00000001
 43
0.00000001
 12
1.0
 22
0.0
 32
0.0
 13
1.0
 23
0.0
 33
0.0
 40
0.0
 40
0.0
 40
0.0
 40
0.0
 40
0.3061675447867323
 40
0.5661744791884553
 40
0.7991995338051682
 40
1.0
 40
1.0
 40
1.0
 40
1.0
 10
-6.834130092687204
 20
-5.100978652771267
 30
0.0
 10
-6.837697773062325
 20
-5.098843026817687
 30
0.0
 10
-6.844295237792628
 20
-5.09489376134981
 30
0.0
 10
-6.854211054640681
 20
-5.090378490656682
 30
0.0
 10
-6.863504135116794
 20
-5.088313571715015
 30
0.0
 10
-6.869406473299224
 20
-5.088360941298651
 30
0.0
 10
-6.872138429354865
 20
-5.088382866782566
 30
0.0
  0
SPLINE
  5
124
330
1F
100
AcDbEntity
  8
0
  6
Continuous
 62
     7
370
    15
100
AcDbSpline
210
0.0
220
0.0
230
1.0
 70
     8
 71
     3
 72
    15
 73
    11
 74
     0
 42
0.00000001
 43
0.00000001
 12
1.0
 22
0.0
 32
0.0
 13
1.0
 23
0.0
 33
0.0
 40
0.0
 40
0.0
 40
0.0
 40
0.0
 40
0.097426699579736
 40
0.2010231190457495
 40
0.3123988963279976
 40
0.4329518045030671
 40
0.5601891653722738
 40
0.6974695174055365
 40
0.8437788618182742
 40
1.0
 40
1.0
 40
1.0
 40
1.0
 10
-6.196385559996096
 20
-5.4799571259401
 30
0.0
 10
-6.201414172065025
 20
-5.479245796089981
 30
0.0
 10
-6.211789842050029
 20
-5.477778090155593
 30
0.0
 10
-6.227521866263375
 20
-5.473533720352049
 30
0.0
 10
-6.244226903670471
 20
-5.468365778185803
 30
0.0
 10
-6.261471060101179
 20
-5.461075126998843
 30
0.0
 10
-6.279842013258585
 20
-5.453016524667662
 30
0.0
 10
-6.29870130489213
 20
-5.442881900111759
 30
0.0
 10
-6.31869203083167
 20
-5.431695068939589
 30
0.0
 10
-6.332029566235657
 20
-5.423301360099526
 30
0.0
 10
-6.338916822499825
 20
-5.418967004310597
 30
0.0
  0
SPLINE
  5
125
330
1F
100
AcDbEntity
  8
0
  6
Continuous
 62
     7
370
    15
100
AcDbSpline
210
0.0
220
0.0
230
1.0
 70
     8
 71
     3
 72
    11
 73
     7
 74
     0
 42
0.00000001
 43
0.00000001
 12
1.0
 22
0.0
 32
0.0
 13
1.0
 23
0.0
 33
0.0
 40
0.0
 40
0.0
 40
0.0
 40
0.0
 40
0.2010391245335202
 40
0.4332141313637297
 40
0.6957136771296796
 40
1.0
 40
1.0
 40
1.0
 40
1.0
 10
-5.29159545695536
 20
-4.157851502289504
 30
0.0
 10
-5.29290579841976
 20
-4.155147945564807
 30
0.0
 10
-5.295729420143179
 20
-4.149322119468515
 30
0.0
 10
-5.30225928522322
 20
-4.141125336262856
 30
0.0
 10
-5.311428198307232
 20
-4.133453004023378
 30
0.0
 10
-5.318365914902216
 20
-4.128623403018194
 30
0.0
 10
-5.322090517770111
 20
-4.126030569265416
 30
0.0
  0
SPLINE
  5
126
330
1F
100
AcDbEntity
  8
0
  6
Continuous
 62
     7
370
    15
100
AcDbSpline
210
0.0
220
0.0
230
1.0
 70
     8
 71
     3
 72
    13
 73
     9
 74
     0
 42
0.00000001
 43
0.00000001
 12
1.0
 22
0.0
 32
0.0
 13
1.0
 23
0.0
 33
0.0
 40
0.0
 40
0.0
 40
0.0
 40
0.0
 40
0.2732350595304153
 40
0.4819029852672218
 40
0.6325319016164068
 40
0.7172584968397082
 40
0.8433956958117681
 40
1.0
 40
1.0
 40
1.0
 40
1.0
 10
-5.298666775405156
 20
-4.201826263899182
 30
0.0
 10
-5.297529632563333
 20
-4.197836446095368
 30
0.0
 10
-5.295524060763389
 20
-4.190799629101114
 30
0.0
 10
-5.292384383244922
 20
-4.181712755614425
 30
0.0
 10
-5.290774308711027
 20
-4.175166575672685
 30
0.0
 10
-5.289295595784377
 20
-4.169870658314204
 30
0.0
 10
-5.289321513852684
 20
-4.164162938234089
 30
0.0
 10
-5.290784912570043
 20
-4.160101206322178
 30
0.0
 10
-5.291595456955359
 20
-4.157851502289504
 30
0.0
  0
SPLINE
  5
127
330
1F
100
AcDbEntity
  8
0
  6
Continuous
 62
     7
370
    15
100
AcDbSpline
210
0.0
220
0.0
230
1.0
 70
     8
 71
     3
 72
    11
 73
     7
 74
     0
 42
0.00000001
 43
0.00000001
 12
1.0
 22
0.0
 32
0.0
 13
1.0
 23
0.0
 33
0.0
 40
0.0
 40
0.0
 40
0.0
 40
0.0
 40
0.2646056115461253
 40
0.4956028480250433
 40
0.7328606208954811
 40
1.0
 40
1.0
 40
1.0
 40
1.0
 10
-5.281651415385332
 20
-4.251767450450877
 30
0.0
 10
-5.285748309361946
 20
-4.24871045230398
 30
0.0
 10
-5.293421738171725
 20
-4.242984734776088
 30
0.0
 10
-5.300619735901677
 20
-4.230507797195645
 30
0.0
 10
-5.302766514503128
 20
-4.216168723793458
 30
0.0
 10
-5.300086282729832
 20
-4.206792244998778
 30
0.0
 10
-5.298666775405156
 20
-4.201826263899182
 30
0.0
  0
SPLINE
  5
128
330
1F
100
AcDbEntity
  8
0
  6
Continuous
 62
     7
370
    15
100
AcDbSpline
210
0.0
220
0.0
230
1.0
 70
     8
 71
     3
 72
    15
 73
    11
 74
     0
 42
0.00000001
 43
0.00000001
 12
1.0
 22
0.0
 32
0.0
 13
1.0
 23
0.0
 33
0.0
 40
0.0
 40
0.0
 40
0.0
 40
0.0
 40
0.1708930695105405
 40
0.320774366597511
 40
0.4517645031057194
 40
0.5693410659625086
 40
0.676047963825911
 40
0.7778370391077355
 40
0.885013275261872
 40
1.0
 40
1.0
 40
1.0
 40
1.0
 10
-5.214915847515369
 20
-4.222598261845463
 30
0.0
 10
-5.217559221633546
 20
-4.226490501955862
 30
0.0
 10
-5.222520959759424
 20
-4.233796420561189
 30
0.0
 10
-5.230729967166711
 20
-4.243163664105505
 30
0.0
 10
-5.238941773035829
 20
-4.250503230932376
 30
0.0
 10
-5.247428287325106
 20
-4.255458537968969
 30
0.0
 10
-5.256030580345461
 20
-4.258382274155233
 30
0.0
 10
-5.264812507148177
 20
-4.25848726115626
 30
0.0
 10
-5.273651099114169
 20
-4.256571959482526
 30
0.0
 10
-5.278922864228092
 20
-4.253406054255271
 30
0.0
 10
-5.281651415385332
 20
-4.251767450450877
 30
0.0
  0
SPLINE
  5
12C
330
1F
100
AcDbEntity
  8
0
  6
Continuous
 62
     7
370
    15
100
AcDbSpline
210
0.0
220
0.0
230
1.0
 70
     8
 71
     3
 72
    15
 73
    11
 74
     0
 42
0.00000001
 43
0.00000001
 12
1.0
 22
0.0
 32
0.0
 13
1.0
 23
0.0
 33
0.0
 40
0.0
 40
0.0
 40
0.0
 40
0.0
 40
0.108289795402172
 40
0.2096707104308272
 40
0.3077312908205077
 40
0.4133117996550716
 40
0.5325463363108223
 40
0.6671356050114504
 40
0.823423749776872
 40
1.0
 40
1.0
 40
1.0
 40
1.0
 10
-5.007858804157237
 20
-3.828372258269255
 30
0.0
 10
-5.005395130293736
 20
-3.830169867637386
 30
0.0
 10
-5.000624964764176
 20
-3.833650399038276
 30
0.0
 10
-4.995382910130506
 20
-3.84069890146732
 30
0.0
 10
-4.99242802012305
 20
-3.848828219522232
 30
0.0
 10
-4.991566082191002
 20
-3.857942756689734
 30
0.0
 10
-4.993113156589351
 20
-3.86797346248841
 30
0.0
 10
-4.996541689443032
 20
-3.878984196902533
 30
0.0
 10
-5.002165571173733
 20
-3.890872554651196
 30
0.0
 10
-5.007040569096095
 20
-3.898837731800627
 30
0.0
 10
-5.009626633769686
 20
-3.90306305939524
 30
0.0
  0
SPLINE
  5
12D
330
1F
100
AcDbEntity
  8
0
  6
Continuous
 62
     7
370
    15
100
AcDbSpline
210
0.0
220
0.0
230
1.0
 70
     8
 71
     3
 72
    11
 73
     7
 74
     0
 42
0.00000001
 43
0.00000001
 12
1.0
 22
0.0
 32
0.0
 13
1.0
 23
0.0
 33
0.0
 40
0.0
 40
0.0
 40
0.0
 40
0.0
 40
0.2797168440085983
 40
0.5168918161199656
 40
0.7489473011828998
 40
1.0
 40
1.0
 40
1.0
 40
1.0
 10
-5.05956782032138
 20
-3.834117704509715
 30
0.0
 10
-5.05539723831176
 20
-3.830854882621782
 30
0.0
 10
-5.047690374190398
 20
-3.824825478360099
 30
0.0
 10
-5.033921020593536
 20
-3.820786259461046
 30
0.0
 10
-5.019996191453782
 20
-3.821487585080781
 30
0.0
 10
-5.012009289301841
 20
-3.826017984396624
 30
0.0
 10
-5.007858804157236
 20
-3.828372258269254
 30
0.0
  0
SPLINE
  5
12E
330
1F
100
AcDbEntity
  8
0
  6
Continuous
 62
     7
370
    15
100
AcDbSpline
210
0.0
220
0.0
230
1.0
 70
     8
 71
     3
 72
    13
 73
     9
 74
     0
 42
0.00000001
 43
0.00000001
 12
1.0
 22
0.0
 32
0.0
 13
1.0
 23
0.0
 33
0.0
 40
0.0
 40
0.0
 40
0.0
 40
0.0
 40
0.1545085477004653
 40
0.2741523176305872
 40
0.3628889240213756
 40
0.5119244055614112
 40
0.7257475612158382
 40
1.0
 40
1.0
 40
1.0
 40
1.0
 10
-5.097797135690597
 20
-3.85864634038245
 30
0.0
 10
-5.095411066894804
 20
-3.858414556248005
 30
0.0
 10
-5.091177344553039
 20
-3.858003289955014
 30
0.0
 10
-5.085935359628242
 20
-3.855752202886695
 30
0.0
 10
-5.081575802613654
 20
-3.852344533263552
 30
0.0
 10
-5.076303851454669
 20
-3.847786119812495
 30
0.0
 10
-5.06850138103824
 20
-3.841784252835506
 30
0.0
 10
-5.062781726549211
 20
-3.836875794837989
 30
0.0
 10
-5.05956782032138
 20
-3.834117704509715
 30
0.0
  0
SPLINE
  5
12F
330
1F
100
AcDbEntity
  8
0
  6
Continuous
 62
     7
370
    15
100
AcDbSpline
210
0.0
220
0.0
230
1.0
 70
     8
 71
     3
 72
    11
 73
     7
 74
     0
 42
0.00000001
 43
0.00000001
 12
1.0
 22
0.0
 32
0.0
 13
1.0
 23
0.0
 33
0.0
 40
0.0
 40
0.0
 40
0.0
 40
0.0
 40
0.3043094800978134
 40
0.5691349639927938
 40
0.8010784760737442
 40
1.0
 40
1.0
 40
1.0
 40
1.0
 10
-5.13514253625359
 20
-3.84649251179686
 30
0.0
 10
-5.131643549245948
 20
-3.848549221058881
 30
0.0
 10
-5.125099566968546
 20
-3.852395782629712
 30
0.0
 10
-5.115347021483987
 20
-3.856807062777122
 30
0.0
 10
-5.106216131739044
 20
-3.859008877152245
 30
0.0
 10
-5.100456321564717
 20
-3.858760849600834
 30
0.0
 10
-5.097797135690597
 20
-3.85864634038245
 30
0.0
  0
SPLINE
  5
131
330
1F
100
AcDbEntity
  8
0
  6
Continuous
 62
     7
370
    15
100
AcDbSpline
210
0.0
220
0.0
230
1.0
 70
     8
 71
     3
 72
    11
 73
     7
 74
     0
 42
0.00000001
 43
0.00000001
 12
1.0
 22
0.0
 32
0.0
 13
1.0
 23
0.0
 33
0.0
 40
0.0
 40
0.0
 40
0.0
 40
0.0
 40
0.2038823388473355
 40
0.4318297233844691
 40
0.6928317838882931
 40
1.0
 40
1.0
 40
1.0
 40
1.0
 10
-5.794322002995647
 20
-3.411164469731204
 30
0.0
 10
-5.793262965535637
 20
-3.413739171568109
 30
0.0
 10
-5.791019888199975
 20
-3.419192477569572
 30
0.0
 10
-5.784840435600145
 20
-3.426424369919138
 30
0.0
 10
-5.777032884088627
 20
-3.433915572550435
 30
0.0
 10
-5.770612601234007
 20
-3.438224898757163
 30
0.0
 10
-5.767141622704237
 20
-3.440554637038175
 30
0.0
  0
SPLINE
  5
132
330
1F
100
AcDbEntity
  8
0
  6
Continuous
 62
     7
370
    15
100
AcDbSpline
210
0.0
220
0.0
230
1.0
 70
     8
 71
     3
 72
    13
 73
     9
 74
     0
 42
0.00000001
 43
0.00000001
 12
1.0
 22
0.0
 32
0.0
 13
1.0
 23
0.0
 33
0.0
 40
0.0
 40
0.0
 40
0.0
 40
0.0
 40
0.2773846314578022
 40
0.4900065941699959
 40
0.6378809924379905
 40
0.7257010933838608
 40
0.8448641514853255
 40
1.0
 40
1.0
 40
1.0
 40
1.0
 10
-5.787913620650519
 20
-3.366305793315302
 30
0.0
 10
-5.789094727364064
 20
-3.37042947595176
 30
0.0
 10
-5.791181180658229
 20
-3.377714060081421
 30
0.0
 10
-5.793866163432219
 20
-3.387212260995262
 30
0.0
 10
-5.795618537315101
 20
-3.393910383582538
 30
0.0
 10
-5.797065180644126
 20
-3.399229056812301
 30
0.0
 10
-5.796747040060343
 20
-3.404951812528525
 30
0.0
 10
-5.795198061996966
 20
-3.408920110523774
 30
0.0
 10
-5.794322002995647
 20
-3.411164469731204
 30
0.0
  0
SPLINE
  5
133
330
1F
100
AcDbEntity
  8
0
  6
Continuous
 62
     7
370
    15
100
AcDbSpline
210
0.0
220
0.0
230
1.0
 70
     8
 71
     3
 72
    11
 73
     7
 74
     0
 42
0.00000001
 43
0.00000001
 12
1.0
 22
0.0
 32
0.0
 13
1.0
 23
0.0
 33
0.0
 40
0.0
 40
0.0
 40
0.0
 40
0.0
 40
0.2542789387643855
 40
0.4831133635103556
 40
0.7236171849862482
 40
1.0
 40
1.0
 40
1.0
 40
1.0
 10
-5.804708001968787
 20
-3.316585585465163
 30
0.0
 10
-5.800849349577167
 20
-3.31951260655255
 30
0.0
 10
-5.793518162241748
 20
-3.325073755303071
 30
0.0
 10
-5.786581619534322
 20
-3.337301746326439
 30
0.0
 10
-5.784634355953736
 20
-3.351594455268963
 30
0.0
 10
-5.786771092841898
 20
-3.361180219635187
 30
0.0
 10
-5.787913620650518
 20
-3.366305793315302
 30
0.0
  0
SPLINE
  5
134
330
1F
100
AcDbEntity
  8
0
  6
Continuous
 62
     7
370
    15
100
AcDbSpline
210
0.0
220
0.0
230
1.0
 70
     8
 71
     3
 72
    15
 73
    11
 74
     0
 42
0.00000001
 43
0.00000001
 12
1.0
 22
0.0
 32
0.0
 13
1.0
 23
0.0
 33
0.0
 40
0.0
 40
0.0
 40
0.0
 40
0.0
 40
0.1762570894479508
 40
0.3319257699579766
 40
0.4669793700282738
 40
0.5853404200079848
 40
0.6903306923556533
 40
0.7899777973281988
 40
0.8889367234522862
 40
1.0
 40
1.0
 40
1.0
 40
1.0
 10
-5.872327484644975
 20
-3.349069454593921
 30
0.0
 10
-5.869542463662302
 20
-3.344949793306045
 30
0.0
 10
-5.864297737127226
 20
-3.337191684118907
 30
0.0
 10
-5.855606307367966
 20
-3.327300558853608
 30
0.0
 10
-5.847347194912522
 20
-3.319164183030619
 30
0.0
 10
-5.838536557468422
 20
-3.31405324330312
 30
0.0
 10
-5.829916164835969
 20
-3.310952155860547
 30
0.0
 10
-5.8212783358257
 20
-3.310186077638719
 30
0.0
 10
-5.812608001850269
 20
-3.312097884607569
 30
0.0
 10
-5.807440607235449
 20
-3.31503329240407
 30
0.0
 10
-5.804708001968787
 20
-3.316585585465163
 30
0.0
  0
SPLINE
  5
138
330
1F
100
AcDbEntity
  8
0
  6
Continuous
 62
     7
370
    15
100
AcDbSpline
210
0.0
220
0.0
230
1.0
 70
     8
 71
     3
 72
    15
 73
    11
 74
     0
 42
0.00000001
 43
0.00000001
 12
1.0
 22
0.0
 32
0.0
 13
1.0
 23
0.0
 33
0.0
 40
0.0
 40
0.0
 40
0.0
 40
0.0
 40
0.1205471754324086
 40
0.2366566296400622
 40
0.3529161122779614
 40
0.4698793927106171
 40
0.5909316059024744
 40
0.7189473087422749
 40
0.8538685693764015
 40
1.0
 40
1.0
 40
1.0
 40
1.0
 10
-5.603396404851116
 20
-4.697481491489673
 30
0.0
 10
-5.603306591987518
 20
-4.690099702795123
 30
0.0
 10
-5.60313027255472
 20
-4.675607872298881
 30
0.0
 10
-5.606956055985944
 20
-4.65426979393355
 30
0.0
 10
-5.613269426060656
 20
-4.633821451311243
 30
0.0
 10
-5.622885714324268
 20
-4.614293885378421
 30
0.0
 10
-5.636067430642201
 20
-4.596131918765628
 30
0.0
 10
-5.651753316065222
 20
-4.578630720706816
 30
0.0
 10
-5.670560750955524
 20
-4.562037036333248
 30
0.0
 10
-5.684817265394159
 20
-4.552431359376119
 30
0.0
 10
-5.692229842876696
 20
-4.547436953133032
 30
0.0
  0
SPLINE
  5
139
330
1F
100
AcDbEntity
  8
0
  6
Continuous
 62
     7
370
    15
100
AcDbSpline
210
0.0
220
0.0
230
1.0
 70
     8
 71
     3
 72
    11
 73
     7
 74
     0
 42
0.00000001
 43
0.00000001
 12
1.0
 22
0.0
 32
0.0
 13
1.0
 23
0.0
 33
0.0
 40
0.0
 40
0.0
 40
0.0
 40
0.0
 40
0.2495575646623563
 40
0.4500843091877377
 40
0.6802455262737439
 40
1.0
 40
1.0
 40
1.0
 40
1.0
 10
-5.58814887444374
 20
-4.734163955947997
 30
0.0
 10
-5.591030938700119
 20
-4.732131321175213
 30
0.0
 10
-5.596228825214288
 20
-4.728465405382289
 30
0.0
 10
-5.60177431474381
 20
-4.720312158500474
 30
0.0
 10
-5.603333925871877
 20
-4.709677256668511
 30
0.0
 10
-5.603373433000476
 20
-4.701965548360266
 30
0.0
 10
-5.603396404851115
 20
-4.697481491489673
 30
0.0
  0
SPLINE
  5
13A
330
1F
100
AcDbEntity
  8
0
  6
Continuous
 62
     7
370
    15
100
AcDbSpline
210
0.0
220
0.0
230
1.0
 70
     8
 71
     3
 72
    15
 73
    11
 74
     0
 42
0.00000001
 43
0.00000001
 12
1.0
 22
0.0
 32
0.0
 13
1.0
 23
0.0
 33
0.0
 40
0.0
 40
0.0
 40
0.0
 40
0.0
 40
0.1640809433274408
 40
0.3108720389407246
 40
0.4365662603252018
 40
0.5514687907621972
 40
0.6595835286067344
 40
0.7648697800866568
 40
0.8767302328186197
 40
0.9999999999999999
 40
0.9999999999999999
 40
0.9999999999999999
 40
0.9999999999999999
 10
-5.529368539829798
 20
-4.712287064493935
 30
0.0
 10
-5.531581466072124
 20
-4.715506190383646
 30
0.0
 10
-5.535774133904391
 20
-4.721605230337018
 30
0.0
 10
-5.542728490353889
 20
-4.729387449505947
 30
0.0
 10
-5.550004823062949
 20
-4.735116722428536
 30
0.0
 10
-5.55737245251342
 20
-4.739060806926362
 30
0.0
 10
-5.565073912583404
 20
-4.740926961348688
 30
0.0
 10
-5.572863305918655
 20
-4.740574505913067
 30
0.0
 10
-5.580845583262615
 20
-4.738670098901971
 30
0.0
 10
-5.585636946329978
 20
-4.735713819823063
 30
0.0
 10
-5.58814887444374
 20
-4.734163955947997
 30
0.0
  0
SPLINE
  5
13C
330
1F
100
AcDbEntity
  8
0
  6
Continuous
 62
     7
370
    15
100
AcDbSpline
210
0.0
220
0.0
230
1.0
 70
     8
 71
     3
 72
    15
 73
    11
 74
     0
 42
0.00000001
 43
0.00000001
 12
1.0
 22
0.0
 32
0.0
 13
1.0
 23
0.0
 33
0.0
 40
0.0
 40
0.0
 40
0.0
 40
0.0
 40
0.1116505809905763
 40
0.2139371719559497
 40
0.3150343435152897
 40
0.420091849682683
 40
0.536385453695834
 40
0.6712221800326623
 40
0.825045729440654
 40
1.0
 40
1.0
 40
1.0
 40
1.0
 10
-5.425066592695287
 20
-4.479375513053733
 30
0.0
 10
-5.422579263492831
 20
-4.481080380289404
 30
0.0
 10
-5.417813214175619
 20
-4.484347129747615
 30
0.0
 10
-5.412907124223367
 20
-4.49137356946925
 30
0.0
 10
-5.409573544000889
 20
-4.49902788585864
 30
0.0
 10
-5.408844253069674
 20
-4.507764821702064
 30
0.0
 10
-5.410084959168447
 20
-4.517269050505985
 30
0.0
 10
-5.413305128629199
 20
-4.527673365166714
 30
0.0
 10
-5.418468165652997
 20
-4.539006027252602
 30
0.0
 10
-5.423063311154392
 20
-4.546527966083041
 30
0.0
 10
-5.425508550098399
 20
-4.550530654954819
 30
0.0
  0
SPLINE
  5
13D
330
1F
100
AcDbEntity
  8
0
  6
Continuous
 62
     7
370
    15
100
AcDbSpline
210
0.0
220
0.0
230
1.0
 70
     8
 71
     3
 72
    11
 73
     7
 74
     0
 42
0.00000001
 43
0.00000001
 12
1.0
 22
0.0
 32
0.0
 13
1.0
 23
0.0
 33
0.0
 40
0.0
 40
0.0
 40
0.0
 40
0.0
 40
0.3080303628526274
 40
0.5724306719605435
 40
0.7919490295516847
 40
1.0
 40
1.0
 40
1.0
 40
1.0
 10
-5.473239949634531
 20
-4.483353129681743
 30
0.0
 10
-5.468514721418714
 20
-4.481207136742961
 30
0.0
 10
-5.459733556024181
 20
-4.477219113716295
 30
0.0
 10
-5.446687041705083
 20
-4.473954761792009
 30
0.0
 10
-5.434765141288909
 20
-4.474667329414639
 30
0.0
 10
-5.428241117567516
 20
-4.477834432352735
 30
0.0
 10
-5.425066592695285
 20
-4.479375513053732
 30
0.0
  0
SPLINE
  5
13F
330
1F
100
AcDbEntity
  8
0
  6
Continuous
 62
     7
370
    15
100
AcDbSpline
210
0.0
220
0.0
230
1.0
 70
     8
 71
     3
 72
    11
 73
     7
 74
     0
 42
0.00000001
 43
0.00000001
 12
1.0
 22
0.0
 32
0.0
 13
1.0
 23
0.0
 33
0.0
 40
0.0
 40
0.0
 40
0.0
 40
0.0
 40
0.2620797654017389
 40
0.5121187561419864
 40
0.7581219844596767
 40
0.9999999999999999
 40
0.9999999999999999
 40
0.9999999999999999
 40
0.9999999999999999
 10
-5.569365684811466
 20
-4.508986659062259
 30
0.0
 10
-5.563470709087097
 20
-4.509489351844755
 30
0.0
 10
-5.551951591497753
 20
-4.510471642110847
 30
0.0
 10
-5.534936590881007
 20
-4.508397686457766
 30
0.0
 10
-5.518650129091821
 20
-4.504716805606065
 30
0.0
 10
-5.508678612400673
 20
-4.500036908648862
 30
0.0
 10
-5.503735010449282
 20
-4.497716745282895
 30
0.0
  0
SPLINE
  5
140
330
1F
100
AcDbEntity
  8
0
  6
Continuous
 62
     7
370
    15
100
AcDbSpline
210
0.0
220
0.0
230
1.0
 70
     8
 71
     3
 72
    13
 73
     9
 74
     0
 42
0.00000001
 43
0.00000001
 12
1.0
 22
0.0
 32
0.0
 13
1.0
 23
0.0
 33
0.0
 40
0.0
 40
0.0
 40
0.0
 40
0.0
 40
0.1873142500745836
 40
0.3473460648080536
 40
0.4779768305145176
 40
0.5817416866457654
 40
0.7754738803452343
 40
1.0
 40
1.0
 40
1.0
 40
1.0
 10
-5.646708230356125
 20
-4.476723768635058
 30
0.0
 10
-5.642232803302279
 20
-4.479551957762875
 30
0.0
 10
-5.633933797888275
 20
-4.484796408538453
 30
0.0
 10
-5.622260910299723
 20
-4.491599754972844
 30
0.0
 10
-5.612510974865401
 20
-4.497003762297911
 30
0.0
 10
-5.601614694770946
 20
-4.502298702448772
 30
0.0
 10
-5.58737541763868
 20
-4.506525158935047
 30
0.0
 10
-5.575656526997522
 20
-4.508126851257789
 30
0.0
 10
-5.569365684811466
 20
-4.508986659062259
 30
0.0
  0
SPLINE
  5
144
330
1F
100
AcDbEntity
  8
0
  6
Continuous
 62
     7
370
    15
100
AcDbSpline
210
0.0
220
0.0
230
1.0
 70
     8
 71
     3
 72
    11
 73
     7
 74
     0
 42
0.00000001
 43
0.00000001
 12
1.0
 22
0.0
 32
0.0
 13
1.0
 23
0.0
 33
0.0
 40
0.0
 40
0.0
 40
0.0
 40
0.0
 40
0.2394950449433326
 40
0.4829160707118242
 40
0.7305072429265396
 40
1.0
 40
1.0
 40
1.0
 40
1.0
 10
-5.169400788750484
 20
-2.332372972698101
 30
0.0
 10
-5.166571818682308
 20
-2.334466606054374
 30
0.0
 10
-5.160867503965449
 20
-2.338688193161372
 30
0.0
 10
-5.15414950331269
 20
-2.347217362080523
 30
0.0
 10
-5.149722828977957
 20
-2.357551600774039
 30
0.0
 10
-5.148132015531398
 20
-2.364968785244875
 30
0.0
 10
-5.147302918594868
 20
-2.368834458454869
 30
0.0
  0
SPLINE
  5
145
330
1F
100
AcDbEntity
  8
0
  6
Continuous
 62
     7
370
    15
100
AcDbSpline
210
0.0
220
0.0
230
1.0
 70
     8
 71
     3
 72
    15
 73
    11
 74
     0
 42
0.00000001
 43
0.00000001
 12
1.0
 22
0.0
 32
0.0
 13
1.0
 23
0.0
 33
0.0
 40
0.0
 40
0.0
 40
0.0
 40
0.0
 40
0.1866663405925327
 40
0.3469965473813988
 40
0.482998771602374
 40
0.5943385124287587
 40
0.6939296045282478
 40
0.7901877586380218
 40
0.8892845990906468
 40
1.0
 40
1.0
 40
1.0
 40
1.0
 10
-5.241660824159351
 20
-2.368613479753312
 30
0.0
 10
-5.238523496724195
 20
-2.363821704436425
 30
0.0
 10
-5.23269147695808
 20
-2.354914209461653
 30
0.0
 10
-5.223077371586633
 20
-2.343634719773203
 30
0.0
 10
-5.214222717224467
 20
-2.33474568526565
 30
0.0
 10
-5.205242194683852
 20
-2.32891994742867
 30
0.0
 10
-5.196345991376347
 20
-2.32551590183044
 30
0.0
 10
-5.187162198547661
 20
-2.325075798340746
 30
0.0
 10
-5.177951303304961
 20
-2.327475246189202
 30
0.0
 10
-5.172354273948117
 20
-2.330681219218949
 30
0.0
 10
-5.169400788750484
 20
-2.332372972698101
 30
0.0
  0
SPLINE
  5
147
330
1F
100
AcDbEntity
  8
0
  6
Continuous
 62
     7
370
    15
100
AcDbSpline
210
0.0
220
0.0
230
1.0
 70
     8
 71
     3
 72
    15
 73
    11
 74
     0
 42
0.00000001
 43
0.00000001
 12
1.0
 22
0.0
 32
0.0
 13
1.0
 23
0.0
 33
0.0
 40
0.0
 40
0.0
 40
0.0
 40
0.0
 40
0.1123992167669142
 40
0.2109798511961707
 40
0.3042261827684926
 40
0.3955835501179229
 40
0.504469419775367
 40
0.6390854499933035
 40
0.8048203017239305
 40
1.0
 40
1.0
 40
1.0
 40
1.0
 10
-5.433470337110108
 20
-2.742067485383241
 30
0.0
 10
-5.43629979521007
 20
-2.74005364597811
 30
0.0
 10
-5.4416108522269
 20
-2.736273552573114
 30
0.0
 10
-5.447683268831854
 20
-2.728958906334548
 30
0.0
 10
-5.451112361102141
 20
-2.720792604222629
 30
0.0
 10
-5.451995817299004
 20
-2.711671238608442
 30
0.0
 10
-5.450172110318433
 20
-2.701419630462647
 30
0.0
 10
-5.445686590507722
 20
-2.68959672540886
 30
0.0
 10
-5.438756097019031
 20
-2.675968177881245
 30
0.0
 10
-5.432887428253234
 20
-2.66651984309895
 30
0.0
 10
-5.429713699183653
 20
-2.661410259315238
 30
0.0
  0
SPLINE
  5
148
330
1F
100
AcDbEntity
  8
0
  6
Continuous
 62
     7
370
    15
100
AcDbSpline
210
0.0
220
0.0
230
1.0
 70
     8
 71
     3
 72
    11
 73
     7
 74
     0
 42
0.00000001
 43
0.00000001
 12
1.0
 22
0.0
 32
0.0
 13
1.0
 23
0.0
 33
0.0
 40
0.0
 40
0.0
 40
0.0
 40
0.0
 40
0.2833362188741322
 40
0.506870276170084
 40
0.726260357114072
 40
0.9999999999999999
 40
0.9999999999999999
 40
0.9999999999999999
 40
0.9999999999999999
 10
-5.384413065364638
 20
-2.742288464084797
 30
0.0
 10
-5.388806161490526
 20
-2.744558899588434
 30
0.0
 10
-5.396665127970068
 20
-2.748620562708415
 30
0.0
 10
-5.409303248592357
 20
-2.751579351599728
 30
0.0
 10
-5.421827088080043
 20
-2.748714418542052
 30
0.0
 10
-5.429314194004312
 20
-2.74444015690743
 30
0.0
 10
-5.433470337110108
 20
-2.742067485383241
 30
0.0
  0
SPLINE
  5
149
330
1F
100
AcDbEntity
  8
0
  6
Continuous
 62
     7
370
    15
100
AcDbSpline
210
0.0
220
0.0
230
1.0
 70
     8
 71
     3
 72
    11
 73
     7
 74
     0
 42
0.00000001
 43
0.00000001
 12
1.0
 22
0.0
 32
0.0
 13
1.0
 23
0.0
 33
0.0
 40
0.0
 40
0.0
 40
0.0
 40
0.0
 40
0.276171347031038
 40
0.5118845402940124
 40
0.739392155756337
 40
1.0
 40
1.0
 40
1.0
 40
1.0
 10
-5.317235540091562
 20
-2.729471699394539
 30
0.0
 10
-5.323640538682355
 20
-2.728770772114672
 30
0.0
 10
-5.335512225569786
 20
-2.727471600993947
 30
0.0
 10
-5.352710670399491
 20
-2.729450329161368
 30
0.0
 10
-5.369013496780682
 20
-2.734050934105156
 30
0.0
 10
-5.379052943207657
 20
-2.739421230063146
 30
0.0
 10
-5.384413065364638
 20
-2.742288464084797
 30
0.0
  0
SPLINE
  5
14B
330
1F
100
AcDbEntity
  8
0
  6
Continuous
 62
     7
370
    15
100
AcDbSpline
210
0.0
220
0.0
230
1.0
 70
     8
 71
     3
 72
    11
 73
     7
 74
     0
 42
0.00000001
 43
0.00000001
 12
1.0
 22
0.0
 32
0.0
 13
1.0
 23
0.0
 33
0.0
 40
0.0
 40
0.0
 40
0.0
 40
0.0
 40
0.1769238283151218
 40
0.4029041985579078
 40
0.6778147935787409
 40
1.0
 40
1.0
 40
1.0
 40
1.0
 10
-4.454313710514716
 20
-2.831342880811933
 30
0.0
 10
-4.456504048043408
 20
-2.83033648311664
 30
0.0
 10
-4.461492048783462
 20
-2.828044638876583
 30
0.0
 10
-4.470392535311033
 20
-2.82546689390906
 30
0.0
 10
-4.481460379586479
 20
-2.823672307469922
 30
0.0
 10
-4.48952001993491
 20
-2.822626226934468
 30
0.0
 10
-4.493868898093271
 20
-2.822061775346574
 30
0.0
  0
SPLINE
  5
14C
330
1F
100
AcDbEntity
  8
0
  6
Continuous
 62
     7
370
    15
100
AcDbSpline
210
0.0
220
0.0
230
1.0
 70
     8
 71
     3
 72
    11
 73
     7
 74
     0
 42
0.00000001
 43
0.00000001
 12
1.0
 22
0.0
 32
0.0
 13
1.0
 23
0.0
 33
0.0
 40
0.0
 40
0.0
 40
0.0
 40
0.0
 40
0.3299125390284453
 40
0.5975980499871888
 40
0.8134130084706328
 40
1.0
 40
1.0
 40
1.0
 40
1.0
 10
-4.438845201405784
 20
-2.871340025793601
 30
0.0
 10
-4.439202849614393
 20
-2.86645145356949
 30
0.0
 10
-4.439850687591921
 20
-2.857596375684444
 30
0.0
 10
-4.442848968624184
 20
-2.845905694474237
 30
0.0
 10
-4.447333652980887
 20
-2.836746747152245
 30
0.0
 10
-4.452102484048342
 20
-2.833054782499638
 30
0.0
 10
-4.454313710514716
 20
-2.831342880811933
 30
0.0
  0
SPLINE
  5
14D
330
1F
100
AcDbEntity
  8
0
  6
Continuous
 62
     7
370
    15
100
AcDbSpline
210
0.0
220
0.0
230
1.0
 70
     8
 71
     3
 72
    11
 73
     7
 74
     0
 42
0.00000001
 43
0.00000001
 12
1.0
 22
0.0
 32
0.0
 13
1.0
 23
0.0
 33
0.0
 40
0.0
 40
0.0
 40
0.0
 40
0.0
 40
0.2041669627381758
 40
0.4000725905080481
 40
0.6506177456755259
 40
1.0
 40
1.0
 40
1.0
 40
1.0
 10
-4.423376692296852
 20
-2.911116192073711
 30
0.0
 10
-4.425816702738005
 20
-2.909275551659699
 30
0.0
 10
-4.430597991958195
 20
-2.905668749811099
 30
0.0
 10
-4.435440597230953
 20
-2.897027512643688
 30
0.0
 10
-4.43777851675771
 20
-2.885377020374988
 30
0.0
 10
-4.438452620669275
 20
-2.876506176521561
 30
0.0
 10
-4.438845201405784
 20
-2.871340025793601
 30
0.0
  0
SPLINE
  5
14E
330
1F
100
AcDbEntity
  8
0
  6
Continuous
 62
     7
370
    15
100
AcDbSpline
210
0.0
220
0.0
230
1.0
 70
     8
 71
     3
 72
    11
 73
     7
 74
     0
 42
0.00000001
 43
0.00000001
 12
1.0
 22
0.0
 32
0.0
 13
1.0
 23
0.0
 33
0.0
 40
0.0
 40
0.0
 40
0.0
 40
0.0
 40
0.2639842059343479
 40
0.5036092432982954
 40
0.7380149607846076
 40
0.9999999999999999
 40
0.9999999999999999
 40
0.9999999999999999
 40
0.9999999999999999
 10
-4.377634101074725
 20
-2.910674234670599
 30
0.0
 10
-4.381362798384449
 20
-2.912837491315507
 30
0.0
 10
-4.388476127092856
 20
-2.916964389885618
 30
0.0
 10
-4.400525984703115
 20
-2.919042394763104
 30
0.0
 10
-4.412571658630998
 20
-2.917173764130863
 30
0.0
 10
-4.419644034709529
 20
-2.913208813253721
 30
0.0
 10
-4.423376692296852
 20
-2.911116192073711
 30
0.0
  0
SPLINE
  5
14F
330
1F
100
AcDbEntity
  8
0
  6
Continuous
 62
     7
370
    15
100
AcDbSpline
210
0.0
220
0.0
230
1.0
 70
     8
 71
     3
 72
    11
 73
     7
 74
     0
 42
0.00000001
 43
0.00000001
 12
1.0
 22
0.0
 32
0.0
 13
1.0
 23
0.0
 33
0.0
 40
0.0
 40
0.0
 40
0.0
 40
0.0
 40
0.3496454387413111
 40
0.6286577481544531
 40
0.8463458443278312
 40
1.0
 40
1.0
 40
1.0
 40
1.0
 10
-4.345813168050637
 20
-2.871119047092044
 30
0.0
 10
-4.349103211698509
 20
-2.87607044179477
 30
0.0
 10
-4.355018665474901
 20
-2.884972982194679
 30
0.0
 10
-4.36330416158878
 20
-2.896746680536925
 30
0.0
 10
-4.37070788540325
 20
-2.905029302157391
 30
0.0
 10
-4.375606959925253
 20
-2.909022095100264
 30
0.0
 10
-4.377634101074725
 20
-2.910674234670599
 30
0.0
  0
SPLINE
  5
151
330
1F
100
AcDbEntity
  8
0
  6
Continuous
 62
     7
370
    15
100
AcDbSpline
210
0.0
220
0.0
230
1.0
 70
     8
 71
     3
 72
    11
 73
     7
 74
     0
 42
0.00000001
 43
0.00000001
 12
1.0
 22
0.0
 32
0.0
 13
1.0
 23
0.0
 33
0.0
 40
0.0
 40
0.0
 40
0.0
 40
0.0
 40
0.1717061260916226
 40
0.3906502234309818
 40
0.6624803761083955
 40
1.0
 40
1.0
 40
1.0
 40
1.0
 10
-4.139419060797174
 20
-2.530148910590873
 30
0.0
 10
-4.139264777118774
 20
-2.5330374455432
 30
0.0
 10
-4.13891376487005
 20
-2.539609178597809
 30
0.0
 10
-4.142381353848473
 20
-2.550337405108729
 30
0.0
 10
-4.148304738022057
 20
-2.562844222438525
 30
0.0
 10
-4.153678735444108
 20
-2.57152510642581
 30
0.0
 10
-4.156655399518555
 20
-2.576333459216113
 30
0.0
  0
SPLINE
  5
152
330
1F
100
AcDbEntity
  8
0
  6
Continuous
 62
     7
370
    15
100
AcDbSpline
210
0.0
220
0.0
230
1.0
 70
     8
 71
     3
 72
    11
 73
     7
 74
     0
 42
0.00000001
 43
0.00000001
 12
1.0
 22
0.0
 32
0.0
 13
1.0
 23
0.0
 33
0.0
 40
0.0
 40
0.0
 40
0.0
 40
0.0
 40
0.2711551612856177
 40
0.5146746382389751
 40
0.7589654806875179
 40
1.0
 40
1.0
 40
1.0
 40
1.0
 10
-4.159307143937228
 20
-2.501421679388571
 30
0.0
 10
-4.156633489069872
 20
-2.503302477762632
 30
0.0
 10
-4.151558673805033
 20
-2.506872386659739
 30
0.0
 10
-4.145598309910153
 20
-2.513858244540404
 30
0.0
 10
-4.141211919981832
 20
-2.521564019602565
 30
0.0
 10
-4.14001400135354
 20
-2.527300109154237
 30
0.0
 10
-4.139419060797174
 20
-2.530148910590873
 30
0.0
  0
SPLINE
  5
153
330
1F
100
AcDbEntity
  8
0
  6
Continuous
 62
     7
370
    15
100
AcDbSpline
210
0.0
220
0.0
230
1.0
 70
     8
 71
     3
 72
    11
 73
     7
 74
     0
 42
0.00000001
 43
0.00000001
 12
1.0
 22
0.0
 32
0.0
 13
1.0
 23
0.0
 33
0.0
 40
0.0
 40
0.0
 40
0.0
 40
0.0
 40
0.3248214916501312
 40
0.5554792425891966
 40
0.7588849467343963
 40
1.0
 40
1.0
 40
1.0
 40
1.0
 10
-4.214551819326272
 20
-2.505399296016583
 30
0.0
 10
-4.208931836779458
 20
-2.502328836497365
 30
0.0
 10
-4.199321069854494
 20
-2.497078024676167
 30
0.0
 10
-4.184687214714476
 20
-2.49315742895312
 30
0.0
 10
-4.171089408393767
 20
-2.494581600506591
 30
0.0
 10
-4.163450570050321
 20
-2.499016253711721
 30
0.0
 10
-4.159307143937229
 20
-2.501421679388572
 30
0.0
  0
SPLINE
  5
154
330
1F
100
AcDbEntity
  8
0
  6
Continuous
 62
     7
370
    15
100
AcDbSpline
210
0.0
220
0.0
230
1.0
 70
     8
 71
     3
 72
    11
 73
     7
 74
     0
 42
0.00000001
 43
0.00000001
 12
1.0
 22
0.0
 32
0.0
 13
1.0
 23
0.0
 33
0.0
 40
0.0
 40
0.0
 40
0.0
 40
0.0
 40
0.2667708991342208
 40
0.5178403132317352
 40
0.7632528693367417
 40
1.0
 40
1.0
 40
1.0
 40
1.0
 10
-4.26603985678886
 20
-2.514459422780385
 30
0.0
 10
-4.261325737058214
 20
-2.514829733542192
 30
0.0
 10
-4.252174959196568
 20
-2.515548559476766
 30
0.0
 10
-4.238685943455689
 20
-2.514119983246104
 30
0.0
 10
-4.226030893342894
 20
-2.510940539980206
 30
0.0
 10
-4.218332055888522
 20
-2.5072241133321
 30
0.0
 10
-4.214551819326272
 20
-2.505399296016582
 30
0.0
  0
SPLINE
  5
156
330
1F
100
AcDbEntity
  8
0
  6
Continuous
 62
     7
370
    15
100
AcDbSpline
210
0.0
220
0.0
230
1.0
 70
     8
 71
     3
 72
     9
 73
     5
 74
     0
 42
0.00000001
 43
0.00000001
 12
1.0
 22
0.0
 32
0.0
 13
1.0
 23
0.0
 33
0.0
 40
0.0
 40
0.0
 40
0.0
 40
0.0
 40
0.4686886921395146
 40
1.0
 40
1.0
 40
1.0
 40
1.0
 10
-5.130508537276598
 20
-2.397119732254058
 30
0.0
 10
-5.127254574199004
 20
-2.398846352947859
 30
0.0
 10
-5.120311878264227
 20
-2.402530292250764
 30
0.0
 10
-5.112539969912115
 20
-2.403759132621098
 30
0.0
 10
-5.108410667120981
 20
-2.404412029405412
 30
0.0
  0
SPLINE
  5
157
330
1F
100
AcDbEntity
  8
0
  6
Continuous
 62
     7
370
    15
100
AcDbSpline
210
0.0
220
0.0
230
1.0
 70
     8
 71
     3
 72
    11
 73
     7
 74
     0
 42
0.00000001
 43
0.00000001
 12
1.0
 22
0.0
 32
0.0
 13
1.0
 23
0.0
 33
0.0
 40
0.0
 40
0.0
 40
0.0
 40
0.0
 40
0.2577659511172506
 40
0.5056773045053609
 40
0.7520886466118922
 40
1.0
 40
1.0
 40
1.0
 40
1.0
 10
-4.649879861391927
 20
-3.197725567992064
 30
0.0
 10
-4.648218766513986
 20
-3.187883043936568
 30
0.0
 10
-4.644960081739039
 20
-3.168574283363885
 30
0.0
 10
-4.645869808019865
 20
-3.139378195033896
 30
0.0
 10
-4.650908007977132
 20
-3.110965988145177
 30
0.0
 10
-4.658170464255392
 20
-3.093248912801925
 30
0.0
 10
-4.66181271127596
 20
-3.084363494093749
 30
0.0
  0
SPLINE
  5
158
330
1F
100
AcDbEntity
  8
0
  6
Continuous
 62
     7
370
    15
100
AcDbSpline
210
0.0
220
0.0
230
1.0
 70
     8
 71
     3
 72
    13
 73
     9
 74
     0
 42
0.00000001
 43
0.00000001
 12
1.0
 22
0.0
 32
0.0
 13
1.0
 23
0.0
 33
0.0
 40
0.0
 40
0.0
 40
0.0
 40
0.0
 40
0.2149010082563447
 40
0.41608483054532
 40
0.5316886523097634
 40
0.6638014018461135
 40
0.8214987369368928
 40
1.0
 40
1.0
 40
1.0
 40
1.0
 10
-4.636842118000114
 20
-3.253633179485776
 30
0.0
 10
-4.640462690722093
 20
-3.250953000703033
 30
0.0
 10
-4.64747273408915
 20
-3.245763719630334
 30
0.0
 10
-4.652034485189324
 20
-3.235307076857739
 30
0.0
 10
-4.653499991160413
 20
-3.226127732112276
 30
0.0
 10
-4.652933191560947
 20
-3.217743568461675
 30
0.0
 10
-4.652314245377593
 20
-3.208089110246461
 30
0.0
 10
-4.650724121608346
 20
-3.201319711922555
 30
0.0
 10
-4.649879861391927
 20
-3.197725567992064
 30
0.0
  0
SPLINE
  5
159
330
1F
100
AcDbEntity
  8
0
  6
Continuous
 62
     7
370
    15
100
AcDbSpline
210
0.0
220
0.0
230
1.0
 70
     8
 71
     3
 72
    15
 73
    11
 74
     0
 42
0.00000001
 43
0.00000001
 12
1.0
 22
0.0
 32
0.0
 13
1.0
 23
0.0
 33
0.0
 40
0.0
 40
0.0
 40
0.0
 40
0.0
 40
0.1640295965164199
 40
0.3122063068445635
 40
0.4465432500581207
 40
0.5707036769478183
 40
0.6842692942780926
 40
0.789046050965041
 40
0.8899746851775587
 40
1.0
 40
1.0
 40
1.0
 40
1.0
 10
-4.573200251951937
 20
-3.224905948283473
 30
0.0
 10
-4.575628281049569
 20
-3.228427498591753
 30
0.0
 10
-4.580249678733779
 20
-3.235130253700985
 30
0.0
 10
-4.588047138376389
 20
-3.243791391433314
 30
0.0
 10
-4.595980285816453
 20
-3.250895837767675
 30
0.0
 10
-4.604433189174235
 20
-3.25572666583666
 30
0.0
 10
-4.612881665490444
 20
-3.25889424633953
 30
0.0
 10
-4.621291853863712
 20
-3.259248103187288
 30
0.0
 10
-4.629492760541475
 20
-3.257730336905689
 30
0.0
 10
-4.63432290427144
 20
-3.255037603651953
 30
0.0
 10
-4.636842118000114
 20
-3.253633179485776
 30
0.0
  0
SPLINE
  5
15B
330
1F
100
AcDbEntity
  8
0
  6
Continuous
 62
     7
370
    15
100
AcDbSpline
210
0.0
220
0.0
230
1.0
 70
     8
 71
     3
 72
    13
 73
     9
 74
     0
 42
0.00000001
 43
0.00000001
 12
1.0
 22
0.0
 32
0.0
 13
1.0
 23
0.0
 33
0.0
 40
0.0
 40
0.0
 40
0.0
 40
0.0
 40
0.1704773242751289
 40
0.3444403479138139
 40
0.4518168830238606
 40
0.5964058025071051
 40
0.7783472341314551
 40
1.0
 40
1.0
 40
1.0
 40
1.0
 10
-4.449231200378924
 20
-3.016964990119117
 30
0.0
 10
-4.449219549655834
 20
-3.019858823845689
 30
0.0
 10
-4.449196009990771
 20
-3.025705660660051
 30
0.0
 10
-4.451718887277775
 20
-3.033036073074994
 30
0.0
 10
-4.455024574624215
 20
-3.039407789275811
 30
0.0
 10
-4.45858091698438
 20
-3.045811378085352
 30
0.0
 10
-4.463215622803809
 20
-3.053816974797944
 30
0.0
 10
-4.466883769346356
 20
-3.05955582268259
 30
0.0
 10
-4.468898304817423
 20
-3.062707581341244
 30
0.0
  0
SPLINE
  5
15C
330
1F
100
AcDbEntity
  8
0
  6
Continuous
 62
     7
370
    15
100
AcDbSpline
210
0.0
220
0.0
230
1.0
 70
     8
 71
     3
 72
    11
 73
     7
 74
     0
 42
0.00000001
 43
0.00000001
 12
1.0
 22
0.0
 32
0.0
 13
1.0
 23
0.0
 33
0.0
 40
0.0
 40
0.0
 40
0.0
 40
0.0
 40
0.2443956672165437
 40
0.4863541526933665
 40
0.7330457708521856
 40
1.0
 40
1.0
 40
1.0
 40
1.0
 10
-4.468235368712755
 20
-2.982271333974798
 30
0.0
 10
-4.465553152119488
 20
-2.984291365245412
 30
0.0
 10
-4.460215466744716
 20
-2.988311283471554
 30
0.0
 10
-4.454035033180934
 20
-2.996449120931818
 30
0.0
 10
-4.450563968125115
 20
-3.006340767095308
 30
0.0
 10
-4.449686988172251
 20
-3.013331655517744
 30
0.0
 10
-4.449231200378924
 20
-3.016964990119117
 30
0.0
  0
SPLINE
  5
15D
330
1F
100
AcDbEntity
  8
0
  6
Continuous
 62
     7
370
    15
100
AcDbSpline
210
0.0
220
0.0
230
1.0
 70
     8
 71
     3
 72
    13
 73
     9
 74
     0
 42
0.00000001
 43
0.00000001
 12
1.0
 22
0.0
 32
0.0
 13
1.0
 23
0.0
 33
0.0
 40
0.0
 40
0.0
 40
0.0
 40
0.0
 40
0.1856936227245905
 40
0.3466292462360194
 40
0.4762695648682682
 40
0.5843276444899194
 40
0.7775600679833743
 40
1.0
 40
1.0
 40
1.0
 40
1.0
 10
-4.526352767222028
 20
-2.993983205157275
 30
0.0
 10
-4.523145357310654
 20
-2.99165029394652
 30
0.0
 10
-4.517158172270928
 20
-2.987295511899329
 30
0.0
 10
-4.508449007488504
 20
-2.982022489742842
 30
0.0
 10
-4.500774086553675
 20
-2.978294938305844
 30
0.0
 10
-4.491981961722163
 20
-2.975487928057852
 30
0.0
 10
-4.480325868973653
 20
-2.97561935689592
 30
0.0
 10
-4.472450003203662
 20
-2.979952517430868
 30
0.0
 10
-4.468235368712756
 20
-2.982271333974798
 30
0.0
  0
SPLINE
  5
15E
330
1F
100
AcDbEntity
  8
0
  6
Continuous
 62
     7
370
    15
100
AcDbSpline
210
0.0
220
0.0
230
1.0
 70
     8
 71
     3
 72
    11
 73
     7
 74
     0
 42
0.00000001
 43
0.00000001
 12
1.0
 22
0.0
 32
0.0
 13
1.0
 23
0.0
 33
0.0
 40
0.0
 40
0.0
 40
0.0
 40
0.0
 40
0.2342911955144277
 40
0.464143127034193
 40
0.7092190956132138
 40
1.0
 40
1.0
 40
1.0
 40
1.0
 10
-4.593530292495104
 20
-3.001717459711741
 30
0.0
 10
-4.58850783985272
 20
-3.004427859653739
 30
0.0
 10
-4.578558098166101
 20
-3.009797303869642
 30
0.0
 10
-4.560949084779725
 20
-3.010320835163198
 30
0.0
 10
-4.543047791835868
 20
-3.004981024187567
 30
0.0
 10
-4.532225465626303
 20
-2.997851835229024
 30
0.0
 10
-4.526352767222028
 20
-2.993983205157275
 30
0.0
  0
SPLINE
  5
15F
330
1F
100
AcDbEntity
  8
0
  6
Continuous
 62
     7
370
    15
100
AcDbSpline
210
0.0
220
0.0
230
1.0
 70
     8
 71
     3
 72
    11
 73
     7
 74
     0
 42
0.00000001
 43
0.00000001
 12
1.0
 22
0.0
 32
0.0
 13
1.0
 23
0.0
 33
0.0
 40
0.0
 40
0.0
 40
0.0
 40
0.0
 40
0.3159213893473248
 40
0.5855354530878304
 40
0.8133159733551667
 40
1.0
 40
1.0
 40
1.0
 40
1.0
 10
-4.635958203193889
 20
-2.944042018605581
 30
0.0
 10
-4.632461435669647
 20
-2.95081134151164
 30
0.0
 10
-4.62598045202723
 20
-2.96335774922112
 30
0.0
 10
-4.615367172434315
 20
-2.979835781340463
 30
0.0
 10
-4.605045473015521
 20
-2.992853637863894
 30
0.0
 10
-4.597106280797586
 20
-2.998964839100454
 30
0.0
 10
-4.593530292495104
 20
-3.001717459711741
 30
0.0
  0
SPLINE
  5
163
330
1F
100
AcDbEntity
  8
0
  6
Continuous
 62
     7
370
    15
100
AcDbSpline
210
0.0
220
0.0
230
1.0
 70
     8
 71
     3
 72
    11
 73
     7
 74
     0
 42
0.00000001
 43
0.00000001
 12
1.0
 22
0.0
 32
0.0
 13
1.0
 23
0.0
 33
0.0
 40
0.0
 40
0.0
 40
0.0
 40
0.0
 40
0.2885255958165081
 40
0.5524689730245955
 40
0.7849574620677482
 40
1.0
 40
1.0
 40
1.0
 40
1.0
 10
7.151508230754473
 20
6.172594652968481
 30
0.0
 10
7.146110837398335
 20
6.175856491576895
 30
0.0
 10
7.135775905566599
 20
6.182102261977486
 30
0.0
 10
7.120257086146282
 20
6.18949985969572
 30
0.0
 10
7.105334766883314
 20
6.194140166928344
 30
0.0
 10
7.095625468545496
 20
6.195408804150751
 30
0.0
 10
7.090960066528082
 20
6.196018395333435
 30
0.0
  0
SPLINE
  5
165
330
1F
100
AcDbEntity
  8
0
  6
Continuous
 62
     7
370
    15
100
AcDbSpline
210
0.0
220
0.0
230
1.0
 70
     8
 71
     3
 72
    11
 73
     7
 74
     0
 42
0.00000001
 43
0.00000001
 12
1.0
 22
0.0
 32
0.0
 13
1.0
 23
0.0
 33
0.0
 40
0.0
 40
0.0
 40
0.0
 40
0.0
 40
0.2016992164084188
 40
0.4305706598775516
 40
0.6954583238299946
 40
1.0
 40
1.0
 40
1.0
 40
1.0
 10
7.783065359802009
 20
5.743674993247955
 30
0.0
 10
7.779942191832444
 20
5.749330055587056
 30
0.0
 10
7.77327511340988
 20
5.761402010879462
 30
0.0
 10
7.758277556605492
 20
5.778016921948733
 30
0.0
 10
7.738830752684891
 20
5.794570420273158
 30
0.0
 10
7.723738487316418
 20
5.804746969639977
 30
0.0
 10
7.715666855827376
 20
5.810189582416362
 30
0.0
  0
SPLINE
  5
166
330
1F
100
AcDbEntity
  8
0
  6
Continuous
 62
     7
370
    15
100
AcDbSpline
210
0.0
220
0.0
230
1.0
 70
     8
 71
     3
 72
    11
 73
     7
 74
     0
 42
0.00000001
 43
0.00000001
 12
1.0
 22
0.0
 32
0.0
 13
1.0
 23
0.0
 33
0.0
 40
0.0
 40
0.0
 40
0.0
 40
0.0
 40
0.2928623495415079
 40
0.5279199880825817
 40
0.7495966975060923
 40
1.0
 40
1.0
 40
1.0
 40
1.0
 10
7.784391232011345
 20
5.685999552141793
 30
0.0
 10
7.786139876606538
 20
5.691546153006789
 30
0.0
 10
7.789292021070653
 20
5.701544575361631
 30
0.0
 10
7.790974598636175
 20
5.716454605702367
 30
0.0
 10
7.78877999021907
 20
5.730489869904744
 30
0.0
 10
7.785045976240369
 20
5.739105201305257
 30
0.0
 10
7.783065359802008
 20
5.743674993247954
 30
0.0
  0
SPLINE
  5
168
330
1F
100
AcDbEntity
  8
0
  6
Continuous
 62
     7
370
    15
100
AcDbSpline
210
0.0
220
0.0
230
1.0
 70
     8
 71
     3
 72
    15
 73
    11
 74
     0
 42
0.00000001
 43
0.00000001
 12
1.0
 22
0.0
 32
0.0
 13
1.0
 23
0.0
 33
0.0
 40
0.0
 40
0.0
 40
0.0
 40
0.0
 40
0.1259659135628141
 40
0.2497925203150213
 40
0.3723822729550464
 40
0.4940799679818436
 40
0.6168043152136817
 40
0.7415301532366924
 40
0.8689953320191116
 40
1.0
 40
1.0
 40
1.0
 40
1.0
 10
7.897532327208104
 20
5.941450931140727
 30
0.0
 10
7.900033103828098
 20
5.928669277086915
 30
0.0
 10
7.904992185828809
 20
5.903323042620844
 30
0.0
 10
7.908562906654502
 20
5.864920251118272
 30
0.0
 10
7.908209235506868
 20
5.826831170721372
 30
0.0
 10
7.904807885707288
 20
5.789000016388028
 30
0.0
 10
7.897391992446654
 20
5.751501627105683
 30
0.0
 10
7.886393495823931
 20
5.714318318559517
 30
0.0
 10
7.872465844582046
 20
5.677163491692618
 30
0.0
 10
7.860210903299609
 20
5.653404186917872
 30
0.0
 10
7.853999523001538
 20
5.641361854427447
 30
0.0
  0
SPLINE
  5
169
330
1F
100
AcDbEntity
  8
0
  6
Continuous
 62
     7
370
    15
100
AcDbSpline
210
0.0
220
0.0
230
1.0
 70
     8
 71
     3
 72
    15
 73
    11
 74
     0
 42
0.00000001
 43
0.00000001
 12
1.0
 22
0.0
 32
0.0
 13
1.0
 23
0.0
 33
0.0
 40
0.0
 40
0.0
 40
0.0
 40
0.0
 40
0.1432628760833245
 40
0.279234996561713
 40
0.408520714525352
 40
0.5328574159472449
 40
0.6524274555341713
 40
0.7693484814234836
 40
0.8847348143888112
 40
1.0
 40
1.0
 40
1.0
 40
1.0
 10
7.633683757550036
 20
6.282200088940341
 30
0.0
 10
7.651276217379722
 20
6.270482748677454
 30
0.0
 10
7.685565843515639
 20
6.247644372417876
 30
0.0
 10
7.732250007525193
 20
6.20941024946692
 30
0.0
 10
7.773681054412364
 20
6.169525309163404
 30
0.0
 10
7.809720657945326
 20
6.127794014238801
 30
0.0
 10
7.83990291667516
 20
6.08385941696717
 30
0.0
 10
7.865206434768159
 20
6.038461786673795
 30
0.0
 10
7.884699917695047
 20
5.990866322856359
 30
0.0
 10
7.893256355430927
 20
5.957916959607109
 30
0.0
 10
7.897532327208104
 20
5.941450931140727
 30
0.0
  0
SPLINE
  5
16A
330
1F
100
AcDbEntity
  8
0
  6
Continuous
 62
     7
370
    15
100
AcDbSpline
210
0.0
220
0.0
230
1.0
 70
     8
 71
     3
 72
    15
 73
    11
 74
     0
 42
0.00000001
 43
0.00000001
 12
1.0
 22
0.0
 32
0.0
 13
1.0
 23
0.0
 33
0.0
 40
0.0
 40
0.0
 40
0.0
 40
0.0
 40
0.1164022112826674
 40
0.2323672229182833
 40
0.3493862572235957
 40
0.4693086622478195
 40
0.5931709999643843
 40
0.7219524037994908
 40
0.8575371039287909
 40
1.0
 40
1.0
 40
1.0
 40
1.0
 10
7.202554310813948
 20
6.379651696326612
 30
0.0
 10
7.219882293746551
 20
6.382942188230029
 30
0.0
 10
7.254473176758614
 20
6.389510813148803
 30
0.0
 10
7.307484645956569
 20
6.391877789678719
 30
0.0
 10
7.360868161981081
 20
6.388466104994073
 30
0.0
 10
7.414847763717937
 20
6.379438939777079
 30
0.0
 10
7.469151070841988
 20
6.363860618296337
 30
0.0
 10
7.524053374830031
 20
6.342723637238372
 30
0.0
 10
7.579388867931779
 20
6.315465412403272
 30
0.0
 10
7.61528943122753
 20
6.293469901243175
 30
0.0
 10
7.633683757550036
 20
6.282200088940341
 30
0.0
  0
SPLINE
  5
16B
330
1F
100
AcDbEntity
  8
0
  6
Continuous
 62
     7
370
    15
100
AcDbSpline
210
0.0
220
0.0
230
1.0
 70
     8
 71
     3
 72
    15
 73
    11
 74
     0
 42
0.00000001
 43
0.00000001
 12
1.0
 22
0.0
 32
0.0
 13
1.0
 23
0.0
 33
0.0
 40
0.0
 40
0.0
 40
0.0
 40
0.0
 40
0.1300581734689321
 40
0.2555987818609506
 40
0.3786254056122918
 40
0.4986991367950001
 40
0.6196356522891474
 40
0.7426098555046071
 40
0.8696776900897193
 40
1.0
 40
1.0
 40
1.0
 40
1.0
 10
6.957046973385043
 20
6.217453329384383
 30
0.0
 10
6.964903762598376
 20
6.227904903609732
 30
0.0
 10
6.980344435788714
 20
6.248445017078006
 30
0.0
 10
7.006171082639113
 20
6.276481839747603
 30
0.0
 10
7.033785412781506
 20
6.301254085237421
 30
0.0
 10
7.063293727390838
 20
6.322973310787622
 30
0.0
 10
7.094835578558357
 20
6.341625135305483
 30
0.0
 10
7.128707680632809
 20
6.357292683582261
 30
0.0
 10
7.164647600034018
 20
6.370527269967845
 30
0.0
 10
7.189812677023734
 20
6.376584690595513
 30
0.0
 10
7.202554310813948
 20
6.379651696326612
 30
0.0
  0
SPLINE
  5
16D
330
1F
100
AcDbEntity
  8
0
  6
Continuous
 62
     7
370
    15
100
AcDbSpline
210
0.0
220
0.0
230
1.0
 70
     8
 71
     3
 72
    11
 73
     7
 74
     0
 42
0.00000001
 43
0.00000001
 12
1.0
 22
0.0
 32
0.0
 13
1.0
 23
0.0
 33
0.0
 40
0.0
 40
0.0
 40
0.0
 40
0.0
 40
0.2404303278963908
 40
0.4615788047555636
 40
0.7003818359295048
 40
1.0
 40
1.0
 40
1.0
 40
1.0
 10
7.090960066528082
 20
6.196018395333435
 30
0.0
 10
7.085270553414931
 20
6.196207979279775
 30
0.0
 10
7.074347810492332
 20
6.196571943061377
 30
0.0
 10
7.058071465373824
 20
6.192707677799554
 30
0.0
 10
7.041958582151638
 20
6.184635587988681
 30
0.0
 10
7.031558654012268
 20
6.177325482911279
 30
0.0
 10
7.025771349569012
 20
6.17325758907315
 30
0.0
  0
SPLINE
  5
16F
330
1F
100
AcDbEntity
  8
0
  6
Continuous
 62
     7
370
    15
100
AcDbSpline
210
0.0
220
0.0
230
1.0
 70
     8
 71
     3
 72
    15
 73
    11
 74
     0
 42
0.00000001
 43
0.00000001
 12
1.0
 22
0.0
 32
0.0
 13
1.0
 23
0.0
 33
0.0
 40
0.0
 40
0.0
 40
0.0
 40
0.0
 40
0.1064943187688015
 40
0.2080946758398431
 40
0.3088390753076343
 40
0.4172674683088907
 40
0.5393695964903127
 40
0.6735033491064653
 40
0.8266408080962583
 40
1.0
 40
1.0
 40
1.0
 40
1.0
 10
5.890474013081995
 20
4.443735020133941
 30
0.0
 10
5.888096765363228
 20
4.445546233070524
 30
0.0
 10
5.883451516685669
 20
4.449085424393333
 30
0.0
 10
5.87815204021001
 20
4.456104996622791
 30
0.0
 10
5.875279306322234
 20
4.464425596816762
 30
0.0
 10
5.874388865300621
 20
4.473746893490225
 30
0.0
 10
5.875975029221692
 20
4.483893418785511
 30
0.0
 10
5.879076292269767
 20
4.494950016875623
 30
0.0
 10
5.884564679508351
 20
4.506673092756305
 30
0.0
 10
5.889290582967735
 20
4.5144940982674
 30
0.0
 10
5.891799885291332
 20
4.518646799961483
 30
0.0
  0
SPLINE
  5
170
330
1F
100
AcDbEntity
  8
0
  6
Continuous
 62
     7
370
    15
100
AcDbSpline
210
0.0
220
0.0
230
1.0
 70
     8
 71
     3
 72
    11
 73
     7
 74
     0
 42
0.00000001
 43
0.00000001
 12
1.0
 22
0.0
 32
0.0
 13
1.0
 23
0.0
 33
0.0
 40
0.0
 40
0.0
 40
0.0
 40
0.0
 40
0.2746993289190338
 40
0.5180038920467794
 40
0.7479847610370663
 40
1.0
 40
1.0
 40
1.0
 40
1.0
 10
5.942845965350808
 20
4.449259487672846
 30
0.0
 10
5.938658567262438
 20
4.446114857671235
 30
0.0
 10
5.930762339354419
 20
4.440184990327581
 30
0.0
 10
5.916918605466365
 20
4.435810846492537
 30
0.0
 10
5.902784293893973
 20
4.436966743330548
 30
0.0
 10
5.894700621258512
 20
4.44141120197617
 30
0.0
 10
5.890474013081995
 20
4.443735020133941
 30
0.0
  0
SPLINE
  5
171
330
1F
100
AcDbEntity
  8
0
  6
Continuous
 62
     7
370
    15
100
AcDbSpline
210
0.0
220
0.0
230
1.0
 70
     8
 71
     3
 72
    13
 73
     9
 74
     0
 42
0.00000001
 43
0.00000001
 12
1.0
 22
0.0
 32
0.0
 13
1.0
 23
0.0
 33
0.0
 40
0.0
 40
0.0
 40
0.0
 40
0.0
 40
0.1549551056457424
 40
0.279346831764476
 40
0.3616589924261694
 40
0.5111252137498786
 40
0.7218516445600168
 40
1.0
 40
1.0
 40
1.0
 40
1.0
 10
5.980854302018469
 20
4.473788123545581
 30
0.0
 10
5.978473337000663
 20
4.473542418056335
 30
0.0
 10
5.974181029035111
 20
4.47309947008323
 30
0.0
 10
5.968925115812796
 20
4.470978556101839
 30
0.0
 10
5.964538379683995
 20
4.467660645723104
 30
0.0
 10
5.959395856798756
 20
4.463196900561043
 30
0.0
 10
5.951715184852626
 20
4.45705842277994
 30
0.0
 10
5.946062242258741
 20
4.452087643508459
 30
0.0
 10
5.942845965350808
 20
4.449259487672846
 30
0.0
  0
SPLINE
  5
172
330
1F
100
AcDbEntity
  8
0
  6
Continuous
 62
     7
370
    15
100
AcDbSpline
210
0.0
220
0.0
230
1.0
 70
     8
 71
     3
 72
    11
 73
     7
 74
     0
 42
0.00000001
 43
0.00000001
 12
1.0
 22
0.0
 32
0.0
 13
1.0
 23
0.0
 33
0.0
 40
0.0
 40
0.0
 40
0.0
 40
0.0
 40
0.3061675447867538
 40
0.5661744791884697
 40
0.7991995338051734
 40
1.0
 40
1.0
 40
1.0
 40
1.0
 10
6.018862638686131
 20
4.461192337556879
 30
0.0
 10
6.015294958311011
 20
4.46332796351046
 30
0.0
 10
6.008697493580707
 20
4.467277228978336
 30
0.0
 10
5.998781676732651
 20
4.471792499671464
 30
0.0
 10
5.989488596256541
 20
4.473857418613131
 30
0.0
 10
5.983586258074109
 20
4.473810049029495
 30
0.0
 10
5.980854302018469
 20
4.473788123545581
 30
0.0
  0
SPLINE
  5
174
330
1F
100
AcDbEntity
  8
0
  6
Continuous
 62
     7
370
    15
100
AcDbSpline
210
0.0
220
0.0
230
1.0
 70
     8
 71
     3
 72
    11
 73
     7
 74
     0
 42
0.00000001
 43
0.00000001
 12
1.0
 22
0.0
 32
0.0
 13
1.0
 23
0.0
 33
0.0
 40
0.0
 40
0.0
 40
0.0
 40
0.0
 40
0.2003031019298523
 40
0.4290711681453053
 40
0.6948813849087001
 40
1.0
 40
1.0
 40
1.0
 40
1.0
 10
6.677379169323519
 20
4.026306252894336
 30
0.0
 10
6.676384047312771
 20
4.028798383764562
 30
0.0
 10
6.674252387046481
 20
4.034136800860236
 30
0.0
 10
6.668352926099928
 20
4.041414306995323
 30
0.0
 10
6.660600875402404
 20
4.048765401053961
 30
0.0
 10
6.654253774336365
 20
4.052994387114457
 30
0.0
 10
6.650861725136778
 20
4.055254462798193
 30
0.0
  0
SPLINE
  5
175
330
1F
100
AcDbEntity
  8
0
  6
Continuous
 62
     7
370
    15
100
AcDbSpline
210
0.0
220
0.0
230
1.0
 70
     8
 71
     3
 72
    13
 73
     9
 74
     0
 42
0.00000001
 43
0.00000001
 12
1.0
 22
0.0
 32
0.0
 13
1.0
 23
0.0
 33
0.0
 40
0.0
 40
0.0
 40
0.0
 40
0.0
 40
0.2768121817170602
 40
0.4899716319107258
 40
0.6417156671882897
 40
0.7251031495329997
 40
0.8444719832660101
 40
1.0
 40
1.0
 40
1.0
 40
1.0
 10
6.671191765679946
 20
3.981447576478433
 30
0.0
 10
6.672257830918014
 20
3.98558244057809
 30
0.0
 10
6.674144820577139
 20
3.992901360208255
 30
0.0
 10
6.677094193270148
 20
4.00236472694378
 30
0.0
 10
6.678368743330755
 20
4.009170252920668
 30
0.0
 10
6.679890493868808
 20
4.014431867738805
 30
0.0
 10
6.679891893636285
 20
4.020100936677816
 30
0.0
 10
6.678287107174567
 20
4.024064048510006
 30
0.0
 10
6.677379169323519
 20
4.026306252894336
 30
0.0
  0
SPLINE
  5
176
330
1F
100
AcDbEntity
  8
0
  6
Continuous
 62
     7
370
    15
100
AcDbSpline
210
0.0
220
0.0
230
1.0
 70
     8
 71
     3
 72
    11
 73
     7
 74
     0
 42
0.00000001
 43
0.00000001
 12
1.0
 22
0.0
 32
0.0
 13
1.0
 23
0.0
 33
0.0
 40
0.0
 40
0.0
 40
0.0
 40
0.0
 40
0.2502458231511909
 40
0.4838520877556091
 40
0.7213468837576572
 40
1.0
 40
1.0
 40
1.0
 40
1.0
 10
6.687323210893545
 20
3.93194834732985
 30
0.0
 10
6.683540626956373
 20
3.934803990079213
 30
0.0
 10
6.67622697387691
 20
3.940325395746505
 30
0.0
 10
6.669452132724015
 20
3.952537359526884
 30
0.0
 10
6.66771264856501
 20
3.966840674610082
 30
0.0
 10
6.669972005273123
 20
3.976326472480855
 30
0.0
 10
6.671191765679946
 20
3.981447576478433
 30
0.0
  0
SPLINE
  5
177
330
1F
100
AcDbEntity
  8
0
  6
Continuous
 62
     7
370
    15
100
AcDbSpline
210
0.0
220
0.0
230
1.0
 70
     8
 71
     3
 72
    15
 73
    11
 74
     0
 42
0.00000001
 43
0.00000001
 12
1.0
 22
0.0
 32
0.0
 13
1.0
 23
0.0
 33
0.0
 40
0.0
 40
0.0
 40
0.0
 40
0.0
 40
0.1741898928535472
 40
0.3255723578716975
 40
0.4638111638030517
 40
0.5846144984310424
 40
0.6939257470150458
 40
0.7944827947885724
 40
0.8938213462304028
 40
1.0
 40
1.0
 40
1.0
 40
1.0
 10
6.754500736166621
 20
3.964653195160164
 30
0.0
 10
6.751799964615837
 20
3.960600064702151
 30
0.0
 10
6.746752045086993
 20
3.953024497495811
 30
0.0
 10
6.738093252782214
 20
3.943359758794835
 30
0.0
 10
6.729697055506604
 20
3.935494148405309
 30
0.0
 10
6.72090231657624
 20
3.930052604431194
 30
0.0
 10
6.712183855604017
 20
3.926719873577639
 30
0.0
 10
6.703481753403227
 20
3.926075446730119
 30
0.0
 10
6.694911348801794
 20
3.927561175281396
 30
0.0
 10
6.689908096911441
 20
3.930453864780472
 30
0.0
 10
6.687323210893545
 20
3.93194834732985
 30
0.0
  0
SPLINE
  5
181
330
1F
100
AcDbEntity
  8
0
  6
Continuous
 62
     7
370
    15
100
AcDbSpline
210
0.0
220
0.0
230
1.0
 70
     8
 71
     3
 72
     9
 73
     5
 74
     0
 42
0.00000001
 43
0.00000001
 12
1.0
 22
0.0
 32
0.0
 13
1.0
 23
0.0
 33
0.0
 40
0.0
 40
0.0
 40
0.0
 40
0.0
 40
0.5293508910451492
 40
1.0
 40
1.0
 40
1.0
 40
1.0
 10
6.361617542462989
 20
3.574386361205696
 30
0.0
 10
6.358275274673957
 20
3.576463008141833
 30
0.0
 10
6.351961376188904
 20
3.580386014546975
 30
0.0
 10
6.345154220013131
 20
3.583368606114978
 30
0.0
 10
6.341950438024488
 20
3.584772360178836
 30
0.0
  0
SPLINE
  5
182
330
1F
100
AcDbEntity
  8
0
  6
Continuous
 62
     7
370
    15
100
AcDbSpline
210
0.0
220
0.0
230
1.0
 70
     8
 71
     3
 72
    11
 73
     7
 74
     0
 42
0.00000001
 43
0.00000001
 12
1.0
 22
0.0
 32
0.0
 13
1.0
 23
0.0
 33
0.0
 40
0.0
 40
0.0
 40
0.0
 40
0.0
 40
0.2812696160423909
 40
0.5112323633587242
 40
0.7348475103948743
 40
1.0
 40
1.0
 40
1.0
 40
1.0
 10
6.382610519110824
 20
3.533947258820917
 30
0.0
 10
6.382602088550061
 20
3.538481829526942
 30
0.0
 10
6.382586765261452
 20
3.546723812189259
 30
0.0
 10
6.378487441018205
 20
3.557981986055961
 30
0.0
 10
6.371506302969925
 20
3.567351765066451
 30
0.0
 10
6.365095403546998
 20
3.57191230511573
 30
0.0
 10
6.361617542462988
 20
3.574386361205696
 30
0.0
  0
SPLINE
  5
183
330
1F
100
AcDbEntity
  8
0
  6
Continuous
 62
     7
370
    15
100
AcDbSpline
210
0.0
220
0.0
230
1.0
 70
     8
 71
     3
 72
    13
 73
     9
 74
     0
 42
0.00000001
 43
0.00000001
 12
1.0
 22
0.0
 32
0.0
 13
1.0
 23
0.0
 33
0.0
 40
0.0
 40
0.0
 40
0.0
 40
0.0
 40
0.2470933181741435
 40
0.4382633147049879
 40
0.5386048887705688
 40
0.6614268240968827
 40
0.8163589924649954
 40
1.0
 40
1.0
 40
1.0
 40
1.0
 10
6.402277623549322
 20
3.488425646300346
 30
0.0
 10
6.398668201722377
 20
3.490876861049923
 30
0.0
 10
6.392266259388471
 20
3.495224520100932
 30
0.0
 10
6.386108462192962
 20
3.502893446028605
 30
0.0
 10
6.38419773546734
 20
3.510017041789919
 30
0.0
 10
6.383098937272425
 20
3.516593551418112
 30
0.0
 10
6.382447892362634
 20
3.524728972416588
 30
0.0
 10
6.382553330047721
 20
3.530705570914449
 30
0.0
 10
6.382610519110824
 20
3.533947258820917
 30
0.0
  0
SPLINE
  5
184
330
1F
100
AcDbEntity
  8
0
  6
Continuous
 62
     7
370
    15
100
AcDbSpline
210
0.0
220
0.0
230
1.0
 70
     8
 71
     3
 72
    15
 73
    11
 74
     0
 42
0.00000001
 43
0.00000001
 12
1.0
 22
0.0
 32
0.0
 13
1.0
 23
0.0
 33
0.0
 40
0.0
 40
0.0
 40
0.0
 40
0.0
 40
0.1458891897856822
 40
0.2765776620904177
 40
0.402473470059649
 40
0.524683721482455
 40
0.6398083235084241
 40
0.7534627984726754
 40
0.8724042210659684
 40
1.0
 40
1.0
 40
1.0
 40
1.0
 10
6.460395022058595
 20
3.504999048917058
 30
0.0
 10
6.458497365953089
 20
3.502270902478745
 30
0.0
 10
6.454899777332001
 20
3.4970988649559
 30
0.0
 10
6.448234397479812
 20
3.490771325262188
 30
0.0
 10
6.441194006935159
 20
3.485729032367735
 30
0.0
 10
6.433438710276103
 20
3.482684445473469
 30
0.0
 10
6.425538825791775
 20
3.481282554011729
 30
0.0
 10
6.41756036031994
 20
3.481686121363519
 30
0.0
 10
6.40971383654915
 20
3.484291680272446
 30
0.0
 10
6.404813698794179
 20
3.487015782313573
 30
0.0
 10
6.402277623549322
 20
3.488425646300346
 30
0.0
  0
SPLINE
  5
186
330
1F
100
AcDbEntity
  8
0
  6
Continuous
 62
     7
370
    15
100
AcDbSpline
210
0.0
220
0.0
230
1.0
 70
     8
 71
     3
 72
    15
 73
    11
 74
     0
 42
0.00000001
 43
0.00000001
 12
1.0
 22
0.0
 32
0.0
 13
1.0
 23
0.0
 33
0.0
 40
0.0
 40
0.0
 40
0.0
 40
0.0
 40
0.1242595717655486
 40
0.2333350063237962
 40
0.3418072541312108
 40
0.4473776649822456
 40
0.5628804402758325
 40
0.6884356942952994
 40
0.8356399958539478
 40
1.0
 40
1.0
 40
1.0
 40
1.0
 10
6.657287045145143
 20
3.88397752208589
 30
0.0
 10
6.659797621680126
 20
3.88215733978054
 30
0.0
 10
6.6645119900249
 20
3.878739395845155
 30
0.0
 10
6.670181205910376
 20
3.872260915358492
 30
0.0
 10
6.673718449262249
 20
3.864926581433135
 30
0.0
 10
6.675337406701244
 20
3.856796881475433
 30
0.0
 10
6.674817580857356
 20
3.848082202846606
 30
0.0
 10
6.672065601297156
 20
3.838776920277712
 30
0.0
 10
6.668011096627961
 20
3.828633883826014
 30
0.0
 10
6.663883864420209
 20
3.822044129698448
 30
0.0
 10
6.661706619176266
 20
3.818567826425264
 30
0.0
  0
SPLINE
  5
187
330
1F
100
AcDbEntity
  8
0
  6
Continuous
 62
     7
370
    15
100
AcDbSpline
210
0.0
220
0.0
230
1.0
 70
     8
 71
     3
 72
    11
 73
     7
 74
     0
 42
0.00000001
 43
0.00000001
 12
1.0
 22
0.0
 32
0.0
 13
1.0
 23
0.0
 33
0.0
 40
0.0
 40
0.0
 40
0.0
 40
0.0
 40
0.3255807857591136
 40
0.5616562600908037
 40
0.7664971648428391
 40
0.9999999999999999
 40
0.9999999999999999
 40
0.9999999999999999
 40
0.9999999999999999
 10
6.606461943787224
 20
3.876685224934537
 30
0.0
 10
6.611489311395347
 20
3.879937977191031
 30
0.0
 10
6.620161974563404
 20
3.885549268604082
 30
0.0
 10
6.633566939746172
 20
3.890371740681029
 30
0.0
 10
6.646386409182957
 20
3.890104772876787
 30
0.0
 10
6.653498487613336
 20
3.886107071427199
 30
0.0
 10
6.657287045145143
 20
3.88397752208589
 30
0.0
  0
SPLINE
  5
188
330
1F
100
AcDbEntity
  8
0
  6
Continuous
 62
     7
370
    15
100
AcDbSpline
210
0.0
220
0.0
230
1.0
 70
     8
 71
     3
 72
    11
 73
     7
 74
     0
 42
0.00000001
 43
0.00000001
 12
1.0
 22
0.0
 32
0.0
 13
1.0
 23
0.0
 33
0.0
 40
0.0
 40
0.0
 40
0.0
 40
0.0
 40
0.2071985943134827
 40
0.4375630976376283
 40
0.7028792992712222
 40
1.0
 40
1.0
 40
1.0
 40
1.0
 10
6.570884372836681
 20
3.864531396348948
 30
0.0
 10
6.573545085524691
 20
3.864407209412184
 30
0.0
 10
6.579163992783914
 20
3.864144950776134
 30
0.0
 10
6.587997179507665
 20
3.866392649769735
 30
0.0
 10
6.597218721054507
 20
3.870700149165879
 30
0.0
 10
6.603266866685399
 20
3.874616381729727
 30
0.0
 10
6.606461943787224
 20
3.876685224934537
 30
0.0
  0
SPLINE
  5
189
330
1F
100
AcDbEntity
  8
0
  6
Continuous
 62
     7
370
    15
100
AcDbSpline
210
0.0
220
0.0
230
1.0
 70
     8
 71
     3
 72
     9
 73
     5
 74
     0
 42
0.00000001
 43
0.00000001
 12
1.0
 22
0.0
 32
0.0
 13
1.0
 23
0.0
 33
0.0
 40
0.0
 40
0.0
 40
0.0
 40
0.0
 40
0.5232217279252253
 40
1.0
 40
1.0
 40
1.0
 40
1.0
 10
6.529119398242564
 20
3.875801310128312
 30
0.0
 10
6.53630210852492
 20
3.873457511434015
 30
0.0
 10
6.550029960215709
 20
3.86897795989935
 30
0.0
 10
6.564151519975439
 20
3.865966970616474
 30
0.0
 10
6.570884372836681
 20
3.864531396348948
 30
0.0
  0
SPLINE
  5
18E
330
1F
100
AcDbEntity
  8
0
  6
Continuous
 62
     7
370
    15
100
AcDbSpline
210
0.0
220
0.0
230
1.0
 70
     8
 71
     3
 72
    15
 73
    11
 74
     0
 42
0.00000001
 43
0.00000001
 12
1.0
 22
0.0
 32
0.0
 13
1.0
 23
0.0
 33
0.0
 40
0.0
 40
0.0
 40
0.0
 40
0.0
 40
0.1064943187687977
 40
0.2080946758398358
 40
0.3088390753076319
 40
0.4172674683088946
 40
0.5393695964903106
 40
0.6735033491064699
 40
0.8266408080962576
 40
1.0
 40
1.0
 40
1.0
 40
1.0
 10
4.799132636716369
 20
2.741071243622917
 30
0.0
 10
4.7967553889976
 20
2.742882456559498
 30
0.0
 10
4.792110140320043
 20
2.746421647882308
 30
0.0
 10
4.786810663844384
 20
2.753441220111766
 30
0.0
 10
4.783937929956604
 20
2.761761820305736
 30
0.0
 10
4.783047488934997
 20
2.771083116979201
 30
0.0
 10
4.784633652856064
 20
2.781229642274484
 30
0.0
 10
4.78773491590414
 20
2.792286240364598
 30
0.0
 10
4.793223303142724
 20
2.80400931624528
 30
0.0
 10
4.79794920660211
 20
2.811830321756374
 30
0.0
 10
4.800458508925706
 20
2.815983023450457
 30
0.0
  0
SPLINE
  5
18F
330
1F
100
AcDbEntity
  8
0
  6
Continuous
 62
     7
370
    15
100
AcDbSpline
210
0.0
220
0.0
230
1.0
 70
     8
 71
     3
 72
    11
 73
     7
 74
     0
 42
0.00000001
 43
0.00000001
 12
1.0
 22
0.0
 32
0.0
 13
1.0
 23
0.0
 33
0.0
 40
0.0
 40
0.0
 40
0.0
 40
0.0
 40
0.2746993289190327
 40
0.5180038920467772
 40
0.7479847610370632
 40
1.0
 40
1.0
 40
1.0
 40
1.0
 10
4.851504588985181
 20
2.74659571116182
 30
0.0
 10
4.847317190896811
 20
2.74345108116021
 30
0.0
 10
4.839420962988791
 20
2.737521213816555
 30
0.0
 10
4.825577229100737
 20
2.733147069981509
 30
0.0
 10
4.811442917528349
 20
2.734302966819524
 30
0.0
 10
4.803359244892886
 20
2.738747425465144
 30
0.0
 10
4.799132636716368
 20
2.741071243622916
 30
0.0
  0
SPLINE
  5
190
330
1F
100
AcDbEntity
  8
0
  6
Continuous
 62
     7
370
    15
100
AcDbSpline
210
0.0
220
0.0
230
1.0
 70
     8
 71
     3
 72
    13
 73
     9
 74
     0
 42
0.00000001
 43
0.00000001
 12
1.0
 22
0.0
 32
0.0
 13
1.0
 23
0.0
 33
0.0
 40
0.0
 40
0.0
 40
0.0
 40
0.0
 40
0.1549551056457539
 40
0.2793468317644765
 40
0.3616589924261699
 40
0.511125213749879
 40
0.721851644560017
 40
1.0
 40
1.0
 40
1.0
 40
1.0
 10
4.889512925652842
 20
2.771124347034556
 30
0.0
 10
4.887131960635035
 20
2.770878641545309
 30
0.0
 10
4.882839652669483
 20
2.770435693572205
 30
0.0
 10
4.877583739447171
 20
2.768314779590813
 30
0.0
 10
4.873197003318366
 20
2.764996869212076
 30
0.0
 10
4.868054480433131
 20
2.760533124050019
 30
0.0
 10
4.860373808486998
 20
2.754394646268912
 30
0.0
 10
4.854720865893113
 20
2.749423866997433
 30
0.0
 10
4.851504588985181
 20
2.74659571116182
 30
0.0
  0
SPLINE
  5
191
330
1F
100
AcDbEntity
  8
0
  6
Continuous
 62
     7
370
    15
100
AcDbSpline
210
0.0
220
0.0
230
1.0
 70
     8
 71
     3
 72
    11
 73
     7
 74
     0
 42
0.00000001
 43
0.00000001
 12
1.0
 22
0.0
 32
0.0
 13
1.0
 23
0.0
 33
0.0
 40
0.0
 40
0.0
 40
0.0
 40
0.0
 40
0.3061675447867538
 40
0.5661744791884697
 40
0.7991995338051734
 40
1.0
 40
1.0
 40
1.0
 40
1.0
 10
4.927521262320504
 20
2.758528561045853
 30
0.0
 10
4.923953581945383
 20
2.760664186999435
 30
0.0
 10
4.917356117215078
 20
2.76461345246731
 30
0.0
 10
4.907440300367024
 20
2.769128723160439
 30
0.0
 10
4.898147219890915
 20
2.771193642102106
 30
0.0
 10
4.892244881708481
 20
2.771146272518468
 30
0.0
 10
4.889512925652841
 20
2.771124347034555
 30
0.0
  0
SPLINE
  5
193
330
1F
100
AcDbEntity
  8
0
  6
Continuous
 62
     7
370
    15
100
AcDbSpline
210
0.0
220
0.0
230
1.0
 70
     8
 71
     3
 72
    11
 73
     7
 74
     0
 42
0.00000001
 43
0.00000001
 12
1.0
 22
0.0
 32
0.0
 13
1.0
 23
0.0
 33
0.0
 40
0.0
 40
0.0
 40
0.0
 40
0.0
 40
0.2003031019298517
 40
0.4290711681453039
 40
0.6948813849086931
 40
1.0
 40
1.0
 40
1.0
 40
1.0
 10
5.586037792957892
 20
2.32364247638331
 30
0.0
 10
5.585042670947146
 20
2.326134607253537
 30
0.0
 10
5.582911010680855
 20
2.331473024349212
 30
0.0
 10
5.5770115497343
 20
2.338750530484297
 30
0.0
 10
5.569259499036776
 20
2.346101624542935
 30
0.0
 10
5.562912397970738
 20
2.350330610603431
 30
0.0
 10
5.559520348771151
 20
2.352590686287168
 30
0.0
  0
SPLINE
  5
194
330
1F
100
AcDbEntity
  8
0
  6
Continuous
 62
     7
370
    15
100
AcDbSpline
210
0.0
220
0.0
230
1.0
 70
     8
 71
     3
 72
    13
 73
     9
 74
     0
 42
0.00000001
 43
0.00000001
 12
1.0
 22
0.0
 32
0.0
 13
1.0
 23
0.0
 33
0.0
 40
0.0
 40
0.0
 40
0.0
 40
0.0
 40
0.2768121817170585
 40
0.4899716319107342
 40
0.6417156671882914
 40
0.7251031495330009
 40
0.8444719832660167
 40
1.0
 40
1.0
 40
1.0
 40
1.0
 10
5.579850389314318
 20
2.278783799967407
 30
0.0
 10
5.580916454552386
 20
2.282918664067064
 30
0.0
 10
5.582803444211512
 20
2.290237583697229
 30
0.0
 10
5.585752816904524
 20
2.299700950432755
 30
0.0
 10
5.587027366965126
 20
2.306506476409642
 30
0.0
 10
5.588549117503181
 20
2.311768091227779
 30
0.0
 10
5.588550517270661
 20
2.317437160166791
 30
0.0
 10
5.58694573080894
 20
2.321400271998981
 30
0.0
 10
5.586037792957891
 20
2.32364247638331
 30
0.0
  0
SPLINE
  5
195
330
1F
100
AcDbEntity
  8
0
  6
Continuous
 62
     7
370
    15
100
AcDbSpline
210
0.0
220
0.0
230
1.0
 70
     8
 71
     3
 72
    11
 73
     7
 74
     0
 42
0.00000001
 43
0.00000001
 12
1.0
 22
0.0
 32
0.0
 13
1.0
 23
0.0
 33
0.0
 40
0.0
 40
0.0
 40
0.0
 40
0.0
 40
0.2502458231511898
 40
0.4838520877556142
 40
0.7213468837576595
 40
1.0
 40
1.0
 40
1.0
 40
1.0
 10
5.595981834527919
 20
2.229284570818825
 30
0.0
 10
5.592199250590744
 20
2.232140213568187
 30
0.0
 10
5.584885597511283
 20
2.237661619235479
 30
0.0
 10
5.578110756358388
 20
2.249873583015859
 30
0.0
 10
5.57637127219938
 20
2.264176898099056
 30
0.0
 10
5.578630628907495
 20
2.27366269596983
 30
0.0
 10
5.579850389314318
 20
2.278783799967407
 30
0.0
  0
SPLINE
  5
196
330
1F
100
AcDbEntity
  8
0
  6
Continuous
 62
     7
370
    15
100
AcDbSpline
210
0.0
220
0.0
230
1.0
 70
     8
 71
     3
 72
    15
 73
    11
 74
     0
 42
0.00000001
 43
0.00000001
 12
1.0
 22
0.0
 32
0.0
 13
1.0
 23
0.0
 33
0.0
 40
0.0
 40
0.0
 40
0.0
 40
0.0
 40
0.1741898928535444
 40
0.3255723578716997
 40
0.4638111638030495
 40
0.5846144984310419
 40
0.6939257470150442
 40
0.794482794788571
 40
0.8938213462304013
 40
1.0
 40
1.0
 40
1.0
 40
1.0
 10
5.663159359800994
 20
2.261989418649138
 30
0.0
 10
5.66045858825021
 20
2.257936288191125
 30
0.0
 10
5.655410668721368
 20
2.250360720984786
 30
0.0
 10
5.646751876416587
 20
2.24069598228381
 30
0.0
 10
5.638355679140978
 20
2.232830371894285
 30
0.0
 10
5.629560940210614
 20
2.227388827920169
 30
0.0
 10
5.620842479238389
 20
2.224056097066614
 30
0.0
 10
5.612140377037598
 20
2.223411670219093
 30
0.0
 10
5.603569972436165
 20
2.22489739877037
 30
0.0
 10
5.598566720545814
 20
2.227790088269447
 30
0.0
 10
5.595981834527919
 20
2.229284570818825
 30
0.0
  0
SPLINE
  5
19A
330
1F
100
AcDbEntity
  8
0
  6
Continuous
 62
     7
370
    15
100
AcDbSpline
210
0.0
220
0.0
230
1.0
 70
     8
 71
     3
 72
    11
 73
     7
 74
     0
 42
0.00000001
 43
0.00000001
 12
1.0
 22
0.0
 32
0.0
 13
1.0
 23
0.0
 33
0.0
 40
0.0
 40
0.0
 40
0.0
 40
0.0
 40
0.1875364162177384
 40
0.4098313751028999
 40
0.6809283870523617
 40
1.0
 40
1.0
 40
1.0
 40
1.0
 10
5.891209379806963
 20
2.633675594666617
 30
0.0
 10
5.890807869872514
 20
2.630408812294393
 30
0.0
 10
5.889930432989209
 20
2.623269772641338
 30
0.0
 10
5.885756339420807
 20
2.612021604738338
 30
0.0
 10
5.879562312436887
 20
2.599215827655494
 30
0.0
 10
5.874069810638912
 20
2.590458058825631
 30
0.0
 10
5.87110031796535
 20
2.585723216428928
 30
0.0
  0
SPLINE
  5
19B
330
1F
100
AcDbEntity
  8
0
  6
Continuous
 62
     7
370
    15
100
AcDbSpline
210
0.0
220
0.0
230
1.0
 70
     8
 71
     3
 72
    11
 73
     7
 74
     0
 42
0.00000001
 43
0.00000001
 12
1.0
 22
0.0
 32
0.0
 13
1.0
 23
0.0
 33
0.0
 40
0.0
 40
0.0
 40
0.0
 40
0.0
 40
0.2358925931949434
 40
0.4652359278963703
 40
0.7168484421307239
 40
1.0
 40
1.0
 40
1.0
 40
1.0
 10
5.876403806802698
 20
2.668590229512492
 30
0.0
 10
5.87889557705543
 20
2.666662017611342
 30
0.0
 10
5.883809936721978
 20
2.662859128165505
 30
0.0
 10
5.888960838261228
 20
2.654585588211122
 30
0.0
 10
5.891208210055963
 20
2.644550614874653
 30
0.0
 10
5.891208974854658
 20
2.637440382623863
 30
0.0
 10
5.891209379806963
 20
2.633675594666617
 30
0.0
  0
SPLINE
  5
19C
330
1F
100
AcDbEntity
  8
0
  6
Continuous
 62
     7
370
    15
100
AcDbSpline
210
0.0
220
0.0
230
1.0
 70
     8
 71
     3
 72
    11
 73
     7
 74
     0
 42
0.00000001
 43
0.00000001
 12
1.0
 22
0.0
 32
0.0
 13
1.0
 23
0.0
 33
0.0
 40
0.0
 40
0.0
 40
0.0
 40
0.0
 40
0.2877279967962618
 40
0.532944477265569
 40
0.7566922494653122
 40
0.9999999999999999
 40
0.9999999999999999
 40
0.9999999999999999
 40
0.9999999999999999
 10
5.820496195308988
 20
2.657983251837796
 30
0.0
 10
5.824923909949852
 20
2.662021724860186
 30
0.0
 10
5.833125148936087
 20
2.669501990659253
 30
0.0
 10
5.84787987836167
 20
2.676004084918833
 30
0.0
 10
5.863223842688138
 20
2.675514284348172
 30
0.0
 10
5.871889514550394
 20
2.670961799482453
 30
0.0
 10
5.8764038068027
 20
2.668590229512493
 30
0.0
  0
SPLINE
  5
19D
330
1F
100
AcDbEntity
  8
0
  6
Continuous
 62
     7
370
    15
100
AcDbSpline
210
0.0
220
0.0
230
1.0
 70
     8
 71
     3
 72
    13
 73
     9
 74
     0
 42
0.00000001
 43
0.00000001
 12
1.0
 22
0.0
 32
0.0
 13
1.0
 23
0.0
 33
0.0
 40
0.0
 40
0.0
 40
0.0
 40
0.0
 40
0.1640462974961428
 40
0.2879675492889968
 40
0.3745927278517567
 40
0.5245212491221904
 40
0.7320412264594361
 40
1.0
 40
1.0
 40
1.0
 40
1.0
 10
5.777847305908646
 20
2.626162318813707
 30
0.0
 10
5.78075667668197
 20
2.626761129593289
 30
0.0
 10
5.785863798173611
 20
2.627812284513062
 30
0.0
 10
5.792066528006429
 20
2.630836530372981
 30
0.0
 10
5.796789040448947
 20
2.635368721916538
 30
0.0
 10
5.802716568880204
 20
2.640765659058852
 30
0.0
 10
5.810926817663663
 20
2.648547797736133
 30
0.0
 10
5.817047084101702
 20
2.654582410979167
 30
0.0
 10
5.820496195308988
 20
2.657983251837796
 30
0.0
  0
SPLINE
  5
19E
330
1F
100
AcDbEntity
  8
0
  6
Continuous
 62
     7
370
    15
100
AcDbSpline
210
0.0
220
0.0
230
1.0
 70
     8
 71
     3
 72
    11
 73
     7
 74
     0
 42
0.00000001
 43
0.00000001
 12
1.0
 22
0.0
 32
0.0
 13
1.0
 23
0.0
 33
0.0
 40
0.0
 40
0.0
 40
0.0
 40
0.0
 40
0.3019515754993464
 40
0.5689494980689951
 40
0.7964791836824762
 40
1.0
 40
1.0
 40
1.0
 40
1.0
 10
5.736082331314531
 20
2.638758104802409
 30
0.0
 10
5.739929321855865
 20
2.636434194581787
 30
0.0
 10
5.747177978644454
 20
2.632055387975484
 30
0.0
 10
5.758174864046311
 20
2.627627088637232
 30
0.0
 10
5.768409993047059
 20
2.625206119954568
 30
0.0
 10
5.774820554522002
 20
2.625855645053363
 30
0.0
 10
5.777847305908647
 20
2.626162318813708
 30
0.0
  0
CIRCLE
  5
1DB
330
1F
100
AcDbEntity
  8
0
  6
Continuous
 62
     7
370
    15
100
AcDbCircle
 10
1.6467465791
 20
1.518051316
 30
0.0
 40
0.8803389251667104
  0
SPLINE
  5
1DC
330
1F
100
AcDbEntity
  8
0
  6
Continuous
 62
     7
370
    15
100
AcDbSpline
210
0.0
220
0.0
230
1.0
 70
     8
 71
     3
 72
    11
 73
     7
 74
     0
 42
0.00000001
 43
0.00000001
 12
1.0
 22
0.0
 32
0.0
 13
1.0
 23
0.0
 33
0.0
 40
0.0
 40
0.0
 40
0.0
 40
0.0
 40
0.308241485673045
 40
0.5382146654966911
 40
0.7458010200910978
 40
1.0
 40
1.0
 40
1.0
 40
1.0
 10
-5.147302918594868
 20
-2.368834458454869
 30
0.0
 10
-5.146475281962678
 20
-2.372229432470637
 30
0.0
 10
-5.145030161192597
 20
-2.378157332799425
 30
0.0
 10
-5.142314389568905
 20
-2.386287511663162
 30
0.0
 10
-5.137194689466115
 20
-2.392456251219862
 30
0.0
 10
-5.132882350545798
 20
-2.395464036594454
 30
0.0
 10
-5.130508537276598
 20
-2.397119732254058
 30
0.0
  0
LINE
  5
1DD
330
1F
100
AcDbEntity
  8
0
  6
Continuous
 62
     7
370
    15
100
AcDbLine
 10
5.020332317
 20
3.1580580535
 30
0.0
 11
5.0309392946
 21
3.1746314561
 31
0.0
  0
LINE
  5
1DE
330
1F
100
AcDbEntity
  8
0
  6
Continuous
 62
     7
370
    15
100
AcDbLine
 10
5.0901615867
 20
3.113199377
 30
0.0
 11
5.020332317
 21
3.1580580535
 31
0.0
  0
LINE
  5
1DF
330
1F
100
AcDbEntity
  8
0
  6
Continuous
 62
     7
370
    15
100
AcDbLine
 10
5.3953331735
 20
3.0175155993
 30
0.0
 11
5.225400552
 21
3.1266790778
 31
0.0
  0
LINE
  5
1E0
330
1F
100
AcDbEntity
  8
0
  6
Continuous
 62
     7
370
    15
100
AcDbLine
 10
5.5036127373
 20
2.8480249352
 30
0.0
 11
5.4362142333
 21
2.8913367607
 31
0.0
  0
LINE
  5
1E1
330
1F
100
AcDbEntity
  8
0
  6
Continuous
 62
     7
370
    15
100
AcDbLine
 10
5.7652515199
 20
2.7799634951
 30
0.0
 11
5.6596237006
 21
2.8478039565
 31
0.0
  0
LINE
  5
1E2
330
1F
100
AcDbEntity
  8
0
  6
Continuous
 62
     7
370
    15
100
AcDbLine
 10
5.8412681933
 20
3.1306566945
 30
0.0
 11
5.9714246485
 21
3.0469057666
 31
0.0
  0
LINE
  5
1E3
330
1F
100
AcDbEntity
  8
0
  6
Continuous
 62
     7
370
    15
100
AcDbLine
 10
6.3163169086
 20
3.2807056668
 30
0.0
 11
6.2137827911
 21
3.1211590443
 31
0.0
  0
LINE
  5
1E4
330
1F
100
AcDbEntity
  8
0
  6
Continuous
 62
     7
370
    15
100
AcDbLine
 10
6.242731001
 20
3.3268902155
 30
0.0
 11
6.267922573
 21
3.3436845968
 31
0.0
  0
LINE
  5
1E5
330
1F
100
AcDbEntity
  8
0
  6
Continuous
 62
     7
370
    15
100
AcDbLine
 10
5.7994477257
 20
3.7288504736
 30
0.0
 11
6.1313577354
 21
3.3503139578
 31
0.0
  0
LINE
  5
1E6
330
1F
100
AcDbEntity
  8
0
  6
Continuous
 62
     7
370
    15
100
AcDbLine
 10
5.6478563364
 20
3.7810014472
 30
0.0
 11
5.7994477257
 21
3.7288504736
 31
0.0
  0
LINE
  5
1E7
330
1F
100
AcDbEntity
  8
0
  6
Continuous
 62
     7
370
    15
100
AcDbLine
 10
6.0763340388
 20
3.305013324
 30
0.0
 11
5.6478563364
 21
3.7810014472
 31
0.0
  0
LINE
  5
1E8
330
1F
100
AcDbEntity
  8
0
  6
Continuous
 62
     7
370
    15
100
AcDbLine
 10
6.983434671
 20
4.3208708621
 30
0.0
 11
6.9153732309
 21
4.364624645
 31
0.0
  0
LINE
  5
1E9
330
1F
100
AcDbEntity
  8
0
  6
Continuous
 62
     7
370
    15
100
AcDbLine
 10
6.1905630898
 20
4.8300057905
 30
0.0
 11
6.1207338201
 21
4.8748644669
 31
0.0
  0
LINE
  5
1EA
330
1F
100
AcDbEntity
  8
0
  6
Continuous
 62
     7
370
    15
100
AcDbLine
 10
6.8481957056
 20
4.5078188436
 30
0.0
 11
6.3485628614
 21
4.8286799182
 31
0.0
  0
LINE
  5
1EB
330
1F
100
AcDbEntity
  8
0
  6
Continuous
 62
     7
370
    15
100
AcDbLine
 10
6.7347301827
 20
5.5775168543
 30
0.0
 11
7.3667292692
 21
5.1715789795
 31
0.0
  0
LINE
  5
1EC
330
1F
100
AcDbEntity
  8
0
  6
Continuous
 62
     7
370
    15
100
AcDbLine
 10
6.6191583218
 20
5.6526496128
 30
0.0
 11
6.6295443208
 21
5.6690020367
 31
0.0
  0
LINE
  5
1ED
330
1F
100
AcDbEntity
  8
0
  6
Continuous
 62
     7
370
    15
100
AcDbLine
 10
6.4366299143
 20
5.3684710026
 30
0.0
 11
6.6191583218
 21
5.6526496128
 31
0.0
  0
LINE
  5
1EE
330
1F
100
AcDbEntity
  8
0
  6
Continuous
 62
     7
370
    15
100
AcDbLine
 10
6.4260229367
 20
5.3521185787
 30
0.0
 11
6.4366299143
 21
5.3684710026
 31
0.0
  0
LINE
  5
1EF
330
1F
100
AcDbEntity
  8
0
  6
Continuous
 62
     7
370
    15
100
AcDbLine
 10
7.1850847765
 20
4.8887262415
 30
0.0
 11
6.5530856901
 21
5.2946641163
 31
0.0
  0
LINE
  5
1F0
330
1F
100
AcDbEntity
  8
0
  6
Continuous
 62
     7
370
    15
100
AcDbLine
 10
7.2993307652
 20
4.8144773978
 30
0.0
 11
7.2887237875
 21
4.7981249739
 31
0.0
  0
LINE
  5
1F1
330
1F
100
AcDbEntity
  8
0
  6
Continuous
 62
     7
370
    15
100
AcDbLine
 10
7.4818591727
 20
5.098656008
 30
0.0
 11
7.2993307652
 21
4.8144773978
 31
0.0
  0
LINE
  5
1F2
330
1F
100
AcDbEntity
  8
0
  6
Continuous
 62
     7
370
    15
100
AcDbLine
 10
7.4922451717
 20
5.1150084319
 30
0.0
 11
7.4818591727
 21
5.098656008
 31
0.0
  0
LINE
  5
1F3
330
1F
100
AcDbEntity
  8
0
  6
Continuous
 62
     7
370
    15
100
AcDbLine
 10
7.748150725
 20
5.6294290045
 30
0.0
 11
7.8177590159
 21
5.5847913068
 31
0.0
  0
LINE
  5
1F4
330
1F
100
AcDbEntity
  8
0
  6
Continuous
 62
     7
370
    15
100
AcDbLine
 10
7.0423447522
 20
6.0028830102
 30
0.0
 11
7.6065033773
 21
5.6404779396
 31
0.0
  0
LINE
  5
1F5
330
1F
100
AcDbEntity
  8
0
  6
Continuous
 62
     7
370
    15
100
AcDbLine
 10
6.9208064663
 20
6.1608827818
 30
0.0
 11
6.9895308425
 21
6.1166870415
 31
0.0
  0
LINE
  5
1F6
330
1F
100
AcDbEntity
  8
0
  6
Continuous
 62
     7
370
    15
100
AcDbLine
 10
-5.1439882381
 20
-2.2165801331
 30
0.0
 11
-5.0273114836
 21
-2.0349356404
 31
0.0
  0
LINE
  5
1F7
330
1F
100
AcDbEntity
  8
0
  6
Continuous
 62
     7
370
    15
100
AcDbLine
 10
-5.0743799471
 20
-2.2693940428
 30
0.0
 11
-5.0964778172
 21
-2.2808849352
 31
0.0
  0
LINE
  5
1F8
330
1F
100
AcDbEntity
  8
0
  6
Continuous
 62
     7
370
    15
100
AcDbLine
 10
-4.9380360882
 20
-2.3734750112
 30
0.0
 11
-4.9809059563
 21
-2.306960422
 31
0.0
  0
LINE
  5
1F9
330
1F
100
AcDbEntity
  8
0
  6
Continuous
 62
     7
370
    15
100
AcDbLine
 10
-4.8452250336
 20
-2.3834190528
 30
0.0
 11
-4.9380360882
 21
-2.3734750112
 31
0.0
  0
LINE
  5
1FA
330
1F
100
AcDbEntity
  8
0
  6
Continuous
 62
     7
370
    15
100
AcDbLine
 10
-4.9311857485
 20
-2.2000067305
 30
0.0
 11
-4.8452250336
 21
-2.3834190528
 31
0.0
  0
LINE
  5
1FB
330
1F
100
AcDbEntity
  8
0
  6
Continuous
 62
     7
370
    15
100
AcDbLine
 10
-5.4350598727
 20
-2.924353919
 30
0.0
 11
-4.8030607862
 21
-3.3302917938
 31
0.0
  0
LINE
  5
1FC
330
1F
100
AcDbEntity
  8
0
  6
Continuous
 62
     7
370
    15
100
AcDbLine
 10
-5.5506317336
 20
-2.8492211605
 30
0.0
 11
-5.5402457346
 21
-2.8328687366
 31
0.0
  0
LINE
  5
1FD
330
1F
100
AcDbEntity
  8
0
  6
Continuous
 62
     7
370
    15
100
AcDbLine
 10
-5.7331601411
 20
-3.1333997707
 30
0.0
 11
-5.5506317336
 21
-2.8492211605
 31
0.0
  0
LINE
  5
1FE
330
1F
100
AcDbEntity
  8
0
  6
Continuous
 62
     7
370
    15
100
AcDbLine
 10
-5.7437671187
 20
-3.1497521946
 30
0.0
 11
-5.7331601411
 21
-3.1333997707
 31
0.0
  0
LINE
  5
1FF
330
1F
100
AcDbEntity
  8
0
  6
Continuous
 62
     7
370
    15
100
AcDbLine
 10
-4.9847052789
 20
-3.6131445318
 30
0.0
 11
-5.6167043653
 21
-3.207206657
 31
0.0
  0
LINE
  5
200
330
1F
100
AcDbEntity
  8
0
  6
Continuous
 62
     7
370
    15
100
AcDbLine
 10
-4.8704592902
 20
-3.6873933755
 30
0.0
 11
-4.8810662679
 21
-3.7037457994
 31
0.0
  0
LINE
  5
201
330
1F
100
AcDbEntity
  8
0
  6
Continuous
 62
     7
370
    15
100
AcDbLine
 10
-4.6879308827
 20
-3.4032147653
 30
0.0
 11
-4.8704592902
 21
-3.6873933755
 31
0.0
  0
LINE
  5
202
330
1F
100
AcDbEntity
  8
0
  6
Continuous
 62
     7
370
    15
100
AcDbLine
 10
-4.6775448837
 20
-3.3868623414
 30
0.0
 11
-4.6879308827
 21
-3.4032147653
 31
0.0
  0
LINE
  5
203
330
1F
100
AcDbEntity
  8
0
  6
Continuous
 62
     7
370
    15
100
AcDbLine
 10
-5.3441883879
 20
-4.423909859
 30
0.0
 11
-6.2307549386
 21
-4.2044780083
 31
0.0
  0
LINE
  5
204
330
1F
100
AcDbEntity
  8
0
  6
Continuous
 62
     7
370
    15
100
AcDbLine
 10
-5.3227534539
 20
-4.390542075
 30
0.0
 11
-5.3441883879
 21
-4.423909859
 31
0.0
  0
LINE
  5
205
330
1F
100
AcDbEntity
  8
0
  6
Continuous
 62
     7
370
    15
100
AcDbLine
 10
-5.7178633723
 20
-3.9317902906
 30
0.0
 11
-5.3227534539
 21
-4.390542075
 31
0.0
  0
LINE
  5
206
330
1F
100
AcDbEntity
  8
0
  6
Continuous
 62
     7
370
    15
100
AcDbLine
 10
-5.9277931387
 20
-3.7969932826
 30
0.0
 11
-5.7178633723
 21
-3.9317902906
 31
0.0
  0
LINE
  5
207
330
1F
100
AcDbEntity
  8
0
  6
Continuous
 62
     7
370
    15
100
AcDbLine
 10
-5.7708982606
 20
-3.9746601587
 30
0.0
 11
-5.9277931387
 21
-3.7969932826
 31
0.0
  0
LINE
  5
208
330
1F
100
AcDbEntity
  8
0
  6
Continuous
 62
     7
370
    15
100
AcDbLine
 10
-6.2068892388
 20
-3.8699162542
 30
0.0
 11
-5.7708982606
 21
-3.9746601587
 31
0.0
  0
LINE
  5
209
330
1F
100
AcDbEntity
  8
0
  6
Continuous
 62
     7
370
    15
100
AcDbLine
 10
-6.3956050499
 20
-4.1638179272
 30
0.0
 11
-6.2068892388
 21
-3.8699162542
 31
0.0
  0
LINE
  5
20A
330
1F
100
AcDbEntity
  8
0
  6
Continuous
 62
     7
370
    15
100
AcDbLine
 10
-6.350407715
 20
-4.5127333492
 30
0.0
 11
-5.9385034153
 21
-4.777244855
 31
0.0
  0
LINE
  5
20B
330
1F
100
AcDbEntity
  8
0
  6
Continuous
 62
     7
370
    15
100
AcDbLine
 10
-6.6173499865
 20
-4.5080927965
 30
0.0
 11
-6.5152578263
 21
-4.3492091101
 31
0.0
  0
LINE
  5
20C
330
1F
100
AcDbEntity
  8
0
  6
Continuous
 62
     7
370
    15
100
AcDbLine
 10
-5.9842460065
 20
-4.8477370608
 30
0.0
 11
-6.3957083488
 21
-4.5834465337
 31
0.0
  0
LINE
  5
20D
330
1F
100
AcDbEntity
  8
0
  6
Continuous
 62
     7
370
    15
100
AcDbLine
 10
-5.8068001092
 20
-5.1814149001
 30
0.0
 11
-5.8896671222
 21
-5.1281590331
 31
0.0
  0
LINE
  5
20E
330
1F
100
AcDbEntity
  8
0
  6
Continuous
 62
     7
370
    15
100
AcDbLine
 10
-6.3580803536
 20
-6.0011563836
 30
0.0
 11
-6.40293903
 21
-5.9324320074
 31
0.0
  0
LINE
  5
20F
330
1F
100
AcDbEntity
  8
0
  6
Continuous
 62
     7
370
    15
100
AcDbLine
 10
-6.1691435638
 20
-5.7070337319
 30
0.0
 11
-6.3580803536
 21
-6.0011563836
 31
0.0
  0
LINE
  5
210
330
1F
100
AcDbEntity
  8
0
  6
Continuous
 62
     7
370
    15
100
AcDbLine
 10
-6.3938789033
 20
-5.5627346397
 30
0.0
 11
-6.1691435638
 21
-5.7070337319
 31
0.0
  0
LINE
  5
211
330
1F
100
AcDbEntity
  8
0
  6
Continuous
 62
     7
370
    15
100
AcDbLine
 10
-6.6314310074
 20
-6.2890916318
 30
0.0
 11
-7.2075224824
 21
-5.4263907809
 31
0.0
  0
LINE
  5
212
330
1F
100
AcDbEntity
  8
0
  6
Continuous
 62
     7
370
    15
100
AcDbLine
 10
-6.5688940349
 20
-6.3293097554
 30
0.0
 11
-6.6314310074
 21
-6.2890916318
 31
0.0
  0
LINE
  5
213
330
1F
100
AcDbEntity
  8
0
  6
Continuous
 62
     7
370
    15
100
AcDbLine
 10
-6.3923320523
 20
-6.0546332294
 30
0.0
 11
-6.5688940349
 21
-6.3293097554
 31
0.0
  0
LINE
  5
214
330
1F
100
AcDbEntity
  8
0
  6
Continuous
 62
     7
370
    15
100
AcDbLine
 10
-6.9584794857
 20
-5.2001085905
 30
0.0
 11
-6.3923320523
 21
-6.0546332294
 31
0.0
  0
LINE
  5
215
330
1F
100
AcDbEntity
  8
0
  6
Continuous
 62
     7
370
    15
100
AcDbLine
 10
-7.0318444146
 20
-5.1530401271
 30
0.0
 11
-6.9584794857
 21
-5.2001085905
 31
0.0
  0
LINE
  5
216
330
1F
100
AcDbEntity
  8
0
  6
Continuous
 62
     7
370
    15
100
AcDbLine
 10
-7.2075224824
 20
-5.4263907809
 30
0.0
 11
-7.0318444146
 21
-5.1530401271
 31
0.0
  0
LINE
  5
217
330
1F
100
AcDbEntity
  8
0
  6
Continuous
 62
     7
370
    15
100
AcDbLine
 10
-9.5
 20
-7.0
 30
0.0
 11
-3.9974431508
 21
1.5593030766
 31
0.0
  0
LINE
  5
218
330
1F
100
AcDbEntity
  8
0
  6
Continuous
 62
     7
370
    15
100
AcDbLine
 10
-3.9974431508
 20
1.5593030766
 30
0.0
 11
-9.5
 21
7.0
 31
0.0
  0
LINE
  5
219
330
1F
100
AcDbEntity
  8
0
  6
Continuous
 62
     7
370
    15
100
AcDbLine
 10
-9.5
 20
7.0
 30
0.0
 11
9.5
 21
7.0
 31
0.0
  0
LINE
  5
21A
330
1F
100
AcDbEntity
  8
0
  6
Continuous
 62
     7
370
    15
100
AcDbLine
 10
9.5
 20
7.0
 30
0.0
 11
4.0352750406
 21
-1.5258283415
 31
0.0
  0
LINE
  5
21B
330
1F
100
AcDbEntity
  8
0
  6
Continuous
 62
     7
370
    15
100
AcDbLine
 10
4.0352750406
 20
-1.5258283415
 30
0.0
 11
9.5
 21
-7.0
 31
0.0
  0
LINE
  5
21C
330
1F
100
AcDbEntity
  8
0
  6
Continuous
 62
     7
370
    15
100
AcDbLine
 10
9.5
 20
-7.0
 30
0.0
 11
-9.5
 21
-7.0
 31
0.0
  0
LINE
  5
21D
330
1F
100
AcDbEntity
  8
0
  6
Continuous
 62
     7
370
    15
100
AcDbLine
 10
0.0611592228
 20
1.1362921081
 30
0.0
 11
-1.2005985843
 21
1.9474439042
 31
0.0
  0
LINE
  5
21E
330
1F
100
AcDbEntity
  8
0
  6
Continuous
 62
     7
370
    15
100
AcDbLine
 10
1.3319637033
 20
3.1130460059
 30
0.0
 11
0.0611592228
 21
1.1362921081
 31
0.0
  0
LINE
  5
21F
330
1F
100
AcDbEntity
  8
0
  6
Continuous
 62
     7
370
    15
100
AcDbLine
 10
0.0702058962
 20
3.9241978019
 30
0.0
 11
1.3319637033
 21
3.1130460059
 31
0.0
  0
LINE
  5
220
330
1F
100
AcDbEntity
  8
0
  6
Continuous
 62
     7
370
    15
100
AcDbLine
 10
-1.2005985843
 20
1.9474439042
 30
0.0
 11
0.0702058962
 21
3.9241978019
 31
0.0
  0
LINE
  5
221
330
1F
100
AcDbEntity
  8
0
  6
Continuous
 62
     7
370
    15
100
AcDbLine
 10
-7.2472986487
 20
-5.488485796
 30
0.0
 11
-7.1949266964
 21
-5.566270299
 31
0.0
  0
LINE
  5
222
330
1F
100
AcDbEntity
  8
0
  6
Continuous
 62
     7
370
    15
100
AcDbLine
 10
-7.422534759
 20
-5.7611735137
 30
0.0
 11
-7.2472986487
 21
-5.488485796
 31
0.0
  0
LINE
  5
223
330
1F
100
AcDbEntity
  8
0
  6
Continuous
 62
     7
370
    15
100
AcDbLine
 10
-7.1969155047
 20
-5.9059145633
 30
0.0
 11
-7.422534759
 21
-5.7611735137
 31
0.0
  0
LINE
  5
224
330
1F
100
AcDbEntity
  8
0
  6
Continuous
 62
     7
370
    15
100
AcDbLine
 10
-5.8430406162
 20
-5.237764469
 30
0.0
 11
-5.8518797643
 21
-5.2514651485
 31
0.0
  0
LINE
  5
225
330
1F
100
AcDbEntity
  8
0
  6
Continuous
 62
     7
370
    15
100
AcDbLine
 10
-5.9254656719
 20
-5.1849505594
 30
0.0
 11
-5.8430406162
 21
-5.237764469
 31
0.0
  0
LINE
  5
226
330
1F
100
AcDbEntity
  8
0
  6
Continuous
 62
     7
370
    15
100
AcDbLine
 10
-6.6524856
 20
-4.8181259148
 30
0.0
 11
-6.1216947589
 21
-5.1590960513
 31
0.0
  0
LINE
  5
227
330
1F
100
AcDbEntity
  8
0
  6
Continuous
 62
     7
370
    15
100
AcDbLine
 10
-6.7576714619
 20
-4.7266407323
 30
0.0
 11
-6.7404351232
 21
-4.7056477557
 31
0.0
  0
LINE
  5
228
330
1F
100
AcDbEntity
  8
0
  6
Continuous
 62
     7
370
    15
100
AcDbLine
 10
-6.7680574609
 20
-4.7429931563
 30
0.0
 11
-6.7576714619
 21
-4.7266407323
 31
0.0
  0
LINE
  5
229
330
1F
100
AcDbEntity
  8
0
  6
Continuous
 62
     7
370
    15
100
AcDbLine
 10
-6.9505858684
 20
-5.0271717665
 30
0.0
 11
-6.7680574609
 21
-4.7429931563
 31
0.0
  0
LINE
  5
22A
330
1F
100
AcDbEntity
  8
0
  6
Continuous
 62
     7
370
    15
100
AcDbLine
 10
-6.9622977396
 20
-5.04529202
 30
0.0
 11
-6.9505858684
 21
-5.0271717665
 31
0.0
  0
LINE
  5
22B
330
1F
100
AcDbEntity
  8
0
  6
Continuous
 62
     7
370
    15
100
AcDbLine
 10
-6.3389168225
 20
-5.4189670043
 30
0.0
 11
-6.8341300927
 21
-5.1009786528
 31
0.0
  0
LINE
  5
22C
330
1F
100
AcDbEntity
  8
0
  6
Continuous
 62
     7
370
    15
100
AcDbLine
 10
-5.2025410402
 20
-4.2035940935
 30
0.0
 11
-5.2149158475
 21
-4.2225982618
 31
0.0
  0
LINE
  5
22D
330
1F
100
AcDbEntity
  8
0
  6
Continuous
 62
     7
370
    15
100
AcDbLine
 10
-5.0204545901
 20
-3.9200784194
 30
0.0
 11
-5.2025410402
 21
-4.2035940935
 31
0.0
  0
LINE
  5
22E
330
1F
100
AcDbEntity
  8
0
  6
Continuous
 62
     7
370
    15
100
AcDbLine
 10
-5.0096266338
 20
-3.9030630594
 30
0.0
 11
-5.0204545901
 21
-3.9200784194
 31
0.0
  0
LINE
  5
22F
330
1F
100
AcDbEntity
  8
0
  6
Continuous
 62
     7
370
    15
100
AcDbLine
 10
-5.7671416227
 20
-3.440554637
 30
0.0
 11
-5.1351425363
 21
-3.8464925118
 31
0.0
  0
LINE
  5
230
330
1F
100
AcDbEntity
  8
0
  6
Continuous
 62
     7
370
    15
100
AcDbLine
 10
-5.883155441
 20
-3.3660848146
 30
0.0
 11
-5.8723274846
 21
-3.3490694546
 31
0.0
  0
LINE
  5
231
330
1F
100
AcDbEntity
  8
0
  6
Continuous
 62
     7
370
    15
100
AcDbLine
 10
-6.0650209124
 20
-3.6489375526
 30
0.0
 11
-5.883155441
 21
-3.3660848146
 31
0.0
  0
LINE
  5
232
330
1F
100
AcDbEntity
  8
0
  6
Continuous
 62
     7
370
    15
100
AcDbLine
 10
-5.3220905178
 20
-4.1260305693
 30
0.0
 11
-6.0650209124
 21
-3.6489375526
 31
0.0
  0
LINE
  5
233
330
1F
100
AcDbEntity
  8
0
  6
Continuous
 62
     7
370
    15
100
AcDbLine
 10
-5.4255085501
 20
-4.550530655
 30
0.0
 11
-5.5293685398
 21
-4.7122870645
 31
0.0
  0
LINE
  5
234
330
1F
100
AcDbEntity
  8
0
  6
Continuous
 62
     7
370
    15
100
AcDbLine
 10
-5.5037350104
 20
-4.4977167453
 30
0.0
 11
-5.4732399496
 21
-4.4833531297
 31
0.0
  0
LINE
  5
235
330
1F
100
AcDbEntity
  8
0
  6
Continuous
 62
     7
370
    15
100
AcDbLine
 10
-5.836528935
 20
-4.3547435254
 30
0.0
 11
-5.6467082304
 21
-4.4767237686
 31
0.0
  0
LINE
  5
236
330
1F
100
AcDbEntity
  8
0
  6
Continuous
 62
     7
370
    15
100
AcDbLine
 10
-6.0723132096
 20
-4.3032554879
 30
0.0
 11
-5.836528935
 21
-4.3547435254
 31
0.0
  0
LINE
  5
237
330
1F
100
AcDbEntity
  8
0
  6
Continuous
 62
     7
370
    15
100
AcDbLine
 10
-5.6922298429
 20
-4.5474369531
 30
0.0
 11
-6.0723132096
 21
-4.3032554879
 31
0.0
  0
LINE
  5
238
330
1F
100
AcDbEntity
  8
0
  6
Continuous
 62
     7
370
    15
100
AcDbLine
 10
-5.4297136992
 20
-2.6614102593
 30
0.0
 11
-5.2416608242
 21
-2.3686134798
 31
0.0
  0
LINE
  5
239
330
1F
100
AcDbEntity
  8
0
  6
Continuous
 62
     7
370
    15
100
AcDbLine
 10
-4.4938688981
 20
-2.8220617753
 30
0.0
 11
-5.3172355401
 21
-2.7294716994
 31
0.0
  0
LINE
  5
23A
330
1F
100
AcDbEntity
  8
0
  6
Continuous
 62
     7
370
    15
100
AcDbLine
 10
-4.1566553995
 20
-2.5763334592
 30
0.0
 11
-4.3458131681
 21
-2.8711190471
 31
0.0
  0
LINE
  5
23B
330
1F
100
AcDbEntity
  8
0
  6
Continuous
 62
     7
370
    15
100
AcDbLine
 10
-5.1084106671
 20
-2.4044120294
 30
0.0
 11
-4.2660398568
 21
-2.5144594228
 31
0.0
  0
LINE
  5
23C
330
1F
100
AcDbEntity
  8
0
  6
Continuous
 62
     7
370
    15
100
AcDbLine
 10
-4.4688983048
 20
-3.0627075813
 30
0.0
 11
-4.573200252
 21
-3.2249059483
 31
0.0
  0
LINE
  5
23D
330
1F
100
AcDbEntity
  8
0
  6
Continuous
 62
     7
370
    15
100
AcDbLine
 10
-4.6741875186
 20
-2.8636057712
 30
0.0
 11
-4.6359582032
 21
-2.9440420186
 31
0.0
  0
LINE
  5
23E
330
1F
100
AcDbEntity
  8
0
  6
Continuous
 62
     7
370
    15
100
AcDbLine
 10
-4.7681034667
 20
-2.8518939001
 30
0.0
 11
-4.6741875186
 21
-2.8636057712
 31
0.0
  0
LINE
  5
23F
330
1F
100
AcDbEntity
  8
0
  6
Continuous
 62
     7
370
    15
100
AcDbLine
 10
-4.6618127113
 20
-3.0843634941
 30
0.0
 11
-4.7681034667
 21
-2.8518939001
 31
0.0
  0
LINE
  5
240
330
1F
100
AcDbEntity
  8
0
  6
Continuous
 62
     7
370
    15
100
AcDbLine
 10
7.7156668558
 20
5.8101895824
 30
0.0
 11
7.1515082308
 21
6.172594653
 31
0.0
  0
LINE
  5
241
330
1F
100
AcDbEntity
  8
0
  6
Continuous
 62
     7
370
    15
100
AcDbLine
 10
7.853999523
 20
5.6413618544
 30
0.0
 11
7.784391232
 21
5.6859995521
 31
0.0
  0
LINE
  5
242
330
1F
100
AcDbEntity
  8
0
  6
Continuous
 62
     7
370
    15
100
AcDbLine
 10
7.0257713496
 20
6.1732575891
 30
0.0
 11
6.9570469734
 21
6.2174533294
 31
0.0
  0
LINE
  5
243
330
1F
100
AcDbEntity
  8
0
  6
Continuous
 62
     7
370
    15
100
AcDbLine
 10
5.8917998853
 20
4.5186468
 30
0.0
 11
5.902406863
 21
4.5349992239
 31
0.0
  0
LINE
  5
244
330
1F
100
AcDbEntity
  8
0
  6
Continuous
 62
     7
370
    15
100
AcDbLine
 10
6.6508617251
 20
4.0552544628
 30
0.0
 11
6.0188626387
 21
4.4611923376
 31
0.0
  0
LINE
  5
245
330
1F
100
AcDbEntity
  8
0
  6
Continuous
 62
     7
370
    15
100
AcDbLine
 10
6.7651077138
 20
3.9810056191
 30
0.0
 11
6.7545007362
 21
3.9646531952
 31
0.0
  0
LINE
  5
246
330
1F
100
AcDbEntity
  8
0
  6
Continuous
 62
     7
370
    15
100
AcDbLine
 10
6.9471941639
 20
4.2645212932
 30
0.0
 11
6.7651077138
 21
3.9810056191
 31
0.0
  0
LINE
  5
247
330
1F
100
AcDbEntity
  8
0
  6
Continuous
 62
     7
370
    15
100
AcDbLine
 10
6.084493313
 20
4.818514898
 30
0.0
 11
6.9471941639
 21
4.2645212932
 31
0.0
  0
LINE
  5
248
330
1F
100
AcDbEntity
  8
0
  6
Continuous
 62
     7
370
    15
100
AcDbLine
 10
5.902406863
 20
4.5349992239
 30
0.0
 11
6.084493313
 21
4.818514898
 31
0.0
  0
LINE
  5
249
330
1F
100
AcDbEntity
  8
0
  6
Continuous
 62
     7
370
    15
100
AcDbLine
 10
6.1578751796
 20
3.6559275021
 30
0.0
 11
5.5660942169
 21
3.8724866296
 31
0.0
  0
LINE
  5
24A
330
1F
100
AcDbEntity
  8
0
  6
Continuous
 62
     7
370
    15
100
AcDbLine
 10
6.0674948907
 20
3.5151640692
 30
0.0
 11
6.1578751796
 21
3.6559275021
 31
0.0
  0
LINE
  5
24B
330
1F
100
AcDbEntity
  8
0
  6
Continuous
 62
     7
370
    15
100
AcDbLine
 10
6.1271591401
 20
3.4528480753
 30
0.0
 11
6.0674948907
 21
3.5151640692
 31
0.0
  0
LINE
  5
24C
330
1F
100
AcDbEntity
  8
0
  6
Continuous
 62
     7
370
    15
100
AcDbLine
 10
6.2396372992
 20
3.6280841857
 30
0.0
 11
6.1271591401
 21
3.4528480753
 31
0.0
  0
LINE
  5
24D
330
1F
100
AcDbEntity
  8
0
  6
Continuous
 62
     7
370
    15
100
AcDbLine
 10
6.341950438
 20
3.5847723602
 30
0.0
 11
6.2396372992
 21
3.6280841857
 31
0.0
  0
LINE
  5
24E
330
1F
100
AcDbEntity
  8
0
  6
Continuous
 62
     7
370
    15
100
AcDbLine
 10
6.6617066192
 20
3.8185678264
 30
0.0
 11
6.4603950221
 21
3.5049990489
 31
0.0
  0
LINE
  5
24F
330
1F
100
AcDbEntity
  8
0
  6
Continuous
 62
     7
370
    15
100
AcDbLine
 10
5.6763625889
 20
4.1816358331
 30
0.0
 11
6.5291193982
 21
3.8758013101
 31
0.0
  0
LINE
  5
250
330
1F
100
AcDbEntity
  8
0
  6
Continuous
 62
     7
370
    15
100
AcDbLine
 10
5.5137222646
 20
3.9283942411
 30
0.0
 11
5.6763625889
 21
4.1816358331
 31
0.0
  0
LINE
  5
251
330
1F
100
AcDbEntity
  8
0
  6
Continuous
 62
     7
370
    15
100
AcDbLine
 10
5.5660942169
 20
3.8724866296
 30
0.0
 11
5.5137222646
 21
3.9283942411
 31
0.0
  0
LINE
  5
252
330
1F
100
AcDbEntity
  8
0
  6
Continuous
 62
     7
370
    15
100
AcDbLine
 10
4.8004585089
 20
2.8159830235
 30
0.0
 11
4.8110654866
 21
2.8323354474
 31
0.0
  0
LINE
  5
253
330
1F
100
AcDbEntity
  8
0
  6
Continuous
 62
     7
370
    15
100
AcDbLine
 10
5.5595203488
 20
2.3525906863
 30
0.0
 11
4.9275212623
 21
2.758528561
 31
0.0
  0
LINE
  5
254
330
1F
100
AcDbEntity
  8
0
  6
Continuous
 62
     7
370
    15
100
AcDbLine
 10
5.6737663375
 20
2.2783418426
 30
0.0
 11
5.6631593598
 21
2.2619894186
 31
0.0
  0
LINE
  5
255
330
1F
100
AcDbEntity
  8
0
  6
Continuous
 62
     7
370
    15
100
AcDbLine
 10
5.856294745
 20
2.5625204528
 30
0.0
 11
5.6737663375
 21
2.2783418426
 31
0.0
  0
LINE
  5
256
330
1F
100
AcDbEntity
  8
0
  6
Continuous
 62
     7
370
    15
100
AcDbLine
 10
5.871100318
 20
2.5857232164
 30
0.0
 11
5.856294745
 21
2.5625204528
 31
0.0
  0
LINE
  5
257
330
1F
100
AcDbEntity
  8
0
  6
Continuous
 62
     7
370
    15
100
AcDbLine
 10
4.9931519367
 20
3.1158511215
 30
0.0
 11
5.7360823313
 21
2.6387581048
 31
0.0
  0
LINE
  5
258
330
1F
100
AcDbEntity
  8
0
  6
Continuous
 62
     7
370
    15
100
AcDbLine
 10
4.8110654866
 20
2.8323354474
 30
0.0
 11
4.9931519367
 21
3.1158511215
 31
0.0
  0
LINE
  5
259
330
1F
100
AcDbEntity
  8
0
  6
Continuous
 62
     7
370
    15
100
AcDbLine
 10
8.1906950246
 20
5.2352482602
 30
0.0
 11
7.9381238857
 21
5.3971365544
 31
0.0
  0
LINE
  5
25A
330
1F
100
AcDbEntity
  8
0
  6
Continuous
 62
     7
370
    15
100
AcDbLine
 10
7.9381238857
 20
5.3971365544
 30
0.0
 11
6.5890547674
 21
3.2923770636
 31
0.0
  0
LINE
  5
25B
330
1F
100
AcDbEntity
  8
0
  6
Continuous
 62
     7
370
    15
100
AcDbLine
 10
6.5890547674
 20
3.2923770636
 30
0.0
 11
6.8416259063
 21
3.1304887694
 31
0.0
  0
LINE
  5
25C
330
1F
100
AcDbEntity
  8
0
  6
Continuous
 62
     7
370
    15
100
AcDbLine
 10
6.8416259063
 20
3.1304887694
 30
0.0
 11
8.1906950246
 21
5.2352482602
 31
0.0
  0
LINE
  5
25D
330
1F
100
AcDbEntity
  8
0
  6
Continuous
 62
     7
370
    15
100
AcDbLine
 10
-5.65
 20
6.5
 30
0.0
 11
-5.65
 21
5.5
 31
0.0
  0
LINE
  5
25E
330
1F
100
AcDbEntity
  8
0
  6
Continuous
 62
     7
370
    15
100
AcDbLine
 10
-5.65
 20
5.5
 30
0.0
 11
-5.35
 21
5.5
 31
0.0
  0
LINE
  5
25F
330
1F
100
AcDbEntity
  8
0
  6
Continuous
 62
     7
370
    15
100
AcDbLine
 10
-5.35
 20
5.5
 30
0.0
 11
-5.35
 21
6.5
 31
0.0
  0
LINE
  5
260
330
1F
100
AcDbEntity
  8
0
  6
Continuous
 62
     7
370
    15
100
AcDbLine
 10
-5.35
 20
6.5
 30
0.0
 11
-5.65
 21
6.5
 31
0.0
  0
LINE
  5
261
330
1F
100
AcDbEntity
  8
0
  6
Continuous
 62
     7
370
    15
100
AcDbLine
 10
5.35
 20
6.3
 30
0.0
 11
5.35
 21
5.3
 31
0.0
  0
LINE
  5
262
330
1F
100
AcDbEntity
  8
0
  6
Continuous
 62
     7
370
    15
100
AcDbLine
 10
5.35
 20
5.3
 30
0.0
 11
5.65
 21
5.3
 31
0.0
  0
LINE
  5
263
330
1F
100
AcDbEntity
  8
0
  6
Continuous
 62
     7
370
    15
100
AcDbLine
 10
5.65
 20
5.3
 30
0.0
 11
5.65
 21
6.3
 31
0.0
  0
LINE
  5
264
330
1F
100
AcDbEntity
  8
0
  6
Continuous
 62
     7
370
    15
100
AcDbLine
 10
5.65
 20
6.3
 30
0.0
 11
5.35
 21
6.3
 31
0.0
  0
LINE
  5
265
330
1F
100
AcDbEntity
  8
0
  6
Continuous
 62
     7
370
    15
100
AcDbLine
 10
-7.196589044
 20
-6.55
 30
0.0
 11
-7.196589044
 21
-6.85
 31
0.0
  0
LINE
  5
266
330
1F
100
AcDbEntity
  8
0
  6
Continuous
 62
     7
370
    15
100
AcDbLine
 10
-7.196589044
 20
-6.85
 30
0.0
 11
-4.696589044
 21
-6.85
 31
0.0
  0
LINE
  5
267
330
1F
100
AcDbEntity
  8
0
  6
Continuous
 62
     7
370
    15
100
AcDbLine
 10
-4.696589044
 20
-6.85
 30
0.0
 11
-4.696589044
 21
-6.55
 31
0.0
  0
LINE
  5
268
330
1F
100
AcDbEntity
  8
0
  6
Continuous
 62
     7
370
    15
100
AcDbLine
 10
-4.696589044
 20
-6.55
 30
0.0
 11
-7.196589044
 21
-6.55
 31
0.0
  0
LINE
  5
269
330
1F
100
AcDbEntity
  8
0
  6
Continuous
 62
     7
370
    15
100
AcDbLine
 10
-7.0455043266
 20
4.7840408548
 30
0.0
 11
-6.8345748002
 21
4.9973686189
 31
0.0
  0
LINE
  5
26A
330
1F
100
AcDbEntity
  8
0
  6
Continuous
 62
     7
370
    15
100
AcDbLine
 10
-6.8345748002
 20
4.9973686189
 30
0.0
 11
-7.5456673472
 21
5.7004670399
 31
0.0
  0
LINE
  5
26B
330
1F
100
AcDbEntity
  8
0
  6
Continuous
 62
     7
370
    15
100
AcDbLine
 10
-7.5456673472
 20
5.7004670399
 30
0.0
 11
-7.7565968735
 21
5.4871392759
 31
0.0
  0
LINE
  5
26C
330
1F
100
AcDbEntity
  8
0
  6
Continuous
 62
     7
370
    15
100
AcDbLine
 10
-7.7565968735
 20
5.4871392759
 30
0.0
 11
-7.0455043266
 21
4.7840408548
 31
0.0
  0
LINE
  5
26D
330
1F
100
AcDbEntity
  8
0
  6
Continuous
 62
     7
370
    15
100
AcDbLine
 10
-4.9097816043
 20
2.6772184734
 30
0.0
 11
-4.6988520779
 21
2.8905462374
 31
0.0
  0
LINE
  5
26E
330
1F
100
AcDbEntity
  8
0
  6
Continuous
 62
     7
370
    15
100
AcDbLine
 10
-4.6988520779
 20
2.8905462374
 30
0.0
 11
-5.4099446249
 21
3.5936446585
 31
0.0
  0
LINE
  5
26F
330
1F
100
AcDbEntity
  8
0
  6
Continuous
 62
     7
370
    15
100
AcDbLine
 10
-5.4099446249
 20
3.5936446585
 30
0.0
 11
-5.6208741512
 21
3.3803168944
 31
0.0
  0
LINE
  5
270
330
1F
100
AcDbEntity
  8
0
  6
Continuous
 62
     7
370
    15
100
AcDbLine
 10
-5.6208741512
 20
3.3803168944
 30
0.0
 11
-4.9097816043
 21
2.6772184734
 31
0.0
  0
LINE
  5
271
330
1F
100
AcDbEntity
  8
0
  6
Continuous
 62
     7
370
    15
100
AcDbLine
 10
7.5569525338
 20
-5.690540048
 30
0.0
 11
7.7692676836
 21
-5.4785912873
 31
0.0
  0
LINE
  5
272
330
1F
100
AcDbEntity
  8
0
  6
Continuous
 62
     7
370
    15
100
AcDbLine
 10
7.7692676836
 20
-5.4785912873
 30
0.0
 11
7.0673984923
 21
-4.7662854273
 31
0.0
  0
LINE
  5
273
330
1F
100
AcDbEntity
  8
0
  6
Continuous
 62
     7
370
    15
100
AcDbLine
 10
7.0673984923
 20
-4.7662854273
 30
0.0
 11
6.9559086672
 21
-4.8761417092
 31
0.0
  0
LINE
  5
274
330
1F
100
AcDbEntity
  8
0
  6
Continuous
 62
     7
370
    15
100
AcDbLine
 10
6.9559086672
 20
-4.8761417092
 30
0.0
 11
6.8458599868
 21
-4.9874416269
 31
0.0
  0
LINE
  5
275
330
1F
100
AcDbEntity
  8
0
  6
Continuous
 62
     7
370
    15
100
AcDbLine
 10
6.8458599868
 20
-4.9874416269
 30
0.0
 11
7.5569525338
 21
-5.690540048
 31
0.0
  0
LINE
  5
276
330
1F
100
AcDbEntity
  8
0
  6
Continuous
 62
     7
370
    15
100
AcDbLine
 10
5.4374649272
 20
-3.5673885495
 30
0.0
 11
5.6497800771
 21
-3.3554397888
 31
0.0
  0
LINE
  5
277
330
1F
100
AcDbEntity
  8
0
  6
Continuous
 62
     7
370
    15
100
AcDbLine
 10
5.6497800771
 20
-3.3554397888
 30
0.0
 11
4.9479108857
 21
-2.6431339288
 31
0.0
  0
LINE
  5
278
330
1F
100
AcDbEntity
  8
0
  6
Continuous
 62
     7
370
    15
100
AcDbLine
 10
4.9479108857
 20
-2.6431339288
 30
0.0
 11
4.8364210607
 21
-2.7529902107
 31
0.0
  0
LINE
  5
279
330
1F
100
AcDbEntity
  8
0
  6
Continuous
 62
     7
370
    15
100
AcDbLine
 10
4.8364210607
 20
-2.7529902107
 30
0.0
 11
4.7263723803
 21
-2.8642901284
 31
0.0
  0
LINE
  5
27A
330
1F
100
AcDbEntity
  8
0
  6
Continuous
 62
     7
370
    15
100
AcDbLine
 10
4.7263723803
 20
-2.8642901284
 30
0.0
 11
5.4374649272
 21
-3.5673885495
 31
0.0
  0
LINE
  5
27B
330
1F
100
AcDbEntity
  8
0
  6
Continuous
 62
     7
370
    15
100
AcDbLine
 10
-6.5837235245
 20
-3.2958417583
 30
0.0
 11
-6.8360750859
 21
-3.1336113991
 31
0.0
  0
LINE
  5
27C
330
1F
100
AcDbEntity
  8
0
  6
Continuous
 62
     7
370
    15
100
AcDbLine
 10
-6.8360750859
 20
-3.1336113991
 30
0.0
 11
-8.187994746
 21
-5.2365410776
 31
0.0
  0
LINE
  5
27D
330
1F
100
AcDbEntity
  8
0
  6
Continuous
 62
     7
370
    15
100
AcDbLine
 10
-8.187994746
 20
-5.2365410776
 30
0.0
 11
-7.9356431846
 21
-5.3987714368
 31
0.0
  0
LINE
  5
27E
330
1F
100
AcDbEntity
  8
0
  6
Continuous
 62
     7
370
    15
100
AcDbLine
 10
-7.9356431846
 20
-5.3987714368
 30
0.0
 11
-6.5837235245
 21
-3.2958417583
 31
0.0
  0
LINE
  5
27F
330
1F
100
AcDbEntity
  8
0
  6
Continuous
 62
     7
370
    15
100
AcDbLine
 10
-4.4001033539
 20
0.0556354847
 30
0.0
 11
-4.6524549153
 21
0.2178658439
 31
0.0
  0
LINE
  5
280
330
1F
100
AcDbEntity
  8
0
  6
Continuous
 62
     7
370
    15
100
AcDbLine
 10
-4.6524549153
 20
0.2178658439
 30
0.0
 11
-6.0043745754
 21
-1.8850638346
 31
0.0
  0
LINE
  5
281
330
1F
100
AcDbEntity
  8
0
  6
Continuous
 62
     7
370
    15
100
AcDbLine
 10
-6.0043745754
 20
-1.8850638346
 30
0.0
 11
-5.752023014
 21
-2.0472941938
 31
0.0
  0
LINE
  5
282
330
1F
100
AcDbEntity
  8
0
  6
Continuous
 62
     7
370
    15
100
AcDbLine
 10
-5.752023014
 20
-2.0472941938
 30
0.0
 11
-4.4001033539
 21
0.0556354847
 31
0.0
  0
LINE
  5
283
330
1F
100
AcDbEntity
  8
0
  6
Continuous
 62
     7
370
    15
100
AcDbLine
 10
4.6831153171
 20
-0.2371264159
 30
0.0
 11
6.0321844354
 21
1.8676330749
 31
0.0
  0
LINE
  5
284
330
1F
100
AcDbEntity
  8
0
  6
Continuous
 62
     7
370
    15
100
AcDbLine
 10
6.0321844354
 20
1.8676330749
 30
0.0
 11
5.7796132965
 21
2.0295213691
 31
0.0
  0
LINE
  5
285
330
1F
100
AcDbEntity
  8
0
  6
Continuous
 62
     7
370
    15
100
AcDbLine
 10
5.7796132965
 20
2.0295213691
 30
0.0
 11
4.4305441782
 21
-0.0752381217
 31
0.0
  0
LINE
  5
286
330
1F
100
AcDbEntity
  8
0
  6
Continuous
 62
     7
370
    15
100
AcDbLine
 10
4.4305441782
 20
-0.0752381217
 30
0.0
 11
4.6831153171
 21
-0.2371264159
 31
0.0
  0
LINE
  5
287
330
1F
100
AcDbEntity
  8
0
  6
Continuous
 62
     7
370
    15
100
AcDbLine
 10
-3.196589044
 20
-6.55
 30
0.0
 11
-3.196589044
 21
-6.85
 31
0.0
  0
LINE
  5
288
330
1F
100
AcDbEntity
  8
0
  6
Continuous
 62
     7
370
    15
100
AcDbLine
 10
-3.196589044
 20
-6.85
 30
0.0
 11
-0.696589044
 21
-6.85
 31
0.0
  0
LINE
  5
289
330
1F
100
AcDbEntity
  8
0
  6
Continuous
 62
     7
370
    15
100
AcDbLine
 10
-0.696589044
 20
-6.85
 30
0.0
 11
-0.696589044
 21
-6.55
 31
0.0
  0
LINE
  5
28A
330
1F
100
AcDbEntity
  8
0
  6
Continuous
 62
     7
370
    15
100
AcDbLine
 10
-0.696589044
 20
-6.55
 30
0.0
 11
-3.196589044
 21
-6.55
 31
0.0
  0
LINE
  5
28B
330
1F
100
AcDbEntity
  8
0
  6
Continuous
 62
     7
370
    15
100
AcDbLine
 10
0.803410956
 20
-6.55
 30
0.0
 11
0.803410956
 21
-6.85
 31
0.0
  0
LINE
  5
28C
330
1F
100
AcDbEntity
  8
0
  6
Continuous
 62
     7
370
    15
100
AcDbLine
 10
0.803410956
 20
-6.85
 30
0.0
 11
3.303410956
 21
-6.85
 31
0.0
  0
LINE
  5
28D
330
1F
100
AcDbEntity
  8
0
  6
Continuous
 62
     7
370
    15
100
AcDbLine
 10
3.303410956
 20
-6.85
 30
0.0
 11
3.303410956
 21
-6.55
 31
0.0
  0
LINE
  5
28E
330
1F
100
AcDbEntity
  8
0
  6
Continuous
 62
     7
370
    15
100
AcDbLine
 10
3.303410956
 20
-6.55
 30
0.0
 11
0.803410956
 21
-6.55
 31
0.0
  0
LINE
  5
28F
330
1F
100
AcDbEntity
  8
0
  6
Continuous
 62
     7
370
    15
100
AcDbLine
 10
4.803410956
 20
-6.55
 30
0.0
 11
4.803410956
 21
-6.85
 31
0.0
  0
LINE
  5
290
330
1F
100
AcDbEntity
  8
0
  6
Continuous
 62
     7
370
    15
100
AcDbLine
 10
4.803410956
 20
-6.85
 30
0.0
 11
7.303410956
 21
-6.85
 31
0.0
  0
LINE
  5
291
330
1F
100
AcDbEntity
  8
0
  6
Continuous
 62
     7
370
    15
100
AcDbLine
 10
7.303410956
 20
-6.85
 30
0.0
 11
7.303410956
 21
-6.55
 31
0.0
  0
LINE
  5
292
330
1F
100
AcDbEntity
  8
0
  6
Continuous
 62
     7
370
    15
100
AcDbLine
 10
7.303410956
 20
-6.55
 30
0.0
 11
4.803410956
 21
-6.55
 31
0.0
  0
MTEXT
  5
294
330
1F
100
AcDbEntity
  8
0
  6
Continuous
 62
     7
100
AcDbMText
 10
-9.5
 20
-7.0401404091
 30
0.0
 40
0.1903
 41
0.0
 71
     1
 72
     1
  1
SolidWorks Student Edition.
  7
SLDTEXTSTYLE0
 73
     1
 44
1.0
  0
MTEXT
  5
295
330
1F
100
AcDbEntity
  8
0
  6
Continuous
 62
     7
100
AcDbMText
 10
-9.5
 20
-7.3255904091
 30
0.0
 40
0.1903
 41
0.0
 71
     1
 72
     1
  1
For Academic Use Only.
  7
SLDTEXTSTYLE0
 73
     1
 44
1.0
  0
ENDSEC
  0
SECTION
  2
OBJECTS
  0
DICTIONARY
  5
C
330
0
100
AcDbDictionary
281
     1
  3
ACAD_GROUP
350
D
  3
ACAD_LAYOUT
350
1A
  3
ACAD_MLINESTYLE
350
17
  3
ACAD_PLOTSETTINGS
350
19
  3
ACAD_PLOTSTYLENAME
350
E
  0
DICTIONARY
  5
D
102
{ACAD_REACTORS
330
C
102
}
330
C
100
AcDbDictionary
281
     1
  0
DICTIONARY
  5
1A
102
{ACAD_REACTORS
330
C
102
}
330
C
100
AcDbDictionary
281
     1
  3
Layout1
350
1E
  3
Layout2
350
26
  3
Model
350
22
  0
DICTIONARY
  5
17
102
{ACAD_REACTORS
330
C
102
}
330
C
100
AcDbDictionary
281
     1
  3
Standard
350
18
  0
DICTIONARY
  5
19
102
{ACAD_REACTORS
330
C
102
}
330
C
100
AcDbDictionary
281
     1
  0
ACDBDICTIONARYWDFLT
  5
E
102
{ACAD_REACTORS
330
C
102
}
330
C
100
AcDbDictionary
281
     1
  3
Normal
350
F
100
AcDbDictionaryWithDefault
340
F
  0
LAYOUT
  5
1E
102
{ACAD_REACTORS
330
1A
102
}
330
1A
100
AcDbPlotSettings
  1

  2
none_device
  4

  6

 40
0.0
 41
0.0
 42
0.0
 43
0.0
 44
0.0
 45
0.0
 46
0.0
 47
0.0
 48
0.0
 49
0.0
140
0.0
141
0.0
142
1.0
143
1.0
 70
   688
 72
     0
 73
     0
 74
     5
  7

 75
    16
147
1.0
148
0.0
149
0.0
100
AcDbLayout
  1
Layout1
 70
     1
 71
     1
 10
0.0
 20
0.0
 11
12.0
 21
9.0
 12
0.0
 22
0.0
 32
0.0
 14
1.0000000000E+20
 24
1.0000000000E+20
 34
1.0000000000E+20
 15
-1.0000000000E+20
 25
-1.0000000000E+20
 35
-1.0000000000E+20
146
0.0
 13
0.0
 23
0.0
 33
0.0
 16
1.0
 26
0.0
 36
0.0
 17
0.0
 27
1.0
 37
0.0
 76
     0
330
1B
  0
LAYOUT
  5
26
102
{ACAD_REACTORS
330
1A
102
}
330
1A
100
AcDbPlotSettings
  1

  2
none_device
  4

  6

 40
0.0
 41
0.0
 42
0.0
 43
0.0
 44
0.0
 45
0.0
 46
0.0
 47
0.0
 48
0.0
 49
0.0
140
0.0
141
0.0
142
1.0
143
1.0
 70
   688
 72
     0
 73
     0
 74
     5
  7

 75
    16
147
1.0
148
0.0
149
0.0
100
AcDbLayout
  1
Layout2
 70
     1
 71
     2
 10
0.0
 20
0.0
 11
0.0
 21
0.0
 12
0.0
 22
0.0
 32
0.0
 14
0.0
 24
0.0
 34
0.0
 15
0.0
 25
0.0
 35
0.0
146
0.0
 13
0.0
 23
0.0
 33
0.0
 16
1.0
 26
0.0
 36
0.0
 17
0.0
 27
1.0
 37
0.0
 76
     0
330
23
  0
LAYOUT
  5
22
102
{ACAD_REACTORS
330
1A
102
}
330
1A
100
AcDbPlotSettings
  1

  2
none_device
  4
ANSI_A_(11.00_x_8.50_Inches)
  6

 40
6.35
 41
19.05
 42
6.35000508
 43
19.05000254
 44
279.4
 45
215.9
 46
133.34999746
 47
88.89999873
 48
0.0
 49
0.0
140
0.0
141
0.0
142
0.5731578947
143
1.0
 70
  1696
 72
     0
 73
     0
 74
     0
  7

 75
     0
147
0.5913241897
148
0.0
149
0.0
100
AcDbLayout
  1
Model
 70
     1
 71
     0
 10
0.0
 20
0.0
 11
12.0
 21
9.0
 12
0.0
 22
0.0
 32
0.0
 14
-9.5
 24
-7.0
 34
0.0
 15
9.5
 25
7.0
 35
0.0
146
0.0
 13
0.0
 23
0.0
 33
0.0
 16
1.0
 26
0.0
 36
0.0
 17
0.0
 27
1.0
 37
0.0
 76
     0
330
1F
331
29
  0
MLINESTYLE
  5
18
102
{ACAD_REACTORS
330
17
102
}
330
17
100
AcDbMlineStyle
  2
Standard
 70
     0
  3

 62
   256
 51
90.0
 52
90.0
 71
     2
 49
0.5
 62
   256
  6
BYLAYER
 49
-0.5
 62
   256
  6
BYLAYER
  0
ACDBPLACEHOLDER
  5
F
102
{ACAD_REACTORS
330
E
102
}
330
E
  0
ENDSEC
  0
EOF
