0
SECTION
2
HEADER
9
$INSUNITS
70
4
9
$ACADVER
1
AC1014
9
$HANDSEED
5
FFFF
0
ENDSEC
0
SECTION
2
TABLES
0
TABLE
2
VPORT
5
8
100
AcDbSymbolTable
0
ENDTAB
0
TABLE
2
LTYPE
5
5
100
AcDbSymbolTable
0
LTYPE
5
14
100
AcDbSymbolTableRecord
100
AcDbLinetypeTableRecord
2
BYBLOCK
70
0
0
LTYPE
5
15
100
AcDbSymbolTableRecord
100
AcDbLinetypeTableRecord
2
BYLAYER
70
0
0
ENDTAB
0
TABLE
2
LAYER
5
2
100
AcDbSymbolTable
70
2
0
LAYER
5
50
100
AcDbSymbolTableRecord
100
AcDbLayerTableRecord
2
0
70
0
6
CONTINUOUS
0
ENDTAB
0
TABLE
2
STYLE
5
3
100
AcDbSymbolTable
70
1
0
STYLE
5
11
100
AcDbSymbolTableRecord
100
AcDbTextStyleTableRecord
2
STANDARD
70
0
0
ENDTAB
0
TABLE
2
VIEW
5
6
100
AcDbSymbolTable
70
0
0
ENDTAB
0
TABLE
2
UCS
5
7
100
AcDbSymbolTable
70
0
0
ENDTAB
0
TABLE
2
APPID
5
9
100
AcDbSymbolTable
70
2
0
APPID
5
12
100
AcDbSymbolTableRecord
100
AcDbRegAppTableRecord
2
ACAD
70
0
0
ENDTAB
0
TABLE
2
DIMSTYLE
5
A
100
AcDbSymbolTable
70
1
0
ENDTAB
0
TABLE
2
BLOCK_RECORD
5
1
100
AcDbSymbolTable
70
1
0
BLOCK_RECORD
5
1F
100
AcDbSymbolTableRecord
100
AcDbBlockTableRecord
2
*MODEL_SPACE
0
BLOCK_RECORD
5
1B
100
AcDbSymbolTableRecord
100
AcDbBlockTableRecord
2
*PAPER_SPACE
0
ENDTAB
0
ENDSEC
0
SECTION
2
BLOCKS
0
BLOCK
5
20
100
AcDbEntity
100
AcDbBlockBegin
2
*MODEL_SPACE
0
ENDBLK
5
21
100
AcDbEntity
100
AcDbBlockEnd
0
BLOCK
5
1C
100
AcDbEntity
100
AcDbBlockBegin
2
*PAPER_SPACE
0
ENDBLK
5
1D
100
AcDbEntity
100
AcDbBlockEnd
0
ENDSEC
0
SECTION
2
ENTITIES
0
CIRCLE
5
100
100
AcDbEntity
8
0
100
AcDbCircle
10
9.03597122697537
20
-33.778033405454551
30
0
40
1.5875000000000128
0
CIRCLE
5
101
100
AcDbEntity
8
0
100
AcDbCircle
10
-50.322800855118466
20
-426.99140018943137
30
0
40
1.5875000000000132
0
CIRCLE
5
102
100
AcDbEntity
8
0
100
AcDbCircle
10
3.4007350494787936
20
-71.107818241837677
30
0
40
1.5875000000000128
0
CIRCLE
5
103
100
AcDbEntity
8
0
100
AcDbCircle
10
-44.687564677622049
20
-389.66161535305167
30
0
40
1.5875000000000132
0
CIRCLE
5
104
100
AcDbEntity
8
0
100
AcDbCircle
10
-192.05359906814579
20
-51.569854842287697
30
0
40
1.5875000000000128
0
CIRCLE
5
105
100
AcDbEntity
8
0
100
AcDbCircle
10
-214.62660345219138
20
-201.10136873554001
30
0
40
1.5875000000000008
0
CIRCLE
5
106
100
AcDbEntity
8
0
100
AcDbCircle
10
-237.19960783623702
20
-350.6328826287924
30
0
40
1.5875000000000128
0
ARC
5
107
100
AcDbEntity
8
0
100
AcDbCircle
10
-65.402840637091884
20
-444.94793384088382
30
-4.0389678347315783e-27
40
1.5874999999999952
100
AcDbArc
50
-105.87844482100598
51
71.540647360397884
0
ARC
5
108
100
AcDbEntity
8
0
100
AcDbCircle
10
-65.334523489994154
20
-444.96904090003409
30
-4.0389678347315804e-27
40
1.5874999999995767
100
AcDbArc
50
74.121555178428437
51
251.54064736096362
0
CIRCLE
5
109
100
AcDbEntity
8
0
100
AcDbCircle
10
-598.63811377295133
20
-280.20117676409774
30
-8.0779356694631609e-27
40
1.5874999999999955
0
CIRCLE
5
110
100
AcDbEntity
8
0
100
AcDbCircle
10
-465.32929548898653
20
-321.38786603329424
30
-4.0389678347315804e-27
40
1.5875000000000137
0
CIRCLE
5
111
100
AcDbEntity
8
0
100
AcDbCircle
10
-198.71165892105691
20
-403.76124457168726
30
0
40
1.5875000000000132
0
CIRCLE
5
112
100
AcDbEntity
8
0
100
AcDbCircle
10
-332.02047720502156
20
-362.57455530249081
30
0
40
1.5875000000000132
0
CIRCLE
5
113
100
AcDbEntity
8
0
100
AcDbCircle
10
-731.94693205691601
20
-239.01448749490115
30
-4.0389678347315804e-27
40
1.5874999999999959
0
CIRCLE
5
114
100
AcDbEntity
8
0
100
AcDbCircle
10
-865.25575034088104
20
-197.82779822570461
30
0
40
1.5874999999999959
0
CIRCLE
5
115
100
AcDbEntity
8
0
100
AcDbCircle
10
-998.56456862484595
20
-156.64110895650799
30
-4.0389678347315804e-27
40
1.5874999999999959
0
ELLIPSE
5
116
100
AcDbEntity
8
0
100
AcDbEllipse
10
-0.071503430222357167
20
-12.17020156137373
30
0
11
1.5875000000000132
21
3.5749875282320431e-11
31
0.0
40
0.99999963450158058
41
4.7349116502766941
42
7.8314589647415955
0
ELLIPSE
5
117
100
AcDbEntity
8
0
100
AcDbEllipse
10
-3.5527136788004037e-14
20
-12.170201561348719
30
4.0389678347315804e-27
11
-1.5874999999999777
21
-8.870888832529511e-11
31
0.0
40
0.99999963450158058
41
4.7349116502335891
42
7.8314589647179762
0
ELLIPSE
5
118
100
AcDbEntity
8
0
100
AcDbEllipse
10
-139.59778914450811
20
-12.168994913154449
30
0
11
4.718915362633691e-11
21
-1.5875005802289675
31
0.0
40
0.99999963450158036
41
0
42
6.2831853071795862
0
ELLIPSE
5
119
100
AcDbEntity
8
0
100
AcDbEllipse
10
-279.12407485879379
20
-12.168994913153597
30
0
11
4.718915362633691e-11
21
-1.5875005802289675
31
0.0
40
0.99999963450158036
41
0
42
6.2831853071795862
0
ELLIPSE
5
120
100
AcDbEntity
8
0
100
AcDbEllipse
10
-697.70293200165133
20
-12.168994913151252
30
0
11
4.7061131033809829e-11
21
-1.587500580228949
31
0.0
40
0.99999963450158036
41
0
42
6.2831853071795862
0
ELLIPSE
5
121
100
AcDbEntity
8
0
100
AcDbEllipse
10
-837.2292177159369
20
-12.16899491315047
30
0
11
4.7061131033809829e-11
21
-1.587500580228949
31
0.0
40
0.99999963450158036
41
0
42
6.2831853071795862
0
ELLIPSE
5
122
100
AcDbEntity
8
0
100
AcDbEllipse
10
-976.75550343022246
20
-12.168994913149689
30
-4.0389678347315804e-27
11
4.8039033688496158e-11
21
-1.587500580228949
31
0.0
40
0.99999963450158036
41
0
42
6.2831853071795862
0
ELLIPSE
5
123
100
AcDbEntity
8
0
100
AcDbEllipse
10
-558.17664628736532
20
-12.168994913151963
30
4.0389678347315804e-27
11
-1.0516656989700834e-10
21
-1.587500580228949
31
0.0
40
0.99999963450158025
41
0
42
6.2831853071795862
0
ELLIPSE
5
124
100
AcDbEntity
8
0
100
AcDbEllipse
10
-418.65036057307964
20
-12.168994913152815
30
0
11
-1.0516083229911154e-10
21
-1.5875005802289675
31
0.0
40
0.99999963450158003
41
0
42
6.2831853071795862
0
LWPOLYLINE
5
125
100
AcDbEntity
8
0
100
AcDbPolyline
90
20
70
1
43
0.0
10
-8.8817841970012523e-15
20
3.1086244689504383e-14
42
-0.402043596756535
10
25.37788868213692
20
-24.340393451763234
10
25.217932411809976
20
-25.993681020322086
10
17.167065049239568
20
-79.325455754295803
42
-0.37098081687772549
10
-7.9483769730082798
20
-100.93407447208556
10
-94.276841949966936
20
-100.93407447208632
42
0.37098081687772266
10
-143.71668845045494
20
-143.47072549135746
10
-163.88848237647977
20
-277.0957774509065
42
0.37098081687772466
10
-129.20810899546461
20
-332.33106331130944
10
-46.726549399496321
20
-357.81431647676533
42
-0.37098081687772766
10
-29.10891972194058
20
-385.87384169385012
10
-37.159787084510242
20
-439.20561642782224
10
-37.494991736058935
20
-440.83244882065298
42
-0.40204359675654344
10
-68.927037318682096
20
-456.59691829607476
10
-1002.1570824535322
20
-168.26898635254946
42
-0.4020435967565289
10
-1019.2190727214072
20
-137.52194624380874
10
-1018.8838680698622
20
-135.89511385098899
10
-1002.293348382686
20
-25.993681020330968
10
-1002.1333921123596
20
-24.340393451763106
42
-0.40204359675653356
10
-976.75550343022269
20
-2.1316282072803008e-13
0
LINE
5
126
100
AcDbEntity
8
0
100
AcDbLine
10
-1019.0514703956358
20
-136.70853004740343
30
0
11
-37.327389410284297
21
-440.01903262423855
31
0
0
LINE
5
127
100
AcDbEntity
8
0
100
AcDbLine
10
25.297910546973839
20
-25.167037236037757
30
0
11
-1002.213370247523
21
-25.167037236047136
31
0
0
ENDSEC
0
SECTION
2
OBJECTS
0
DICTIONARY
5
C
100
AcDbDictionary
3
ACAD_GROUP
350
D
3
ACAD_MLINESTYLE
350
17
0
DICTIONARY
5
D
100
AcDbDictionary
0
DICTIONARY
5
1A
330
C
100
AcDbDictionary
0
DICTIONARY
5
17
100
AcDbDictionary
0
ENDSEC
0
EOF
