  0
SECTION
  2
ENTITIES
  0
LINE
  8
APS_GEOMETRY
 10
-61.829245
 11
-37.329245
 20
-44.186
 21
-44.186
  0
LINE
  8
APS_GEOMETRY
 10
-61.829245
 11
-37.329245
 20
-47.686
 21
-47.686
  0
LINE
  8
APS_GEOMETRY
 10
-61.829245
 11
-37.329245
 20
-51.186
 21
-51.186
  0
LINE
  8
APS_GEOMETRY
 10
-61.829245
 11
-37.329245
 20
-54.686
 21
-54.686
  0
LINE
  8
APS_GEOMETRY
 10
-61.829245
 11
-37.329245
 20
-37.186
 21
-37.186
  0
LINE
  8
APS_GEOMETRY
 10
-61.829245
 11
-37.329245
 20
-33.686
 21
-33.686
  0
LINE
  8
APS_GEOMETRY
 10
-61.829245
 11
-37.329245
 20
-30.186
 21
-30.186
  0
LINE
  8
APS_GEOMETRY
 10
-61.829245
 11
-37.329245
 20
-26.686
 21
-26.686
  0
LINE
  8
APS_GEOMETRY
 10
-53.079245
 11
-53.079245
 20
-56.436
 21
-24.936
  0
LINE
  8
APS_GEOMETRY
 10
-56.579245
 11
-56.579245
 20
-56.436
 21
-24.936
  0
LINE
  8
APS_GEOMETRY
 10
-60.079245
 11
-60.079245
 20
-56.436
 21
-24.936
  0
LINE
  8
APS_GEOMETRY
 10
-46.079245
 11
-46.079245
 20
-56.436
 21
-24.936
  0
LINE
  8
APS_GEOMETRY
 10
-42.579245
 11
-42.579245
 20
-56.436
 21
-24.936
  0
LINE
  8
APS_GEOMETRY
 10
-39.079245
 11
-39.079245
 20
-56.436
 21
-24.936
  0
LINE
  8
APS_GEOMETRY
 10
-61.829245
 11
-37.329245
 20
-42.436
 21
-42.436
  0
LINE
  8
APS_GEOMETRY
 10
-61.829245
 11
-37.329245
 20
-45.936
 21
-45.936
  0
LINE
  8
APS_GEOMETRY
 10
-61.829245
 11
-37.329245
 20
-49.436
 21
-49.436
  0
LINE
  8
APS_GEOMETRY
 10
-61.829245
 11
-37.329245
 20
-52.936
 21
-52.936
  0
LINE
  8
APS_GEOMETRY
 10
-61.829245
 11
-37.329245
 20
-56.436
 21
-56.436
  0
LINE
  8
APS_GEOMETRY
 10
-61.829245
 11
-37.329245
 20
-38.936
 21
-38.936
  0
LINE
  8
APS_GEOMETRY
 10
-61.829245
 11
-37.329245
 20
-35.436
 21
-35.436
  0
LINE
  8
APS_GEOMETRY
 10
-61.829245
 11
-37.329245
 20
-31.936
 21
-31.936
  0
LINE
  8
APS_GEOMETRY
 10
-61.829245
 11
-37.329245
 20
-28.436
 21
-28.436
  0
LINE
  8
APS_GEOMETRY
 10
-61.829245
 11
-37.329245
 20
-24.936
 21
-24.936
  0
LINE
  8
APS_GEOMETRY
 10
-47.829245
 11
-47.829245
 20
-56.436
 21
-24.936
  0
LINE
  8
APS_GEOMETRY
 10
-44.329245
 11
-44.329245
 20
-56.436
 21
-24.936
  0
LINE
  8
APS_GEOMETRY
 10
-40.829245
 11
-40.829245
 20
-56.436
 21
-24.936
  0
LINE
  8
APS_GEOMETRY
 10
-37.329245
 11
-37.329245
 20
-56.436
 21
-24.936
  0
LINE
  8
APS_GEOMETRY
 10
-51.329245
 11
-51.329245
 20
-56.436
 21
-24.936
  0
LINE
  8
APS_GEOMETRY
 10
-54.829245
 11
-54.829245
 20
-56.436
 21
-24.936
  0
LINE
  8
APS_GEOMETRY
 10
-58.329245
 11
-58.329245
 20
-56.436
 21
-24.936
  0
LINE
  8
APS_GEOMETRY
 10
-61.829245
 11
-61.829245
 20
-56.436
 21
-24.936
  0
LINE
  8
APS_GEOMETRY
 10
-49.579245
 11
-49.579245
 20
-56.436
 21
-24.936
  0
LINE
  8
APS_GEOMETRY
 10
-61.829245
 11
-37.329245
 20
-40.686
 21
-40.686
  0
CIRCLE
  8
APS_GEOMETRY
 10
-60.079245
 20
-54.686
 40
0.305118
  0
CIRCLE
  8
APS_GEOMETRY
 10
-60.079245
 20
-54.686
 40
0.6325
  0
CIRCLE
  8
APS_GEOMETRY
 10
-60.079245
 20
-51.186
 40
0.305118
  0
CIRCLE
  8
APS_GEOMETRY
 10
-60.079245
 20
-51.186
 40
0.6325
  0
CIRCLE
  8
APS_GEOMETRY
 10
-60.079245
 20
-47.686
 40
0.305118
  0
CIRCLE
  8
APS_GEOMETRY
 10
-60.079245
 20
-47.686
 40
0.6325
  0
CIRCLE
  8
APS_GEOMETRY
 10
-60.079245
 20
-44.186
 40
0.305118
  0
CIRCLE
  8
APS_GEOMETRY
 10
-60.079245
 20
-44.186
 40
0.6325
  0
CIRCLE
  8
APS_GEOMETRY
 10
-60.079245
 20
-40.686
 40
0.305118
  0
CIRCLE
  8
APS_GEOMETRY
 10
-60.079245
 20
-40.686
 40
0.6325
  0
CIRCLE
  8
APS_GEOMETRY
 10
-60.079245
 20
-37.186
 40
0.305118
  0
CIRCLE
  8
APS_GEOMETRY
 10
-60.079245
 20
-37.186
 40
0.6325
  0
CIRCLE
  8
APS_GEOMETRY
 10
-60.079245
 20
-33.686
 40
0.305118
  0
CIRCLE
  8
APS_GEOMETRY
 10
-60.079245
 20
-33.686
 40
0.6325
  0
CIRCLE
  8
APS_GEOMETRY
 10
-60.079245
 20
-30.186
 40
0.305118
  0
CIRCLE
  8
APS_GEOMETRY
 10
-60.079245
 20
-30.186
 40
0.6325
  0
CIRCLE
  8
APS_GEOMETRY
 10
-60.079245
 20
-26.686
 40
0.305118
  0
CIRCLE
  8
APS_GEOMETRY
 10
-60.079245
 20
-26.686
 40
0.6325
  0
CIRCLE
  8
APS_GEOMETRY
 10
-56.579245
 20
-26.686
 40
0.305118
  0
CIRCLE
  8
APS_GEOMETRY
 10
-56.579245
 20
-26.686
 40
0.6325
  0
CIRCLE
  8
APS_GEOMETRY
 10
-56.579245
 20
-30.186
 40
0.305118
  0
CIRCLE
  8
APS_GEOMETRY
 10
-56.579245
 20
-30.186
 40
0.6325
  0
CIRCLE
  8
APS_GEOMETRY
 10
-56.579245
 20
-33.686
 40
0.305118
  0
CIRCLE
  8
APS_GEOMETRY
 10
-56.579245
 20
-33.686
 40
0.6325
  0
CIRCLE
  8
APS_GEOMETRY
 10
-56.579245
 20
-37.186
 40
0.305118
  0
CIRCLE
  8
APS_GEOMETRY
 10
-56.579245
 20
-37.186
 40
0.6325
  0
CIRCLE
  8
APS_GEOMETRY
 10
-56.579245
 20
-40.686
 40
0.305118
  0
CIRCLE
  8
APS_GEOMETRY
 10
-56.579245
 20
-40.686
 40
0.6325
  0
CIRCLE
  8
APS_GEOMETRY
 10
-56.579245
 20
-44.186
 40
0.305118
  0
CIRCLE
  8
APS_GEOMETRY
 10
-56.579245
 20
-44.186
 40
0.6325
  0
CIRCLE
  8
APS_GEOMETRY
 10
-56.579245
 20
-47.686
 40
0.305118
  0
CIRCLE
  8
APS_GEOMETRY
 10
-56.579245
 20
-47.686
 40
0.6325
  0
CIRCLE
  8
APS_GEOMETRY
 10
-56.579245
 20
-51.186
 40
0.305118
  0
CIRCLE
  8
APS_GEOMETRY
 10
-56.579245
 20
-51.186
 40
0.6325
  0
CIRCLE
  8
APS_GEOMETRY
 10
-56.579245
 20
-54.686
 40
0.305118
  0
CIRCLE
  8
APS_GEOMETRY
 10
-56.579245
 20
-54.686
 40
0.6325
  0
CIRCLE
  8
APS_GEOMETRY
 10
-53.079245
 20
-54.686
 40
0.305118
  0
CIRCLE
  8
APS_GEOMETRY
 10
-53.079245
 20
-54.686
 40
0.6325
  0
CIRCLE
  8
APS_GEOMETRY
 10
-49.579245
 20
-54.686
 40
0.305118
  0
CIRCLE
  8
APS_GEOMETRY
 10
-49.579245
 20
-54.686
 40
0.6325
  0
CIRCLE
  8
APS_GEOMETRY
 10
-46.079245
 20
-54.686
 40
0.305118
  0
CIRCLE
  8
APS_GEOMETRY
 10
-46.079245
 20
-54.686
 40
0.6325
  0
CIRCLE
  8
APS_GEOMETRY
 10
-42.579245
 20
-54.686
 40
0.305118
  0
CIRCLE
  8
APS_GEOMETRY
 10
-42.579245
 20
-54.686
 40
0.6325
  0
CIRCLE
  8
APS_GEOMETRY
 10
-39.079245
 20
-54.686
 40
0.305118
  0
CIRCLE
  8
APS_GEOMETRY
 10
-39.079245
 20
-54.686
 40
0.6325
  0
CIRCLE
  8
APS_GEOMETRY
 10
-53.079245
 20
-51.186
 40
0.305118
  0
CIRCLE
  8
APS_GEOMETRY
 10
-53.079245
 20
-51.186
 40
0.6325
  0
CIRCLE
  8
APS_GEOMETRY
 10
-49.579245
 20
-51.186
 40
0.305118
  0
CIRCLE
  8
APS_GEOMETRY
 10
-49.579245
 20
-51.186
 40
0.6325
  0
CIRCLE
  8
APS_GEOMETRY
 10
-46.079245
 20
-51.186
 40
0.305118
  0
CIRCLE
  8
APS_GEOMETRY
 10
-46.079245
 20
-51.186
 40
0.6325
  0
CIRCLE
  8
APS_GEOMETRY
 10
-42.579245
 20
-51.186
 40
0.305118
  0
CIRCLE
  8
APS_GEOMETRY
 10
-42.579245
 20
-51.186
 40
0.6325
  0
CIRCLE
  8
APS_GEOMETRY
 10
-39.079245
 20
-51.186
 40
0.305118
  0
CIRCLE
  8
APS_GEOMETRY
 10
-39.079245
 20
-51.186
 40
0.6325
  0
CIRCLE
  8
APS_GEOMETRY
 10
-39.079245
 20
-47.686
 40
0.305118
  0
CIRCLE
  8
APS_GEOMETRY
 10
-39.079245
 20
-47.686
 40
0.6325
  0
CIRCLE
  8
APS_GEOMETRY
 10
-42.579245
 20
-47.686
 40
0.305118
  0
CIRCLE
  8
APS_GEOMETRY
 10
-42.579245
 20
-47.686
 40
0.6325
  0
CIRCLE
  8
APS_GEOMETRY
 10
-46.079245
 20
-47.686
 40
0.305118
  0
CIRCLE
  8
APS_GEOMETRY
 10
-46.079245
 20
-47.686
 40
0.6325
  0
CIRCLE
  8
APS_GEOMETRY
 10
-49.579245
 20
-47.686
 40
0.305118
  0
CIRCLE
  8
APS_GEOMETRY
 10
-49.579245
 20
-47.686
 40
0.6325
  0
CIRCLE
  8
APS_GEOMETRY
 10
-53.079245
 20
-47.686
 40
0.305118
  0
CIRCLE
  8
APS_GEOMETRY
 10
-53.079245
 20
-47.686
 40
0.6325
  0
CIRCLE
  8
APS_GEOMETRY
 10
-53.079245
 20
-44.186
 40
0.305118
  0
CIRCLE
  8
APS_GEOMETRY
 10
-53.079245
 20
-44.186
 40
0.6325
  0
CIRCLE
  8
APS_GEOMETRY
 10
-49.579245
 20
-44.186
 40
0.305118
  0
CIRCLE
  8
APS_GEOMETRY
 10
-49.579245
 20
-44.186
 40
0.6325
  0
CIRCLE
  8
APS_GEOMETRY
 10
-46.079245
 20
-44.186
 40
0.305118
  0
CIRCLE
  8
APS_GEOMETRY
 10
-46.079245
 20
-44.186
 40
0.6325
  0
CIRCLE
  8
APS_GEOMETRY
 10
-42.579245
 20
-44.186
 40
0.305118
  0
CIRCLE
  8
APS_GEOMETRY
 10
-42.579245
 20
-44.186
 40
0.6325
  0
CIRCLE
  8
APS_GEOMETRY
 10
-39.079245
 20
-44.186
 40
0.305118
  0
CIRCLE
  8
APS_GEOMETRY
 10
-39.079245
 20
-44.186
 40
0.6325
  0
CIRCLE
  8
APS_GEOMETRY
 10
-39.079245
 20
-40.686
 40
0.305118
  0
CIRCLE
  8
APS_GEOMETRY
 10
-39.079245
 20
-40.686
 40
0.6325
  0
CIRCLE
  8
APS_GEOMETRY
 10
-39.079245
 20
-37.186
 40
0.305118
  0
CIRCLE
  8
APS_GEOMETRY
 10
-39.079245
 20
-37.186
 40
0.6325
  0
CIRCLE
  8
APS_GEOMETRY
 10
-42.579245
 20
-40.686
 40
0.305118
  0
CIRCLE
  8
APS_GEOMETRY
 10
-42.579245
 20
-40.686
 40
0.6325
  0
CIRCLE
  8
APS_GEOMETRY
 10
-46.079245
 20
-40.686
 40
0.305118
  0
CIRCLE
  8
APS_GEOMETRY
 10
-46.079245
 20
-40.686
 40
0.6325
  0
CIRCLE
  8
APS_GEOMETRY
 10
-49.579245
 20
-40.686
 40
0.305118
  0
CIRCLE
  8
APS_GEOMETRY
 10
-49.579245
 20
-40.686
 40
0.6325
  0
CIRCLE
  8
APS_GEOMETRY
 10
-53.079245
 20
-40.686
 40
0.305118
  0
CIRCLE
  8
APS_GEOMETRY
 10
-53.079245
 20
-40.686
 40
0.6325
  0
CIRCLE
  8
APS_GEOMETRY
 10
-53.079245
 20
-37.186
 40
0.305118
  0
CIRCLE
  8
APS_GEOMETRY
 10
-53.079245
 20
-37.186
 40
0.6325
  0
CIRCLE
  8
APS_GEOMETRY
 10
-49.579245
 20
-37.186
 40
0.305118
  0
CIRCLE
  8
APS_GEOMETRY
 10
-49.579245
 20
-37.186
 40
0.6325
  0
CIRCLE
  8
APS_GEOMETRY
 10
-46.079245
 20
-37.186
 40
0.305118
  0
CIRCLE
  8
APS_GEOMETRY
 10
-46.079245
 20
-37.186
 40
0.6325
  0
CIRCLE
  8
APS_GEOMETRY
 10
-42.579245
 20
-37.186
 40
0.305118
  0
CIRCLE
  8
APS_GEOMETRY
 10
-42.579245
 20
-37.186
 40
0.6325
  0
CIRCLE
  8
APS_GEOMETRY
 10
-39.079245
 20
-33.686
 40
0.305118
  0
CIRCLE
  8
APS_GEOMETRY
 10
-39.079245
 20
-33.686
 40
0.6325
  0
CIRCLE
  8
APS_GEOMETRY
 10
-42.579245
 20
-33.686
 40
0.305118
  0
CIRCLE
  8
APS_GEOMETRY
 10
-42.579245
 20
-33.686
 40
0.6325
  0
CIRCLE
  8
APS_GEOMETRY
 10
-46.079245
 20
-33.686
 40
0.305118
  0
CIRCLE
  8
APS_GEOMETRY
 10
-46.079245
 20
-33.686
 40
0.6325
  0
CIRCLE
  8
APS_GEOMETRY
 10
-49.579245
 20
-33.686
 40
0.305118
  0
CIRCLE
  8
APS_GEOMETRY
 10
-49.579245
 20
-33.686
 40
0.6325
  0
CIRCLE
  8
APS_GEOMETRY
 10
-53.079245
 20
-33.686
 40
0.305118
  0
CIRCLE
  8
APS_GEOMETRY
 10
-53.079245
 20
-33.686
 40
0.6325
  0
CIRCLE
  8
APS_GEOMETRY
 10
-53.079245
 20
-30.186
 40
0.305118
  0
CIRCLE
  8
APS_GEOMETRY
 10
-53.079245
 20
-30.186
 40
0.6325
  0
CIRCLE
  8
APS_GEOMETRY
 10
-49.579245
 20
-30.186
 40
0.305118
  0
CIRCLE
  8
APS_GEOMETRY
 10
-49.579245
 20
-30.186
 40
0.6325
  0
CIRCLE
  8
APS_GEOMETRY
 10
-46.079245
 20
-30.186
 40
0.305118
  0
CIRCLE
  8
APS_GEOMETRY
 10
-46.079245
 20
-30.186
 40
0.6325
  0
CIRCLE
  8
APS_GEOMETRY
 10
-42.579245
 20
-30.186
 40
0.305118
  0
CIRCLE
  8
APS_GEOMETRY
 10
-42.579245
 20
-30.186
 40
0.6325
  0
CIRCLE
  8
APS_GEOMETRY
 10
-39.079245
 20
-30.186
 40
0.305118
  0
CIRCLE
  8
APS_GEOMETRY
 10
-39.079245
 20
-30.186
 40
0.6325
  0
CIRCLE
  8
APS_GEOMETRY
 10
-39.079245
 20
-26.686
 40
0.305118
  0
CIRCLE
  8
APS_GEOMETRY
 10
-39.079245
 20
-26.686
 40
0.6325
  0
CIRCLE
  8
APS_GEOMETRY
 10
-42.579245
 20
-26.686
 40
0.305118
  0
CIRCLE
  8
APS_GEOMETRY
 10
-42.579245
 20
-26.686
 40
0.6325
  0
CIRCLE
  8
APS_GEOMETRY
 10
-46.079245
 20
-26.686
 40
0.305118
  0
CIRCLE
  8
APS_GEOMETRY
 10
-46.079245
 20
-26.686
 40
0.6325
  0
CIRCLE
  8
APS_GEOMETRY
 10
-49.579245
 20
-26.686
 40
0.305118
  0
CIRCLE
  8
APS_GEOMETRY
 10
-49.579245
 20
-26.686
 40
0.6325
  0
CIRCLE
  8
APS_GEOMETRY
 10
-53.079245
 20
-26.686
 40
0.305118
  0
CIRCLE
  8
APS_GEOMETRY
 10
-53.079245
 20
-26.686
 40
0.6325
  0
LINE
  8
APS_GEOMETRY
 10
-62.579245
 11
-62.579245
 20
-57.825515
 21
-23.546485
  0
LINE
  8
APS_GEOMETRY
 10
-36.579245
 11
-36.579245
 20
-23.546485
 21
-57.825515
  0
CIRCLE
  8
DIMENSIONS
 10
-19.814999
 20
-14.692934
 40
14.891944
  0
LINE
  8
DIMENSIONS
 10
-37.09988
 11
-32.486736
 20
-25.363702
 21
-22.515792
  0
CIRCLE
  8
DIMENSIONS
 10
-39.211836
 20
-26.667512
 40
2.481991
  0
LINE
  8
APS_GEOMETRY
 10
-34.70653
 11
-8.519453
 20
-14.803862
 21
-14.803862
  0
LINE
  8
APS_GEOMETRY
 10
-19.019453
 11
-19.019453
 20
-29.563614
 21
-4.303862
  0
LINE
  8
APS_GEOMETRY
 10
-30.263837
 11
-9.366161
 20
-25.303862
 21
-25.303862
  0
LINE
  8
APS_GEOMETRY
 10
-30.484451
 11
-9.145548
 20
-4.303862
 21
-4.303862
  0
LINE
  8
APS_GEOMETRY
 10
-29.519453
 11
-29.519453
 20
-25.988667
 21
-4.303862
  0
LINE
  8
APS_GEOMETRY
 10
-8.519453
 11
-8.519453
 20
-24.397606
 21
-4.988263
  0
CIRCLE
  8
APS_GEOMETRY
 10
-19.019453
 20
-14.803862
 40
1.830709
  0
CIRCLE
  8
APS_GEOMETRY
 10
-19.019453
 20
-14.803862
 40
3.795
  0
ARC
  8
DIMENSIONS
 10
-29.305162
 20
-32.264923
 40
1.233133
 50
42.9037
 51
122.5462
  0
ARC
  8
DIMENSIONS
 10
-29.621701
 20
-31.753355
 40
0.631667
 50
123.306702
 51
253.425563
  0
LINE
  8
DIMENSIONS
 10
-29.801891
 11
-28.801895
 20
-32.358775
 21
-32.692123
  0
ARC
  8
DIMENSIONS
 10
-29.005499
 20
-33.338026
 40
0.677233
 50
299.837943
 51
72.503854
  0
ARC
  8
DIMENSIONS
 10
-29.318515
 20
-32.798517
 40
1.300967
 50
240.02251
 51
299.973977
  0
ARC
  8
DIMENSIONS
 10
-29.612843
 20
-33.30294
 40
0.716967
 50
209.759272
 51
240.255342
  0
ARC
  8
DIMENSIONS
 10
-27.241908
 20
-32.582712
 40
1.823633
 50
31.026839
 51
40.045456
  0
ARC
  8
DIMENSIONS
 10
-26.612531
 20
-32.023336
 40
0.9822
 50
38.687092
 51
141.311843
  0
ARC
  8
DIMENSIONS
 10
-25.96013
 20
-32.559369
 40
1.826533
 50
140.979262
 51
219.021887
  0
ARC
  8
DIMENSIONS
 10
-26.612503
 20
-33.095437
 40
0.9822
 50
218.687682
 51
321.31267
  0
ARC
  8
DIMENSIONS
 10
-27.253147
 20
-32.638324
 40
1.768533
 50
322.7266
 51
335.3459
  0
LINE
  8
DIMENSIONS
 10
-24.655713
 11
-22.822379
 20
-33.178824
 21
-33.178824
  0
LINE
  8
DIMENSIONS
 10
-25.022379
 11
-23.855713
 20
-34.084879
 21
-31.084879
  0
LINE
  8
DIMENSIONS
 10
-23.855713
 11
-23.589046
 20
-31.084879
 21
-31.084879
  0
LINE
  8
DIMENSIONS
 10
-23.589046
 11
-22.489046
 20
-31.084879
 21
-34.084879
  0
LINE
  8
DIMENSIONS
 10
-21.889046
 11
-21.889046
 20
-31.084879
 21
-34.084879
  0
LINE
  8
DIMENSIONS
 10
-21.889046
 11
-19.889046
 20
-34.084879
 21
-34.084879
  0
LINE
  8
DIMENSIONS
 10
-17.289046
 11
-19.289046
 20
-31.084879
 21
-31.084879
  0
LINE
  8
DIMENSIONS
 10
-19.289046
 11
-19.289046
 20
-31.084879
 21
-34.084879
  0
LINE
  8
DIMENSIONS
 10
-19.289046
 11
-17.289046
 20
-34.084879
 21
-34.084879
  0
LINE
  8
DIMENSIONS
 10
-19.255712
 11
-17.955712
 20
-32.484879
 21
-32.484879
  0
ARC
  8
DIMENSIONS
 10
-12.633727
 20
-32.062514
 40
0.9822
 50
38.687092
 51
141.311843
  0
ARC
  8
DIMENSIONS
 10
-11.981326
 20
-32.598547
 40
1.826533
 50
140.979262
 51
219.021887
  0
ARC
  8
DIMENSIONS
 10
-12.633704
 20
-33.134609
 40
0.9822
 50
218.688216
 51
321.311676
  0
ARC
  8
DIMENSIONS
 10
-12.484005
 20
-33.248563
 40
0.794133
 50
320.977916
 51
39.022283
  0
ARC
  8
DIMENSIONS
 10
-12.683719
 20
-33.402557
 40
1.046267
 50
38.687897
 51
141.311964
  0
ARC
  8
DIMENSIONS
 10
-12.754143
 20
-33.355802
 40
0.9621
 50
140.8638
 51
169.5859
  0
LINE
  8
DIMENSIONS
 10
-10.971059
 11
-11.121059
 20
-32.646789
 21
-32.646789
  0
LINE
  8
DIMENSIONS
 10
-11.121059
 11
-11.121059
 20
-32.646789
 21
-32.496789
  0
LINE
  8
DIMENSIONS
 10
-11.121059
 11
-10.971059
 20
-32.496789
 21
-32.496789
  0
LINE
  8
DIMENSIONS
 10
-10.971059
 11
-10.971059
 20
-32.496789
 21
-32.646789
  0
LINE
  8
DIMENSIONS
 10
-10.971059
 11
-11.121059
 20
-33.391082
 21
-33.391082
  0
LINE
  8
DIMENSIONS
 10
-11.121059
 11
-11.121059
 20
-33.391082
 21
-33.241082
  0
LINE
  8
DIMENSIONS
 10
-11.121059
 11
-10.971059
 20
-33.241082
 21
-33.241082
  0
LINE
  8
DIMENSIONS
 10
-10.971059
 11
-10.971059
 20
-33.241082
 21
-33.391082
  0
LINE
  8
DIMENSIONS
 10
-10.371059
 11
-9.856371
 20
-34.084879
 21
-34.084879
  0
LINE
  8
DIMENSIONS
 10
-9.856371
 11
-9.341683
 20
-34.084879
 21
-34.084879
  0
LINE
  8
DIMENSIONS
 10
-9.856371
 11
-9.856371
 20
-34.084879
 21
-31.084879
  0
LINE
  8
DIMENSIONS
 10
-9.856371
 11
-10.371059
 20
-31.084879
 21
-31.599567
  0
LINE
  8
APS_GEOMETRY
 10
-23.785485
 11
-22.072904
 20
-19.385284
 21
-17.23175
  0
LINE
  8
APS_GEOMETRY
 10
-22.072904
 11
-22.230257
 20
-17.23175
 21
-18.452147
  0
LINE
  8
APS_GEOMETRY
 10
-22.230257
 11
-23.060931
 20
-18.452147
 21
-17.762358
  0
LINE
  8
APS_GEOMETRY
 10
-23.060931
 11
-22.072904
 20
-17.762358
 21
-17.23175
  0
LINE
  8
APS_GEOMETRY
 10
-17.973958
 11
-12.935173
 20
-13.304818
 21
-9.833017
  0
LINE
  8
APS_GEOMETRY
 10
-17.973958
 11
-17.28954
 20
-13.304818
 21
-11.831743
  0
LINE
  8
APS_GEOMETRY
 10
-17.28954
 11
-16.361561
 20
-11.831743
 21
-13.045255
  0
LINE
  8
APS_GEOMETRY
 10
-16.361561
 11
-17.973958
 20
-13.045255
 21
-13.304818
  0
LINE
  8
APS_GEOMETRY
 10
-21.170181
 11
-19.074815
 20
-7.16544
 21
-5.382161
  0
LINE
  8
APS_GEOMETRY
 10
-19.074815
 11
-19.464321
 20
-5.382161
 21
-6.549386
  0
LINE
  8
APS_GEOMETRY
 10
-19.464321
 11
-20.146554
 20
-6.549386
 21
-5.712493
  0
LINE
  8
APS_GEOMETRY
 10
-20.146554
 11
-19.074815
 20
-5.712493
 21
-5.382161
  0
CIRCLE
  8
APS_GEOMETRY
 10
-74.139841
 20
-26.686
 40
0.5
  0
CIRCLE
  8
APS_GEOMETRY
 10
-74.139841
 20
-30.186
 40
0.5
  0
CIRCLE
  8
APS_GEOMETRY
 10
-74.139841
 20
-33.686
 40
0.5
  0
CIRCLE
  8
APS_GEOMETRY
 10
-74.139841
 20
-37.186
 40
0.5
  0
CIRCLE
  8
APS_GEOMETRY
 10
-74.139841
 20
-40.686
 40
0.5
  0
CIRCLE
  8
APS_GEOMETRY
 10
-74.139841
 20
-44.186
 40
0.5
  0
CIRCLE
  8
APS_GEOMETRY
 10
-74.139841
 20
-47.686
 40
0.5
  0
CIRCLE
  8
APS_GEOMETRY
 10
-74.139841
 20
-51.186
 40
0.5
  0
CIRCLE
  8
APS_GEOMETRY
 10
-74.139841
 20
-54.686
 40
0.5
  0
CIRCLE
  8
APS_GEOMETRY
 10
-74.014841
 20
-56.436
 40
0.1875
  0
CIRCLE
  8
APS_GEOMETRY
 10
-74.014841
 20
-45.936
 40
0.1875
  0
CIRCLE
  8
APS_GEOMETRY
 10
-74.014841
 20
-35.436
 40
0.1875
  0
CIRCLE
  8
APS_GEOMETRY
 10
-74.014841
 20
-24.936
 40
0.1875
  0
ARC
  8
APS_GEOMETRY
 10
-72.465043
 20
-15.639356
 40
7.912811
 50
249.278185
 51
267.828679
  0
LINE
  8
APS_GEOMETRY
 10
-75.264841
 11
-75.264841
 20
-23.040282
 21
-58.331718
  0
ARC
  8
APS_GEOMETRY
 10
-72.465043
 20
-65.732644
 40
7.912811
 50
92.171321
 51
110.721815
  0
LINE
  8
APS_GEOMETRY
 10
-72.764841
 11
-72.764841
 20
-57.825515
 21
-23.546485
  0
LINE
  8
APS_GEOMETRY
 10
-62.579245
 11
-36.579245
 20
-23.546485
 21
-23.546485
  0
LINE
  8
APS_GEOMETRY
 10
-62.579245
 11
-36.579245
 20
-57.825515
 21
-57.825515
  0
TEXT
  8
TEXT
 10
-28.749889
 20
-7.077169
 30
0.0
 40
1.0
 50
0.0
  1
Cut the grid
  0
TEXT
  8
TEXT
 10
-28.749889
 20
-8.577169
 30
0.0
 40
1.0
 50
0.0
  1
on center with 
  0
TEXT
  8
TEXT
 10
-28.749889
 20
-10.077169
 30
0.0
 40
1.0
 50
0.0
  1
a .1875 bit
  0
TEXT
  8
TEXT
 10
-28.749889
 20
-11.577169
 30
0.0
 40
1.0
 50
0.0
  1
.150" deep
  0
TEXT
  8
TEXT
 10
-28.330541
 20
-20.438743
 30
0.0
 40
1.0
 50
0.0
  1
Pocket this
  0
TEXT
  8
TEXT
 10
-28.330541
 20
-21.938743
 30
0.0
 40
1.0
 50
0.0
  1
with a .5" 
  0
TEXT
  8
TEXT
 10
-28.330541
 20
-23.438743
 30
0.0
 40
1.0
 50
0.0
  1
bit .6" deep
  0
TEXT
  8
TEXT
 10
-28.330541
 20
-24.938743
 30
0.0
 40
1.0
 50
0.0
  1

  0
TEXT
  8
TEXT
 10
-16.647093
 20
-7.977057
 30
0.0
 40
1.0
 50
0.0
  1
cut out this
  0
TEXT
  8
TEXT
 10
-16.647093
 20
-9.477057
 30
0.0
 40
1.0
 50
0.0
  1
hole to 1.125" deep
  0
ENDSEC
  0
EOF
