  0
SECTION
  2
HEADER
  9
$ACADVER
  1
AC1014
  9
$HANDSEED
  5
FFFF
  9
$MEASUREMENT
 70
     1
  0
ENDSEC
  0
SECTION
  2
TABLES
  0
TABLE
  2
VPORT
  5
8
330
0
100
AcDbSymbolTable
 70
     4
  0
VPORT
  5
2E
330
8
100
AcDbSymbolTableRecord
100
AcDbViewportTableRecord
  2
*ACTIVE
 70
     0
 10
0.0
 20
0.0
 11
1.0
 21
1.0
 12
210.0
 22
148.5
 13
0.0
 23
0.0
 14
10.0
 24
10.0
 15
10.0
 25
10.0
 16
0.0
 26
0.0
 36
1.0
 17
0.0
 27
0.0
 37
0.0
 40
341.0
 41
1.24
 42
50.0
 43
0.0
 44
0.0
 50
0.0
 51
0.0
 71
     0
 72
   100
 73
     1
 74
     3
 75
     0
 76
     0
 77
     0
 78
     0
  0
ENDTAB
  0
TABLE
  2
LTYPE
  5
5
330
0
100
AcDbSymbolTable
 70
     1
  0
LTYPE
  5
14
330
5
100
AcDbSymbolTableRecord
100
AcDbLinetypeTableRecord
  2
BYBLOCK
 70
     0
  3

 72
    65
 73
     0
 40
0.0
  0
LTYPE
  5
15
330
5
100
AcDbSymbolTableRecord
100
AcDbLinetypeTableRecord
  2
BYLAYER
 70
     0
  3

 72
    65
 73
     0
 40
0.0
  0
LTYPE
  5
16
330
5
100
AcDbSymbolTableRecord
100
AcDbLinetypeTableRecord
  2
CONTINUOUS
 70
     0
  3
Solid line
 72
    65
 73
     0
 40
0.0
  0
ENDTAB
  0
TABLE
  2
LAYER
  5
2
100
AcDbSymbolTable
 70
2
  0
LAYER
  5
50
100
AcDbSymbolTableRecord
100
AcDbLayerTableRecord
  2
0
 70
0
  6
CONTINUOUS
  0
LAYER
  5
51
100
AcDbSymbolTableRecord
100
AcDbLayerTableRecord
  2
Layer_1
 70
0
  6
CONTINUOUS
  0
ENDTAB
  0
TABLE
  2
STYLE
  5
3
330
0
100
AcDbSymbolTable
 70
     1
  0
STYLE
  5
11
330
3
100
AcDbSymbolTableRecord
100
AcDbTextStyleTableRecord
  2
STANDARD
 70
     0
 40
0.0
 41
1.0
 50
0.0
 71
     0
 42
2.5
  3
txt
  4

  0
ENDTAB
  0
TABLE
  2
VIEW
  5
6
330
0
100
AcDbSymbolTable
 70
     0
  0
ENDTAB
  0
TABLE
  2
UCS
  5
7
330
0
100
AcDbSymbolTable
 70
     0
  0
ENDTAB
  0
TABLE
  2
APPID
  5
9
330
0
100
AcDbSymbolTable
 70
     2
  0
APPID
  5
12
330
9
100
AcDbSymbolTableRecord
100
AcDbRegAppTableRecord
  2
ACAD
 70
     0
  0
ENDTAB
  0
TABLE
  2
DIMSTYLE
  5
A
330
0
100
AcDbSymbolTable
 70
     1
  0
DIMSTYLE
105
27
330
A
100
AcDbSymbolTableRecord
100
AcDbDimStyleTableRecord
  2
ISO-25
 70
     0
  3

  4

  5

  6

  7

 40
1.0
 41
2.5
 42
0.625
 43
3.75
 44
1.25
 45
0.0
 46
0.0
 47
0.0
 48
0.0
140
2.5
141
2.5
142
0.0
143
0.03937007874016
144
1.0
145
0.0
146
1.0
147
0.625
 71
     0
 72
     0
 73
     0
 74
     0
 75
     0
 76
     0
 77
     1
 78
     8
170
     0
171
     3
172
     1
173
     0
174
     0
175
     0
176
     0
177
     0
178
     0
270
     2
271
     2
272
     2
273
     2
274
     3
340
11
275
     0
280
     0
281
     0
282
     0
283
     0
284
     8
285
     0
286
     0
287
     3
288
     0
  0
ENDTAB
  0
TABLE
  2
BLOCK_RECORD
  5
1
330
0
100
AcDbSymbolTable
 70
     1
  0
BLOCK_RECORD
  5
1F
330
1
100
AcDbSymbolTableRecord
100
AcDbBlockTableRecord
  2
*MODEL_SPACE
  0
BLOCK_RECORD
  5
1B
330
1
100
AcDbSymbolTableRecord
100
AcDbBlockTableRecord
  2
*PAPER_SPACE
  0
ENDTAB
  0
ENDSEC
  0
SECTION
  2
BLOCKS
  0
BLOCK
  5
20
330
1F
100
AcDbEntity
  8
0
100
AcDbBlockBegin
  2
*MODEL_SPACE
 70
     0
 10
0.0
 20
0.0
 30
0.0
  3
*MODEL_SPACE
  1

  0
ENDBLK
  5
21
330
1F
100
AcDbEntity
  8
0
100
AcDbBlockEnd
  0
BLOCK
  5
1C
330
1B
100
AcDbEntity
 67
     1
  8
0
100
AcDbBlockBegin
  2
*PAPER_SPACE
  1

  0
ENDBLK
  5
1D
330
1B
100
AcDbEntity
 67
     1
  8
0
100
AcDbBlockEnd
  0
ENDSEC
  0
SECTION
  2
ENTITIES
  0
SPLINE
  5
100
100
AcDbEntity
  8
Layer_1
 62
7
100
AcDbSpline
 70
8
 71
3
 72
8
 73
4
 74
0
 40
0
 40
0
 40
0
 40
0
 40
1
 40
1
 40
1
 40
1
 10
37.300552
 20
402.653088
 30
0.0
 10
37.300552
 20
402.653088
 30
0.0
 10
31.485840
 20
357.543424
 30
0.0
 10
28.302112
 20
335.026520
 30
0.0
  0
SPLINE
  5
101
100
AcDbEntity
  8
Layer_1
 62
7
100
AcDbSpline
 70
8
 71
3
 72
8
 73
4
 74
0
 40
0
 40
0
 40
0
 40
0
 40
1
 40
1
 40
1
 40
1
 10
28.302112
 20
335.026520
 30
0.0
 10
27.003728
 20
325.843728
 30
0.0
 10
25.328968
 20
316.713816
 30
0.0
 10
24.181800
 20
307.510904
 30
0.0
  0
SPLINE
  5
102
100
AcDbEntity
  8
Layer_1
 62
7
100
AcDbSpline
 70
8
 71
3
 72
8
 73
4
 74
0
 40
0
 40
0
 40
0
 40
0
 40
1
 40
1
 40
1
 40
1
 10
24.181800
 20
307.510904
 30
0.0
 10
22.844896
 20
296.785888
 30
0.0
 10
21.820960
 20
286.020880
 30
0.0
 10
20.964608
 20
275.246840
 30
0.0
  0
SPLINE
  5
103
100
AcDbEntity
  8
Layer_1
 62
7
100
AcDbSpline
 70
8
 71
3
 72
8
 73
4
 74
0
 40
0
 40
0
 40
0
 40
0
 40
1
 40
1
 40
1
 40
1
 10
20.964608
 20
275.246840
 30
0.0
 10
19.031752
 20
246.467920
 30
0.0
 10
18.123024
 20
220.463872
 30
0.0
 10
18.542736
 20
194.049968
 30
0.0
  0
SPLINE
  5
104
100
AcDbEntity
  8
Layer_1
 62
7
100
AcDbSpline
 70
8
 71
3
 72
8
 73
4
 74
0
 40
0
 40
0
 40
0
 40
0
 40
1
 40
1
 40
1
 40
1
 10
18.542736
 20
194.049968
 30
0.0
 10
18.859928
 20
174.271400
 30
0.0
 10
19.795984
 20
154.692376
 30
0.0
 10
21.278672
 20
136.371840
 30
0.0
  0
SPLINE
  5
105
100
AcDbEntity
  8
Layer_1
 62
7
100
AcDbSpline
 70
8
 71
3
 72
8
 73
4
 74
0
 40
0
 40
0
 40
0
 40
0
 40
1
 40
1
 40
1
 40
1
 10
21.278672
 20
136.371840
 30
0.0
 10
21.950000
 20
128.150416
 30
0.0
 10
22.774368
 20
119.941440
 30
0.0
 10
23.731800
 20
111.748440
 30
0.0
  0
SPLINE
  5
106
100
AcDbEntity
  8
Layer_1
 62
7
100
AcDbSpline
 70
8
 71
3
 72
8
 73
4
 74
0
 40
0
 40
0
 40
0
 40
0
 40
1
 40
1
 40
1
 40
1
 10
23.731800
 20
111.748440
 30
0.0
 10
24.661008
 20
103.854040
 30
0.0
 10
26.768560
 20
94.676120
 30
0.0
 10
27.858360
 20
86.059320
 30
0.0
  0
SPLINE
  5
107
100
AcDbEntity
  8
Layer_1
 62
7
100
AcDbSpline
 70
8
 71
3
 72
8
 73
4
 74
0
 40
0
 40
0
 40
0
 40
0
 40
1
 40
1
 40
1
 40
1
 10
27.858360
 20
86.059320
 30
0.0
 10
27.957232
 20
85.277560
 30
0.0
 10
27.502128
 20
84.387640
 30
0.0
 10
26.877112
 20
83.907800
 30
0.0
  0
SPLINE
  5
108
100
AcDbEntity
  8
Layer_1
 62
7
100
AcDbSpline
 70
8
 71
3
 72
8
 73
4
 74
0
 40
0
 40
0
 40
0
 40
0
 40
1
 40
1
 40
1
 40
1
 10
26.877112
 20
83.907800
 30
0.0
 10
26.275624
 20
83.445960
 30
0.0
 10
25.355880
 20
83.300920
 30
0.0
 10
24.633360
 20
83.531240
 30
0.0
  0
SPLINE
  5
109
100
AcDbEntity
  8
Layer_1
 62
7
100
AcDbSpline
 70
8
 71
3
 72
8
 73
4
 74
0
 40
0
 40
0
 40
0
 40
0
 40
1
 40
1
 40
1
 40
1
 10
24.633360
 20
83.531240
 30
0.0
 10
23.843856
 20
83.782840
 30
0.0
 10
23.029568
 20
84.472280
 30
0.0
 10
22.872424
 20
85.285880
 30
0.0
  0
SPLINE
  5
10a
100
AcDbEntity
  8
Layer_1
 62
7
100
AcDbSpline
 70
8
 71
3
 72
8
 73
4
 74
0
 40
0
 40
0
 40
0
 40
0
 40
1
 40
1
 40
1
 40
1
 10
22.872424
 20
85.285880
 30
0.0
 10
21.916600
 20
90.234440
 30
0.0
 10
21.632032
 20
91.662200
 30
0.0
 10
20.894296
 20
95.537480
 30
0.0
  0
SPLINE
  5
10b
100
AcDbEntity
  8
Layer_1
 62
7
100
AcDbSpline
 70
8
 71
3
 72
8
 73
4
 74
0
 40
0
 40
0
 40
0
 40
0
 40
1
 40
1
 40
1
 40
1
 10
20.894296
 20
95.537480
 30
0.0
 10
20.753120
 20
96.279000
 30
0.0
 10
20.201640
 20
96.959480
 30
0.0
 10
19.572424
 20
97.376520
 30
0.0
  0
SPLINE
  5
10c
100
AcDbEntity
  8
Layer_1
 62
7
100
AcDbSpline
 70
8
 71
3
 72
8
 73
4
 74
0
 40
0
 40
0
 40
0
 40
0
 40
1
 40
1
 40
1
 40
1
 10
19.572424
 20
97.376520
 30
0.0
 10
18.871808
 20
97.840920
 30
0.0
 10
17.937672
 20
98.097160
 30
0.0
 10
17.113048
 20
97.934360
 30
0.0
  0
SPLINE
  5
10d
100
AcDbEntity
  8
Layer_1
 62
7
100
AcDbSpline
 70
8
 71
3
 72
8
 73
4
 74
0
 40
0
 40
0
 40
0
 40
0
 40
1
 40
1
 40
1
 40
1
 10
17.113048
 20
97.934360
 30
0.0
 10
16.182144
 20
97.750520
 30
0.0
 10
15.268872
 20
97.111480
 30
0.0
 10
14.784928
 20
96.295240
 30
0.0
  0
SPLINE
  5
10e
100
AcDbEntity
  8
Layer_1
 62
7
100
AcDbSpline
 70
8
 71
3
 72
8
 73
4
 74
0
 40
0
 40
0
 40
0
 40
0
 40
1
 40
1
 40
1
 40
1
 10
14.784928
 20
96.295240
 30
0.0
 10
14.375040
 20
95.603960
 30
0.0
 10
14.478608
 20
94.702840
 30
0.0
 10
14.514608
 20
93.899960
 30
0.0
  0
SPLINE
  5
10f
100
AcDbEntity
  8
Layer_1
 62
7
100
AcDbSpline
 70
8
 71
3
 72
8
 73
4
 74
0
 40
0
 40
0
 40
0
 40
0
 40
1
 40
1
 40
1
 40
1
 10
14.514608
 20
93.899960
 30
0.0
 10
14.572528
 20
92.606840
 30
0.0
 10
15.022672
 20
91.360920
 30
0.0
 10
15.294296
 20
90.095240
 30
0.0
  0
SPLINE
  5
110
100
AcDbEntity
  8
Layer_1
 62
7
100
AcDbSpline
 70
8
 71
3
 72
8
 73
4
 74
0
 40
0
 40
0
 40
0
 40
0
 40
1
 40
1
 40
1
 40
1
 10
15.294296
 20
90.095240
 30
0.0
 10
15.992776
 20
86.840760
 30
0.0
 10
16.704096
 20
83.588760
 30
0.0
 10
17.478672
 20
80.351560
 30
0.0
  0
SPLINE
  5
111
100
AcDbEntity
  8
Layer_1
 62
7
100
AcDbSpline
 70
8
 71
3
 72
8
 73
4
 74
0
 40
0
 40
0
 40
0
 40
0
 40
1
 40
1
 40
1
 40
1
 10
17.478672
 20
80.351560
 30
0.0
 10
18.204216
 20
77.319240
 30
0.0
 10
18.950608
 20
74.291640
 30
0.0
 10
19.784928
 20
71.287480
 30
0.0
  0
SPLINE
  5
112
100
AcDbEntity
  8
Layer_1
 62
7
100
AcDbSpline
 70
8
 71
3
 72
8
 73
4
 74
0
 40
0
 40
0
 40
0
 40
0
 40
1
 40
1
 40
1
 40
1
 10
19.784928
 20
71.287480
 30
0.0
 10
21.151072
 20
66.368280
 30
0.0
 10
22.555136
 20
61.453720
 30
0.0
 10
24.203672
 20
56.621800
 30
0.0
  0
SPLINE
  5
113
100
AcDbEntity
  8
Layer_1
 62
7
100
AcDbSpline
 70
8
 71
3
 72
8
 73
4
 74
0
 40
0
 40
0
 40
0
 40
0
 40
1
 40
1
 40
1
 40
1
 10
24.203672
 20
56.621800
 30
0.0
 10
25.911104
 20
51.617320
 30
0.0
 10
27.740824
 20
46.645560
 30
0.0
 10
29.864608
 20
41.803120
 30
0.0
  0
SPLINE
  5
114
100
AcDbEntity
  8
Layer_1
 62
7
100
AcDbSpline
 70
8
 71
3
 72
8
 73
4
 74
0
 40
0
 40
0
 40
0
 40
0
 40
1
 40
1
 40
1
 40
1
 10
29.864608
 20
41.803120
 30
0.0
 10
31.575064
 20
37.903040
 30
0.0
 10
33.414768
 20
34.046320
 30
0.0
 10
35.556800
 20
30.365520
 30
0.0
  0
SPLINE
  5
115
100
AcDbEntity
  8
Layer_1
 62
7
100
AcDbSpline
 70
8
 71
3
 72
8
 73
4
 74
0
 40
0
 40
0
 40
0
 40
0
 40
1
 40
1
 40
1
 40
1
 10
35.556800
 20
30.365520
 30
0.0
 10
37.469408
 20
27.079120
 30
0.0
 10
39.501144
 20
23.830880
 30
0.0
 10
41.925544
 20
20.901520
 30
0.0
  0
SPLINE
  5
116
100
AcDbEntity
  8
Layer_1
 62
7
100
AcDbSpline
 70
8
 71
3
 72
8
 73
4
 74
0
 40
0
 40
0
 40
0
 40
0
 40
1
 40
1
 40
1
 40
1
 10
41.925544
 20
20.901520
 30
0.0
 10
44.005256
 20
18.388640
 30
0.0
 10
46.304904
 20
16.017520
 30
0.0
 10
48.880232
 20
14.015600
 30
0.0
  0
SPLINE
  5
117
100
AcDbEntity
  8
Layer_1
 62
7
100
AcDbSpline
 70
8
 71
3
 72
8
 73
4
 74
0
 40
0
 40
0
 40
0
 40
0
 40
1
 40
1
 40
1
 40
1
 10
48.880232
 20
14.015600
 30
0.0
 10
50.288752
 20
12.920720
 30
0.0
 10
51.814192
 20
11.929120
 30
0.0
 10
53.467736
 20
11.259360
 30
0.0
  0
SPLINE
  5
118
100
AcDbEntity
  8
Layer_1
 62
7
100
AcDbSpline
 70
8
 71
3
 72
8
 73
4
 74
0
 40
0
 40
0
 40
0
 40
0
 40
1
 40
1
 40
1
 40
1
 10
53.467736
 20
11.259360
 30
0.0
 10
55.681104
 20
10.362960
 30
0.0
 10
58.058824
 20
9.746240
 30
0.0
 10
60.444296
 20
9.635920
 30
0.0
  0
SPLINE
  5
119
100
AcDbEntity
  8
Layer_1
 62
7
100
AcDbSpline
 70
8
 71
3
 72
8
 73
4
 74
0
 40
0
 40
0
 40
0
 40
0
 40
1
 40
1
 40
1
 40
1
 10
60.444296
 20
9.635920
 30
0.0
 10
62.077216
 20
9.560720
 30
0.0
 10
63.735008
 20
9.841760
 30
0.0
 10
65.303672
 20
10.301600
 30
0.0
  0
SPLINE
  5
11a
100
AcDbEntity
  8
Layer_1
 62
7
100
AcDbSpline
 70
8
 71
3
 72
8
 73
4
 74
0
 40
0
 40
0
 40
0
 40
0
 40
1
 40
1
 40
1
 40
1
 10
65.303672
 20
10.301600
 30
0.0
 10
67.238992
 20
10.868800
 30
0.0
 10
69.092656
 20
11.762000
 30
0.0
 10
70.792736
 20
12.846880
 30
0.0
  0
SPLINE
  5
11b
100
AcDbEntity
  8
Layer_1
 62
7
100
AcDbSpline
 70
8
 71
3
 72
8
 73
4
 74
0
 40
0
 40
0
 40
0
 40
0
 40
1
 40
1
 40
1
 40
1
 10
70.792736
 20
12.846880
 30
0.0
 10
73.049272
 20
14.286880
 30
0.0
 10
75.048328
 20
16.121440
 30
0.0
 10
76.923984
 20
18.031280
 30
0.0
  0
SPLINE
  5
11c
100
AcDbEntity
  8
Layer_1
 62
7
100
AcDbSpline
 70
8
 71
3
 72
8
 73
4
 74
0
 40
0
 40
0
 40
0
 40
0
 40
1
 40
1
 40
1
 40
1
 10
76.923984
 20
18.031280
 30
0.0
 10
78.650192
 20
19.788800
 30
0.0
 10
80.155600
 20
21.761040
 30
0.0
 10
81.594296
 20
23.760960
 30
0.0
  0
SPLINE
  5
11d
100
AcDbEntity
  8
Layer_1
 62
7
100
AcDbSpline
 70
8
 71
3
 72
8
 73
4
 74
0
 40
0
 40
0
 40
0
 40
0
 40
1
 40
1
 40
1
 40
1
 10
81.594296
 20
23.760960
 30
0.0
 10
83.226256
 20
26.029360
 30
0.0
 10
84.686544
 20
28.420800
 30
0.0
 10
86.070856
 20
30.848480
 30
0.0
  0
SPLINE
  5
11e
100
AcDbEntity
  8
Layer_1
 62
7
100
AcDbSpline
 70
8
 71
3
 72
8
 73
4
 74
0
 40
0
 40
0
 40
0
 40
0
 40
1
 40
1
 40
1
 40
1
 10
86.070856
 20
30.848480
 30
0.0
 10
87.519800
 20
33.389280
 30
0.0
 10
88.839104
 20
36.005680
 30
0.0
 10
90.069296
 20
38.659360
 30
0.0
  0
SPLINE
  5
11f
100
AcDbEntity
  8
Layer_1
 62
7
100
AcDbSpline
 70
8
 71
3
 72
8
 73
4
 74
0
 40
0
 40
0
 40
0
 40
0
 40
1
 40
1
 40
1
 40
1
 10
90.069296
 20
38.659360
 30
0.0
 10
91.798360
 20
42.389080
 30
0.0
 10
93.360336
 20
46.197480
 30
0.0
 10
94.816176
 20
50.042120
 30
0.0
  0
SPLINE
  5
120
100
AcDbEntity
  8
Layer_1
 62
7
100
AcDbSpline
 70
8
 71
3
 72
8
 73
4
 74
0
 40
0
 40
0
 40
0
 40
0
 40
1
 40
1
 40
1
 40
1
 10
94.816176
 20
50.042120
 30
0.0
 10
96.245808
 20
53.817640
 30
0.0
 10
97.531296
 20
57.649240
 30
0.0
 10
98.728672
 20
61.504680
 30
0.0
  0
SPLINE
  5
121
100
AcDbEntity
  8
Layer_1
 62
7
100
AcDbSpline
 70
8
 71
3
 72
8
 73
4
 74
0
 40
0
 40
0
 40
0
 40
0
 40
1
 40
1
 40
1
 40
1
 10
98.728672
 20
61.504680
 30
0.0
 10
100.255856
 20
66.421960
 30
0.0
 10
101.626168
 20
71.388840
 30
0.0
 10
102.898984
 20
76.378120
 30
0.0
  0
SPLINE
  5
122
100
AcDbEntity
  8
Layer_1
 62
7
100
AcDbSpline
 70
8
 71
3
 72
8
 73
4
 74
0
 40
0
 40
0
 40
0
 40
0
 40
1
 40
1
 40
1
 40
1
 10
102.898984
 20
76.378120
 30
0.0
 10
104.074384
 20
80.985480
 30
0.0
 10
105.121200
 20
85.626040
 30
0.0
 10
106.097424
 20
90.279640
 30
0.0
  0
SPLINE
  5
123
100
AcDbEntity
  8
Layer_1
 62
7
100
AcDbSpline
 70
8
 71
3
 72
8
 73
4
 74
0
 40
0
 40
0
 40
0
 40
0
 40
1
 40
1
 40
1
 40
1
 10
106.097424
 20
90.279640
 30
0.0
 10
107.185456
 20
95.466280
 30
0.0
 10
108.159344
 20
100.677240
 30
0.0
 10
109.058360
 20
105.899960
 30
0.0
  0
SPLINE
  5
124
100
AcDbEntity
  8
Layer_1
 62
7
100
AcDbSpline
 70
8
 71
3
 72
8
 73
4
 74
0
 40
0
 40
0
 40
0
 40
0
 40
1
 40
1
 40
1
 40
1
 10
109.058360
 20
105.899960
 30
0.0
 10
109.893456
 20
110.751320
 30
0.0
 10
110.655472
 20
115.615728
 30
0.0
 10
111.317736
 20
120.493720
 30
0.0
  0
SPLINE
  5
125
100
AcDbEntity
  8
Layer_1
 62
7
100
AcDbSpline
 70
8
 71
3
 72
8
 73
4
 74
0
 40
0
 40
0
 40
0
 40
0
 40
1
 40
1
 40
1
 40
1
 10
111.317736
 20
120.493720
 30
0.0
 10
112.423024
 20
128.634872
 30
0.0
 10
113.432576
 20
136.793072
 30
0.0
 10
114.178672
 20
144.974968
 30
0.0
  0
SPLINE
  5
126
100
AcDbEntity
  8
Layer_1
 62
7
100
AcDbSpline
 70
8
 71
3
 72
8
 73
4
 74
0
 40
0
 40
0
 40
0
 40
0
 40
1
 40
1
 40
1
 40
1
 10
114.178672
 20
144.974968
 30
0.0
 10
115.298368
 20
157.253848
 30
0.0
 10
116.144784
 20
169.564560
 30
0.0
 10
116.602112
 20
181.885904
 30
0.0
  0
SPLINE
  5
127
100
AcDbEntity
  8
Layer_1
 62
7
100
AcDbSpline
 70
8
 71
3
 72
8
 73
4
 74
0
 40
0
 40
0
 40
0
 40
0
 40
1
 40
1
 40
1
 40
1
 10
116.602112
 20
181.885904
 30
0.0
 10
117.042232
 20
198.253392
 30
0.0
 10
87.949736
 20
227.937232
 30
0.0
 10
74.886488
 20
251.687464
 30
0.0
  0
SPLINE
  5
128
100
AcDbEntity
  8
Layer_1
 62
7
100
AcDbSpline
 70
8
 71
3
 72
8
 73
4
 74
0
 40
0
 40
0
 40
0
 40
0
 40
1
 40
1
 40
1
 40
1
 10
74.886488
 20
251.687464
 30
0.0
 10
64.105280
 20
271.288728
 30
0.0
 10
51.352792
 20
290.263576
 30
0.0
 10
44.669296
 20
311.612464
 30
0.0
  0
SPLINE
  5
129
100
AcDbEntity
  8
Layer_1
 62
7
100
AcDbSpline
 70
8
 71
3
 72
8
 73
4
 74
0
 40
0
 40
0
 40
0
 40
0
 40
1
 40
1
 40
1
 40
1
 10
44.669296
 20
311.612464
 30
0.0
 10
42.143952
 20
319.679096
 30
0.0
 10
41.248200
 20
328.271464
 30
0.0
 10
41.136488
 20
336.723400
 30
0.0
  0
SPLINE
  5
12a
100
AcDbEntity
  8
Layer_1
 62
7
100
AcDbSpline
 70
8
 71
3
 72
8
 73
4
 74
0
 40
0
 40
0
 40
0
 40
0
 40
1
 40
1
 40
1
 40
1
 10
41.136488
 20
336.723400
 30
0.0
 10
40.945008
 20
351.209928
 30
0.0
 10
44.200128
 20
374.810368
 30
0.0
 10
46.484920
 20
389.504648
 30
0.0
  0
SPLINE
  5
12b
100
AcDbEntity
  8
Layer_1
 62
7
100
AcDbSpline
 70
8
 71
3
 72
8
 73
4
 74
0
 40
0
 40
0
 40
0
 40
0
 40
1
 40
1
 40
1
 40
1
 10
46.484920
 20
389.504648
 30
0.0
 10
45.684120
 20
390.077056
 30
0.0
 10
42.901168
 20
392.067504
 30
0.0
 10
42.011488
 20
392.696832
 30
0.0
  0
SPLINE
  5
12c
100
AcDbEntity
  8
Layer_1
 62
7
100
AcDbSpline
 70
8
 71
3
 72
8
 73
4
 74
0
 40
0
 40
0
 40
0
 40
0
 40
1
 40
1
 40
1
 40
1
 10
42.011488
 20
392.696832
 30
0.0
 10
40.994128
 20
393.416472
 30
0.0
 10
40.474888
 20
393.793120
 30
0.0
 10
40.180232
 20
394.329648
 30
0.0
  0
SPLINE
  5
12d
100
AcDbEntity
  8
Layer_1
 62
7
100
AcDbSpline
 70
8
 71
3
 72
8
 73
4
 74
0
 40
0
 40
0
 40
0
 40
0
 40
1
 40
1
 40
1
 40
1
 10
40.180232
 20
394.329648
 30
0.0
 10
39.885616
 20
394.866176
 30
0.0
 10
39.864128
 20
395.368560
 30
0.0
 10
39.964608
 20
395.810896
 30
0.0
  0
SPLINE
  5
12e
100
AcDbEntity
  8
Layer_1
 62
7
100
AcDbSpline
 70
8
 71
3
 72
8
 73
4
 74
0
 40
0
 40
0
 40
0
 40
0
 40
1
 40
1
 40
1
 40
1
 10
39.964608
 20
395.810896
 30
0.0
 10
40.065088
 20
396.253232
 30
0.0
 10
40.243320
 20
396.617464
 30
0.0
 10
40.625544
 20
396.942144
 30
0.0
  0
SPLINE
  5
12f
100
AcDbEntity
  8
Layer_1
 62
7
100
AcDbSpline
 70
8
 71
3
 72
8
 73
4
 74
0
 40
0
 40
0
 40
0
 40
0
 40
1
 40
1
 40
1
 40
1
 10
40.625544
 20
396.942144
 30
0.0
 10
41.007768
 20
397.266824
 30
0.0
 10
41.652208
 20
397.557160
 30
0.0
 10
42.211488
 20
397.549960
 30
0.0
  0
SPLINE
  5
130
100
AcDbEntity
  8
Layer_1
 62
7
100
AcDbSpline
 70
8
 71
3
 72
8
 73
4
 74
0
 40
0
 40
0
 40
0
 40
0
 40
1
 40
1
 40
1
 40
1
 10
42.211488
 20
397.549960
 30
0.0
 10
42.770768
 20
397.542760
 30
0.0
 10
43.354496
 20
397.278328
 30
0.0
 10
43.742736
 20
396.915584
 30
0.0
  0
SPLINE
  5
131
100
AcDbEntity
  8
Layer_1
 62
7
100
AcDbSpline
 70
8
 71
3
 72
8
 73
4
 74
0
 40
0
 40
0
 40
0
 40
0
 40
1
 40
1
 40
1
 40
1
 10
43.742736
 20
396.915584
 30
0.0
 10
44.130976
 20
396.552840
 30
0.0
 10
44.394664
 20
396.014600
 30
0.0
 10
44.422424
 20
395.545272
 30
0.0
  0
SPLINE
  5
132
100
AcDbEntity
  8
Layer_1
 62
7
100
AcDbSpline
 70
8
 71
3
 72
8
 73
4
 74
0
 40
0
 40
0
 40
0
 40
0
 40
1
 40
1
 40
1
 40
1
 10
44.422424
 20
395.545272
 30
0.0
 10
44.450184
 20
395.075944
 30
0.0
 10
43.989608
 20
394.329648
 30
0.0
 10
43.989608
 20
394.329648
 30
0.0
  0
LWPOLYLINE
  5
133
100
AcDbEntity
  8
Layer_1
 62
7
100
AcDbPolyline
 90
2
 70
1
 10
42.970856
 20
408.321832
 30
0.0
 10
37.300552
 20
402.653088
 30
0.0
  0
SPLINE
  5
134
100
AcDbEntity
  8
Layer_1
 62
7
100
AcDbSpline
 70
8
 71
3
 72
8
 73
4
 74
0
 40
0
 40
0
 40
0
 40
0
 40
1
 40
1
 40
1
 40
1
 10
46.919296
 20
392.254648
 30
0.0
 10
47.899360
 20
398.412008
 30
0.0
 10
48.639608
 20
402.653088
 30
0.0
 10
48.639608
 20
402.653088
 30
0.0
  0
LWPOLYLINE
  5
135
100
AcDbEntity
  8
Layer_1
 62
7
100
AcDbPolyline
 90
2
 70
1
 10
43.989608
 20
394.329648
 30
0.0
 10
46.919296
 20
392.254648
 30
0.0
  0
LWPOLYLINE
  5
136
100
AcDbEntity
  8
Layer_1
 62
7
100
AcDbPolyline
 90
2
 70
1
 10
48.639608
 20
402.653088
 30
0.0
 10
42.970856
 20
408.321832
 30
0.0
  0
SPLINE
  5
137
100
AcDbEntity
  8
Layer_1
 62
7
100
AcDbSpline
 70
8
 71
3
 72
8
 73
4
 74
0
 40
0
 40
0
 40
0
 40
0
 40
1
 40
1
 40
1
 40
1
 10
132.778200
 20
93.409904
 30
0.0
 10
132.778200
 20
93.409904
 30
0.0
 10
138.592912
 20
138.519560
 30
0.0
 10
141.776640
 20
161.036472
 30
0.0
  0
SPLINE
  5
138
100
AcDbEntity
  8
Layer_1
 62
7
100
AcDbSpline
 70
8
 71
3
 72
8
 73
4
 74
0
 40
0
 40
0
 40
0
 40
0
 40
1
 40
1
 40
1
 40
1
 10
141.776640
 20
161.036472
 30
0.0
 10
143.075024
 20
170.219264
 30
0.0
 10
144.749784
 20
179.349176
 30
0.0
 10
145.896952
 20
188.552088
 30
0.0
  0
SPLINE
  5
139
100
AcDbEntity
  8
Layer_1
 62
7
100
AcDbSpline
 70
8
 71
3
 72
8
 73
4
 74
0
 40
0
 40
0
 40
0
 40
0
 40
1
 40
1
 40
1
 40
1
 10
145.896952
 20
188.552088
 30
0.0
 10
147.233856
 20
199.277104
 30
0.0
 10
148.257792
 20
210.042112
 30
0.0
 10
149.114144
 20
220.816152
 30
0.0
  0
SPLINE
  5
13a
100
AcDbEntity
  8
Layer_1
 62
7
100
AcDbSpline
 70
8
 71
3
 72
8
 73
4
 74
0
 40
0
 40
0
 40
0
 40
0
 40
1
 40
1
 40
1
 40
1
 10
149.114144
 20
220.816152
 30
0.0
 10
151.047000
 20
249.595072
 30
0.0
 10
151.955728
 20
275.599120
 30
0.0
 10
151.536016
 20
302.013024
 30
0.0
  0
SPLINE
  5
13b
100
AcDbEntity
  8
Layer_1
 62
7
100
AcDbSpline
 70
8
 71
3
 72
8
 73
4
 74
0
 40
0
 40
0
 40
0
 40
0
 40
1
 40
1
 40
1
 40
1
 10
151.536016
 20
302.013024
 30
0.0
 10
151.218824
 20
321.791592
 30
0.0
 10
150.282768
 20
341.370616
 30
0.0
 10
148.800080
 20
359.691152
 30
0.0
  0
SPLINE
  5
13c
100
AcDbEntity
  8
Layer_1
 62
7
100
AcDbSpline
 70
8
 71
3
 72
8
 73
4
 74
0
 40
0
 40
0
 40
0
 40
0
 40
1
 40
1
 40
1
 40
1
 10
148.800080
 20
359.691152
 30
0.0
 10
148.128752
 20
367.912576
 30
0.0
 10
147.304384
 20
376.121552
 30
0.0
 10
146.346952
 20
384.314552
 30
0.0
  0
SPLINE
  5
13d
100
AcDbEntity
  8
Layer_1
 62
7
100
AcDbSpline
 70
8
 71
3
 72
8
 73
4
 74
0
 40
0
 40
0
 40
0
 40
0
 40
1
 40
1
 40
1
 40
1
 10
146.346952
 20
384.314552
 30
0.0
 10
145.417744
 20
392.208952
 30
0.0
 10
143.310192
 20
401.386872
 30
0.0
 10
142.220392
 20
410.003672
 30
0.0
  0
SPLINE
  5
13e
100
AcDbEntity
  8
Layer_1
 62
7
100
AcDbSpline
 70
8
 71
3
 72
8
 73
4
 74
0
 40
0
 40
0
 40
0
 40
0
 40
1
 40
1
 40
1
 40
1
 10
142.220392
 20
410.003672
 30
0.0
 10
142.121520
 20
410.785432
 30
0.0
 10
142.576624
 20
411.675352
 30
0.0
 10
143.201640
 20
412.155192
 30
0.0
  0
SPLINE
  5
13f
100
AcDbEntity
  8
Layer_1
 62
7
100
AcDbSpline
 70
8
 71
3
 72
8
 73
4
 74
0
 40
0
 40
0
 40
0
 40
0
 40
1
 40
1
 40
1
 40
1
 10
143.201640
 20
412.155192
 30
0.0
 10
143.803128
 20
412.617032
 30
0.0
 10
144.722872
 20
412.762072
 30
0.0
 10
145.445392
 20
412.531752
 30
0.0
  0
SPLINE
  5
140
100
AcDbEntity
  8
Layer_1
 62
7
100
AcDbSpline
 70
8
 71
3
 72
8
 73
4
 74
0
 40
0
 40
0
 40
0
 40
0
 40
1
 40
1
 40
1
 40
1
 10
145.445392
 20
412.531752
 30
0.0
 10
146.234896
 20
412.280152
 30
0.0
 10
147.049184
 20
411.590712
 30
0.0
 10
147.206328
 20
410.777112
 30
0.0
  0
SPLINE
  5
141
100
AcDbEntity
  8
Layer_1
 62
7
100
AcDbSpline
 70
8
 71
3
 72
8
 73
4
 74
0
 40
0
 40
0
 40
0
 40
0
 40
1
 40
1
 40
1
 40
1
 10
147.206328
 20
410.777112
 30
0.0
 10
148.162152
 20
405.828552
 30
0.0
 10
148.446720
 20
404.400792
 30
0.0
 10
149.184456
 20
400.525512
 30
0.0
  0
SPLINE
  5
142
100
AcDbEntity
  8
Layer_1
 62
7
100
AcDbSpline
 70
8
 71
3
 72
8
 73
4
 74
0
 40
0
 40
0
 40
0
 40
0
 40
1
 40
1
 40
1
 40
1
 10
149.184456
 20
400.525512
 30
0.0
 10
149.325632
 20
399.783992
 30
0.0
 10
149.877112
 20
399.103512
 30
0.0
 10
150.506328
 20
398.686472
 30
0.0
  0
SPLINE
  5
143
100
AcDbEntity
  8
Layer_1
 62
7
100
AcDbSpline
 70
8
 71
3
 72
8
 73
4
 74
0
 40
0
 40
0
 40
0
 40
0
 40
1
 40
1
 40
1
 40
1
 10
150.506328
 20
398.686472
 30
0.0
 10
151.206944
 20
398.222072
 30
0.0
 10
152.141080
 20
397.965832
 30
0.0
 10
152.965704
 20
398.128632
 30
0.0
  0
SPLINE
  5
144
100
AcDbEntity
  8
Layer_1
 62
7
100
AcDbSpline
 70
8
 71
3
 72
8
 73
4
 74
0
 40
0
 40
0
 40
0
 40
0
 40
1
 40
1
 40
1
 40
1
 10
152.965704
 20
398.128632
 30
0.0
 10
153.896608
 20
398.312472
 30
0.0
 10
154.809880
 20
398.951512
 30
0.0
 10
155.293824
 20
399.767752
 30
0.0
  0
SPLINE
  5
145
100
AcDbEntity
  8
Layer_1
 62
7
100
AcDbSpline
 70
8
 71
3
 72
8
 73
4
 74
0
 40
0
 40
0
 40
0
 40
0
 40
1
 40
1
 40
1
 40
1
 10
155.293824
 20
399.767752
 30
0.0
 10
155.703712
 20
400.459032
 30
0.0
 10
155.600144
 20
401.360152
 30
0.0
 10
155.564144
 20
402.163032
 30
0.0
  0
SPLINE
  5
146
100
AcDbEntity
  8
Layer_1
 62
7
100
AcDbSpline
 70
8
 71
3
 72
8
 73
4
 74
0
 40
0
 40
0
 40
0
 40
0
 40
1
 40
1
 40
1
 40
1
 10
155.564144
 20
402.163032
 30
0.0
 10
155.506224
 20
403.456152
 30
0.0
 10
155.056080
 20
404.702072
 30
0.0
 10
154.784456
 20
405.967752
 30
0.0
  0
SPLINE
  5
147
100
AcDbEntity
  8
Layer_1
 62
7
100
AcDbSpline
 70
8
 71
3
 72
8
 73
4
 74
0
 40
0
 40
0
 40
0
 40
0
 40
1
 40
1
 40
1
 40
1
 10
154.784456
 20
405.967752
 30
0.0
 10
154.085976
 20
409.222232
 30
0.0
 10
153.374656
 20
412.474232
 30
0.0
 10
152.600080
 20
415.711432
 30
0.0
  0
SPLINE
  5
148
100
AcDbEntity
  8
Layer_1
 62
7
100
AcDbSpline
 70
8
 71
3
 72
8
 73
4
 74
0
 40
0
 40
0
 40
0
 40
0
 40
1
 40
1
 40
1
 40
1
 10
152.600080
 20
415.711432
 30
0.0
 10
151.874536
 20
418.743752
 30
0.0
 10
151.128144
 20
421.771352
 30
0.0
 10
150.293824
 20
424.775512
 30
0.0
  0
SPLINE
  5
149
100
AcDbEntity
  8
Layer_1
 62
7
100
AcDbSpline
 70
8
 71
3
 72
8
 73
4
 74
0
 40
0
 40
0
 40
0
 40
0
 40
1
 40
1
 40
1
 40
1
 10
150.293824
 20
424.775512
 30
0.0
 10
148.927680
 20
429.694712
 30
0.0
 10
147.523616
 20
434.609264
 30
0.0
 10
145.875080
 20
439.441184
 30
0.0
  0
SPLINE
  5
14a
100
AcDbEntity
  8
Layer_1
 62
7
100
AcDbSpline
 70
8
 71
3
 72
8
 73
4
 74
0
 40
0
 40
0
 40
0
 40
0
 40
1
 40
1
 40
1
 40
1
 10
145.875080
 20
439.441184
 30
0.0
 10
144.167648
 20
444.445664
 30
0.0
 10
142.337928
 20
449.417424
 30
0.0
 10
140.214144
 20
454.259904
 30
0.0
  0
SPLINE
  5
14b
100
AcDbEntity
  8
Layer_1
 62
7
100
AcDbSpline
 70
8
 71
3
 72
8
 73
4
 74
0
 40
0
 40
0
 40
0
 40
0
 40
1
 40
1
 40
1
 40
1
 10
140.214144
 20
454.259904
 30
0.0
 10
138.503688
 20
458.159984
 30
0.0
 10
136.663984
 20
462.016704
 30
0.0
 10
134.521952
 20
465.697424
 30
0.0
  0
SPLINE
  5
14c
100
AcDbEntity
  8
Layer_1
 62
7
100
AcDbSpline
 70
8
 71
3
 72
8
 73
4
 74
0
 40
0
 40
0
 40
0
 40
0
 40
1
 40
1
 40
1
 40
1
 10
134.521952
 20
465.697424
 30
0.0
 10
132.609344
 20
468.983904
 30
0.0
 10
130.577608
 20
472.232064
 30
0.0
 10
128.153208
 20
475.161424
 30
0.0
  0
SPLINE
  5
14d
100
AcDbEntity
  8
Layer_1
 62
7
100
AcDbSpline
 70
8
 71
3
 72
8
 73
4
 74
0
 40
0
 40
0
 40
0
 40
0
 40
1
 40
1
 40
1
 40
1
 10
128.153208
 20
475.161424
 30
0.0
 10
126.073496
 20
477.674344
 30
0.0
 10
123.773848
 20
480.045464
 30
0.0
 10
121.198520
 20
482.047384
 30
0.0
  0
SPLINE
  5
14e
100
AcDbEntity
  8
Layer_1
 62
7
100
AcDbSpline
 70
8
 71
3
 72
8
 73
4
 74
0
 40
0
 40
0
 40
0
 40
0
 40
1
 40
1
 40
1
 40
1
 10
121.198520
 20
482.047384
 30
0.0
 10
119.790000
 20
483.142264
 30
0.0
 10
118.264560
 20
484.133864
 30
0.0
 10
116.611016
 20
484.803624
 30
0.0
  0
SPLINE
  5
14f
100
AcDbEntity
  8
Layer_1
 62
7
100
AcDbSpline
 70
8
 71
3
 72
8
 73
4
 74
0
 40
0
 40
0
 40
0
 40
0
 40
1
 40
1
 40
1
 40
1
 10
116.611016
 20
484.803624
 30
0.0
 10
114.397648
 20
485.700024
 30
0.0
 10
112.019928
 20
486.316744
 30
0.0
 10
109.634456
 20
486.427064
 30
0.0
  0
SPLINE
  5
150
100
AcDbEntity
  8
Layer_1
 62
7
100
AcDbSpline
 70
8
 71
3
 72
8
 73
4
 74
0
 40
0
 40
0
 40
0
 40
0
 40
1
 40
1
 40
1
 40
1
 10
109.634456
 20
486.427064
 30
0.0
 10
108.001536
 20
486.502264
 30
0.0
 10
106.343744
 20
486.221224
 30
0.0
 10
104.775080
 20
485.761384
 30
0.0
  0
SPLINE
  5
151
100
AcDbEntity
  8
Layer_1
 62
7
100
AcDbSpline
 70
8
 71
3
 72
8
 73
4
 74
0
 40
0
 40
0
 40
0
 40
0
 40
1
 40
1
 40
1
 40
1
 10
104.775080
 20
485.761384
 30
0.0
 10
102.839760
 20
485.194184
 30
0.0
 10
100.986096
 20
484.300984
 30
0.0
 10
99.286016
 20
483.216104
 30
0.0
  0
SPLINE
  5
152
100
AcDbEntity
  8
Layer_1
 62
7
100
AcDbSpline
 70
8
 71
3
 72
8
 73
4
 74
0
 40
0
 40
0
 40
0
 40
0
 40
1
 40
1
 40
1
 40
1
 10
99.286016
 20
483.216104
 30
0.0
 10
97.029480
 20
481.776104
 30
0.0
 10
95.030424
 20
479.941544
 30
0.0
 10
93.154768
 20
478.031704
 30
0.0
  0
SPLINE
  5
153
100
AcDbEntity
  8
Layer_1
 62
7
100
AcDbSpline
 70
8
 71
3
 72
8
 73
4
 74
0
 40
0
 40
0
 40
0
 40
0
 40
1
 40
1
 40
1
 40
1
 10
93.154768
 20
478.031704
 30
0.0
 10
91.428560
 20
476.274144
 30
0.0
 10
89.923152
 20
474.301904
 30
0.0
 10
88.484456
 20
472.302064
 30
0.0
  0
SPLINE
  5
154
100
AcDbEntity
  8
Layer_1
 62
7
100
AcDbSpline
 70
8
 71
3
 72
8
 73
4
 74
0
 40
0
 40
0
 40
0
 40
0
 40
1
 40
1
 40
1
 40
1
 10
88.484456
 20
472.302064
 30
0.0
 10
86.852496
 20
470.033584
 30
0.0
 10
85.392208
 20
467.642144
 30
0.0
 10
84.007896
 20
465.214544
 30
0.0
  0
SPLINE
  5
155
100
AcDbEntity
  8
Layer_1
 62
7
100
AcDbSpline
 70
8
 71
3
 72
8
 73
4
 74
0
 40
0
 40
0
 40
0
 40
0
 40
1
 40
1
 40
1
 40
1
 10
84.007896
 20
465.214544
 30
0.0
 10
82.558952
 20
462.673744
 30
0.0
 10
81.239648
 20
460.057344
 30
0.0
 10
80.009456
 20
457.403664
 30
0.0
  0
SPLINE
  5
156
100
AcDbEntity
  8
Layer_1
 62
7
100
AcDbSpline
 70
8
 71
3
 72
8
 73
4
 74
0
 40
0
 40
0
 40
0
 40
0
 40
1
 40
1
 40
1
 40
1
 10
80.009456
 20
457.403664
 30
0.0
 10
78.280392
 20
453.673904
 30
0.0
 10
76.718416
 20
449.865504
 30
0.0
 10
75.262576
 20
446.020864
 30
0.0
  0
SPLINE
  5
157
100
AcDbEntity
  8
Layer_1
 62
7
100
AcDbSpline
 70
8
 71
3
 72
8
 73
4
 74
0
 40
0
 40
0
 40
0
 40
0
 40
1
 40
1
 40
1
 40
1
 10
75.262576
 20
446.020864
 30
0.0
 10
73.832944
 20
442.245344
 30
0.0
 10
72.547456
 20
438.413744
 30
0.0
 10
71.350080
 20
434.558304
 30
0.0
  0
SPLINE
  5
158
100
AcDbEntity
  8
Layer_1
 62
7
100
AcDbSpline
 70
8
 71
3
 72
8
 73
4
 74
0
 40
0
 40
0
 40
0
 40
0
 40
1
 40
1
 40
1
 40
1
 10
71.350080
 20
434.558304
 30
0.0
 10
69.822896
 20
429.641032
 30
0.0
 10
68.452584
 20
424.674152
 30
0.0
 10
67.179768
 20
419.684872
 30
0.0
  0
SPLINE
  5
159
100
AcDbEntity
  8
Layer_1
 62
7
100
AcDbSpline
 70
8
 71
3
 72
8
 73
4
 74
0
 40
0
 40
0
 40
0
 40
0
 40
1
 40
1
 40
1
 40
1
 10
67.179768
 20
419.684872
 30
0.0
 10
66.004368
 20
415.077512
 30
0.0
 10
64.957552
 20
410.436952
 30
0.0
 10
63.981328
 20
405.783352
 30
0.0
  0
SPLINE
  5
15a
100
AcDbEntity
  8
Layer_1
 62
7
100
AcDbSpline
 70
8
 71
3
 72
8
 73
4
 74
0
 40
0
 40
0
 40
0
 40
0
 40
1
 40
1
 40
1
 40
1
 10
63.981328
 20
405.783352
 30
0.0
 10
62.893296
 20
400.596712
 30
0.0
 10
61.919408
 20
395.385752
 30
0.0
 10
61.020392
 20
390.163032
 30
0.0
  0
SPLINE
  5
15b
100
AcDbEntity
  8
Layer_1
 62
7
100
AcDbSpline
 70
8
 71
3
 72
8
 73
4
 74
0
 40
0
 40
0
 40
0
 40
0
 40
1
 40
1
 40
1
 40
1
 10
61.020392
 20
390.163032
 30
0.0
 10
60.185296
 20
385.311672
 30
0.0
 10
59.423280
 20
380.447264
 30
0.0
 10
58.761016
 20
375.569272
 30
0.0
  0
SPLINE
  5
15c
100
AcDbEntity
  8
Layer_1
 62
7
100
AcDbSpline
 70
8
 71
3
 72
8
 73
4
 74
0
 40
0
 40
0
 40
0
 40
0
 40
1
 40
1
 40
1
 40
1
 10
58.761016
 20
375.569272
 30
0.0
 10
57.655728
 20
367.428120
 30
0.0
 10
56.646176
 20
359.269920
 30
0.0
 10
55.900080
 20
351.088024
 30
0.0
  0
SPLINE
  5
15d
100
AcDbEntity
  8
Layer_1
 62
7
100
AcDbSpline
 70
8
 71
3
 72
8
 73
4
 74
0
 40
0
 40
0
 40
0
 40
0
 40
1
 40
1
 40
1
 40
1
 10
55.900080
 20
351.088024
 30
0.0
 10
54.780384
 20
338.809144
 30
0.0
 10
53.933968
 20
326.498432
 30
0.0
 10
53.476640
 20
314.177088
 30
0.0
  0
SPLINE
  5
15e
100
AcDbEntity
  8
Layer_1
 62
7
100
AcDbSpline
 70
8
 71
3
 72
8
 73
4
 74
0
 40
0
 40
0
 40
0
 40
0
 40
1
 40
1
 40
1
 40
1
 10
53.476640
 20
314.177088
 30
0.0
 10
53.036520
 20
297.809600
 30
0.0
 10
82.129016
 20
268.125760
 30
0.0
 10
95.192264
 20
244.375528
 30
0.0
  0
SPLINE
  5
15f
100
AcDbEntity
  8
Layer_1
 62
7
100
AcDbSpline
 70
8
 71
3
 72
8
 73
4
 74
0
 40
0
 40
0
 40
0
 40
0
 40
1
 40
1
 40
1
 40
1
 10
95.192264
 20
244.375528
 30
0.0
 10
105.973472
 20
224.774264
 30
0.0
 10
118.725960
 20
205.799416
 30
0.0
 10
125.409456
 20
184.450528
 30
0.0
  0
SPLINE
  5
160
100
AcDbEntity
  8
Layer_1
 62
7
100
AcDbSpline
 70
8
 71
3
 72
8
 73
4
 74
0
 40
0
 40
0
 40
0
 40
0
 40
1
 40
1
 40
1
 40
1
 10
125.409456
 20
184.450528
 30
0.0
 10
127.934800
 20
176.383896
 30
0.0
 10
128.830552
 20
167.791528
 30
0.0
 10
128.942264
 20
159.339592
 30
0.0
  0
SPLINE
  5
161
100
AcDbEntity
  8
Layer_1
 62
7
100
AcDbSpline
 70
8
 71
3
 72
8
 73
4
 74
0
 40
0
 40
0
 40
0
 40
0
 40
1
 40
1
 40
1
 40
1
 10
128.942264
 20
159.339592
 30
0.0
 10
129.133744
 20
144.853064
 30
0.0
 10
125.878624
 20
121.252616
 30
0.0
 10
123.593832
 20
106.558344
 30
0.0
  0
SPLINE
  5
162
100
AcDbEntity
  8
Layer_1
 62
7
100
AcDbSpline
 70
8
 71
3
 72
8
 73
4
 74
0
 40
0
 40
0
 40
0
 40
0
 40
1
 40
1
 40
1
 40
1
 10
123.593832
 20
106.558344
 30
0.0
 10
124.394632
 20
105.985936
 30
0.0
 10
127.177584
 20
103.995488
 30
0.0
 10
128.067264
 20
103.366160
 30
0.0
  0
SPLINE
  5
163
100
AcDbEntity
  8
Layer_1
 62
7
100
AcDbSpline
 70
8
 71
3
 72
8
 73
4
 74
0
 40
0
 40
0
 40
0
 40
0
 40
1
 40
1
 40
1
 40
1
 10
128.067264
 20
103.366160
 30
0.0
 10
129.084624
 20
102.646520
 30
0.0
 10
129.603864
 20
102.269872
 30
0.0
 10
129.898520
 20
101.733344
 30
0.0
  0
SPLINE
  5
164
100
AcDbEntity
  8
Layer_1
 62
7
100
AcDbSpline
 70
8
 71
3
 72
8
 73
4
 74
0
 40
0
 40
0
 40
0
 40
0
 40
1
 40
1
 40
1
 40
1
 10
129.898520
 20
101.733344
 30
0.0
 10
130.193136
 20
101.196816
 30
0.0
 10
130.214624
 20
100.694432
 30
0.0
 10
130.114144
 20
100.252096
 30
0.0
  0
SPLINE
  5
165
100
AcDbEntity
  8
Layer_1
 62
7
100
AcDbSpline
 70
8
 71
3
 72
8
 73
4
 74
0
 40
0
 40
0
 40
0
 40
0
 40
1
 40
1
 40
1
 40
1
 10
130.114144
 20
100.252096
 30
0.0
 10
130.013664
 20
99.809760
 30
0.0
 10
129.835432
 20
99.445528
 30
0.0
 10
129.453208
 20
99.120848
 30
0.0
  0
SPLINE
  5
166
100
AcDbEntity
  8
Layer_1
 62
7
100
AcDbSpline
 70
8
 71
3
 72
8
 73
4
 74
0
 40
0
 40
0
 40
0
 40
0
 40
1
 40
1
 40
1
 40
1
 10
129.453208
 20
99.120848
 30
0.0
 10
129.070984
 20
98.796168
 30
0.0
 10
128.426544
 20
98.505832
 30
0.0
 10
127.867264
 20
98.513032
 30
0.0
  0
SPLINE
  5
167
100
AcDbEntity
  8
Layer_1
 62
7
100
AcDbSpline
 70
8
 71
3
 72
8
 73
4
 74
0
 40
0
 40
0
 40
0
 40
0
 40
1
 40
1
 40
1
 40
1
 10
127.867264
 20
98.513032
 30
0.0
 10
127.307984
 20
98.520232
 30
0.0
 10
126.724256
 20
98.784664
 30
0.0
 10
126.336016
 20
99.147408
 30
0.0
  0
SPLINE
  5
168
100
AcDbEntity
  8
Layer_1
 62
7
100
AcDbSpline
 70
8
 71
3
 72
8
 73
4
 74
0
 40
0
 40
0
 40
0
 40
0
 40
1
 40
1
 40
1
 40
1
 10
126.336016
 20
99.147408
 30
0.0
 10
125.947776
 20
99.510152
 30
0.0
 10
125.684088
 20
100.048392
 30
0.0
 10
125.656328
 20
100.517720
 30
0.0
  0
SPLINE
  5
169
100
AcDbEntity
  8
Layer_1
 62
7
100
AcDbSpline
 70
8
 71
3
 72
8
 73
4
 74
0
 40
0
 40
0
 40
0
 40
0
 40
1
 40
1
 40
1
 40
1
 10
125.656328
 20
100.517720
 30
0.0
 10
125.628568
 20
100.987048
 30
0.0
 10
126.089144
 20
101.733344
 30
0.0
 10
126.089144
 20
101.733344
 30
0.0
  0
LWPOLYLINE
  5
16a
100
AcDbEntity
  8
Layer_1
 62
7
100
AcDbPolyline
 90
2
 70
1
 10
127.107896
 20
87.741160
 30
0.0
 10
132.778200
 20
93.409904
 30
0.0
  0
SPLINE
  5
16b
100
AcDbEntity
  8
Layer_1
 62
7
100
AcDbSpline
 70
8
 71
3
 72
8
 73
4
 74
0
 40
0
 40
0
 40
0
 40
0
 40
1
 40
1
 40
1
 40
1
 10
123.159456
 20
103.808344
 30
0.0
 10
122.179392
 20
97.650984
 30
0.0
 10
121.439144
 20
93.409904
 30
0.0
 10
121.439144
 20
93.409904
 30
0.0
  0
LWPOLYLINE
  5
16c
100
AcDbEntity
  8
Layer_1
 62
7
100
AcDbPolyline
 90
2
 70
1
 10
126.089144
 20
101.733344
 30
0.0
 10
123.159456
 20
103.808344
 30
0.0
  0
LWPOLYLINE
  5
16d
100
AcDbEntity
  8
Layer_1
 62
7
100
AcDbPolyline
 90
2
 70
1
 10
121.439144
 20
93.409904
 30
0.0
 10
127.107896
 20
87.741160
 30
0.0
  0
ENDSEC
  0
SECTION
  2
OBJECTS
  0
DICTIONARY
  5
C
330
0
100
AcDbDictionary
  3
ACAD_GROUP
350
D
  3
ACAD_MLINESTYLE
350
17
  0
DICTIONARY
  5
D
330
C
100
AcDbDictionary
  0
DICTIONARY
  5
1A
330
C
100
AcDbDictionary
  0
DICTIONARY
  5
17
330
C
100
AcDbDictionary
  3
STANDARD
350
18
  0
DICTIONARY
  5
19
330
C
100
AcDbDictionary
  0
ENDSEC
  0
EOF
