0
SECTION
2
HEADER
9
$INSUNITS
70
4
9
$ACADVER
1
AC1014
9
$HANDSEED
5
FFFF
0
ENDSEC
0
SECTION
2
TABLES
0
TABLE
2
VPORT
5
8
100
AcDbSymbolTable
0
ENDTAB
0
TABLE
2
LTYPE
5
5
100
AcDbSymbolTable
70
2
0
LTYPE
5
14
100
AcDbSymbolTableRecord
100
AcDbLinetypeTableRecord
2
BYBLOCK
70
0
0
LTYPE
5
15
100
AcDbSymbolTableRecord
100
AcDbLinetypeTableRecord
2
BYLAYER
70
0
0
ENDTAB
0
TABLE
2
LAYER
5
2
100
AcDbSymbolTable
70
3
0
LAYER
5
50
100
AcDbSymbolTableRecord
100
AcDbLayerTableRecord
2
0
70
0
6
CONTINUOUS
0
LAYER
5
51
100
AcDbSymbolTableRecord
100
AcDbLayerTableRecord
2
CUTOUTS
70
0
62
1
6
CONTINUOUS
0
LAYER
5
52
100
AcDbSymbolTableRecord
100
AcDbLayerTableRecord
2
PERIMETER
70
0
62
5
6
CONTINUOUS
0
ENDTAB
0
TABLE
2
STYLE
5
3
100
AcDbSymbolTable
70
1
0
STYLE
5
11
100
AcDbSymbolTableRecord
100
AcDbTextStyleTableRecord
2
STANDARD
70
0
0
ENDTAB
0
TABLE
2
VIEW
5
6
100
AcDbSymbolTable
0
ENDTAB
0
TABLE
2
UCS
5
7
100
AcDbSymbolTable
0
ENDTAB
0
TABLE
2
APPID
5
9
100
AcDbSymbolTable
70
1
0
APPID
5
12
100
AcDbSymbolTableRecord
100
AcDbRegAppTableRecord
2
ACAD
70
0
0
ENDTAB
0
TABLE
2
DIMSTYLE
5
A
100
AcDbSymbolTable
0
ENDTAB
0
TABLE
2
BLOCK_RECORD
5
1
100
AcDbSymbolTable
70
2
0
BLOCK_RECORD
5
1F
100
AcDbSymbolTableRecord
100
AcDbBlockTableRecord
2
*MODEL_SPACE
0
BLOCK_RECORD
5
1B
100
AcDbSymbolTableRecord
100
AcDbBlockTableRecord
2
*PAPER_SPACE
0
ENDTAB
0
ENDSEC
0
SECTION
2
BLOCKS
0
BLOCK
5
20
100
AcDbEntity
100
AcDbBlockBegin
2
*MODEL_SPACE
0
ENDBLK
5
21
100
AcDbEntity
100
AcDbBlockEnd
0
BLOCK
5
1C
100
AcDbEntity
100
AcDbBlockBegin
2
*PAPER_SPACE
0
ENDBLK
5
1D
100
AcDbEntity
100
AcDbBlockEnd
0
ENDSEC
0
SECTION
2
ENTITIES
0
CIRCLE
5
100
100
AcDbEntity
8
CUTOUTS
100
AcDbCircle
10
-90
20
55
30
0
40
3.1750000000000078
0
CIRCLE
5
101
100
AcDbEntity
8
CUTOUTS
100
AcDbCircle
10
90
20
55
30
0
40
3.1750000000000078
0
CIRCLE
5
102
100
AcDbEntity
8
CUTOUTS
100
AcDbCircle
10
90
20
-85
30
0
40
3.1750000000000078
0
CIRCLE
5
103
100
AcDbEntity
8
CUTOUTS
100
AcDbCircle
10
-90
20
-85
30
0
40
3.1750000000000078
0
LINE
5
104
100
AcDbEntity
8
CUTOUTS
100
AcDbLine
10
52.799999999999997
20
14.924999999999997
30
0
11
121.19999999999997
21
14.924999999999997
31
0
0
ARC
5
105
100
AcDbEntity
8
CUTOUTS
100
AcDbCircle
10
121.20000000000002
20
2.2000000000000064
30
0
40
12.724999999999973
100
AcDbArc
50
0
51
90.000000000000185
0
LINE
5
106
100
AcDbEntity
8
CUTOUTS
100
AcDbLine
10
133.92499999999998
20
2.2000000000000064
30
0
11
133.92499999999998
21
-32.200000000000003
31
0
0
ARC
5
107
100
AcDbEntity
8
CUTOUTS
100
AcDbCircle
10
121.19999999999993
20
-32.199999999999953
30
0
40
12.725000000000026
100
AcDbArc
50
270
51
360
0
LINE
5
108
100
AcDbEntity
8
CUTOUTS
100
AcDbLine
10
121.19999999999993
20
-44.924999999999983
30
0
11
52.799999999999997
21
-44.924999999999997
31
0
0
ARC
5
109
100
AcDbEntity
8
CUTOUTS
100
AcDbCircle
10
52.799999999999976
20
-32.200000000000024
30
0
40
12.724999999999973
100
AcDbArc
50
180
51
270.00000000000011
0
LINE
5
10A
100
AcDbEntity
8
CUTOUTS
100
AcDbLine
10
40.075000000000003
20
-32.200000000000003
30
0
11
40.075000000000003
21
2.2000000000000064
31
0
0
ARC
5
10B
100
AcDbEntity
8
CUTOUTS
100
AcDbCircle
10
52.799999999999976
20
2.2000000000000242
30
0
40
12.724999999999971
100
AcDbArc
50
89.999999999999915
51
180
0
LINE
5
10C
100
AcDbEntity
8
CUTOUTS
100
AcDbLine
10
-29.924999999999997
20
75.075000000000003
30
0
11
-29.925000000000001
21
80.925000000000011
31
0
0
LINE
5
10D
100
AcDbEntity
8
CUTOUTS
100
AcDbLine
10
-29.925000000000001
20
80.924999999999997
30
0
11
29.924999999999994
21
80.924999999999997
31
0
0
LINE
5
10E
100
AcDbEntity
8
CUTOUTS
100
AcDbLine
10
29.924999999999997
20
80.924999999999997
30
0
11
29.924999999999997
21
75.074999999999989
31
0
0
LINE
5
10F
100
AcDbEntity
8
CUTOUTS
100
AcDbLine
10
29.924999999999997
20
75.075000000000003
30
0
11
-29.924999999999997
21
75.075000000000003
31
0
0
LINE
5
110
100
AcDbEntity
8
PERIMETER
100
AcDbLine
10
-40.075000000000003
20
111
30
0
11
-40.07500000000006
21
81.441303566597739
31
0
0
SPLINE
5
111
100
AcDbEntity
8
PERIMETER
100
AcDbSpline
70
1064
71
3
72
50
73
46
74
0
42
0.000000001
43
0.0000000001
44
0.0000000001
40
-1.3004389767235225
40
-1.3004389767235225
40
-1.3004389767235225
40
-1.3004389767235225
40
-0.89773966097911739
40
-0.89773966097911739
40
-0.89773966097911739
40
-0.50859137156405587
40
-0.50859137156405587
40
-0.50859137156405587
40
-0.12772148263748773
40
-0.12772148263748773
40
-0.12772148263748773
40
0.25249128122487802
40
0.25249128122487802
40
0.25249128122487802
40
0.63984614672598816
40
0.63984614672598816
40
0.63984614672598816
40
1.039613745053438
40
1.039613745053438
40
1.039613745053438
40
1.4649690499906689
40
1.4649690499906689
40
1.4649690499906689
40
1.8822599532701652
40
1.8822599532701652
40
1.8822599532701652
40
2.2850101730192716
40
2.2850101730192716
40
2.2850101730192716
40
2.6745260939260089
40
2.6745260939260089
40
2.6745260939260089
40
3.0556400488226201
40
3.0556400488226201
40
3.0556400488226201
40
3.4376768985614965
40
3.4376768985614965
40
3.4376768985614965
40
3.8259262910895688
40
3.8259262910895688
40
3.8259262910895688
40
4.2308193436256758
40
4.2308193436256758
40
4.2308193436256758
40
4.4420316303133163
40
4.4420316303133163
40
4.4420316303133163
40
4.4420316303133163
10
-40.075000000000067
20
81.441303566597739
30
0
10
-59.485411866581046
20
77.854998404571433
30
0
10
-77.790555767499981
20
71.630039632631849
30
0
10
-93.542043741113929
20
63.258213023188262
30
0
10
-108.76348654228397
20
55.168102419642423
30
0
10
-121.5902703591828
20
45.081297379585877
30
0
10
-131.07222880945346
20
33.742852364782351
30
0
10
-140.35247636544116
20
22.645611516365864
30
0
10
-146.42354623130143
20
10.357637114563758
30
0
10
-148.85185004512169
20
-2.2483617905908737
30
0
10
-151.27596424105423
20
-14.832611226751702
30
0
10
-150.06785891453089
20
-27.724523194098101
30
0
10
-145.31390439159392
20
-40.008770659819547
30
0
10
-140.47064927273834
20
-52.523771409740121
30
0
10
-131.94960606140728
20
-64.398656145233161
30
0
10
-120.37818352715877
20
-74.763069539053717
30
0
10
-108.43595636611798
20
-85.459609119524316
30
0
10
-93.251740313036535
20
-94.537743691721019
30
0
10
-76.0103512659595
20
-101.29069779702427
30
0
10
-57.665402034596731
20
-108.47588455229402
30
0
10
-37.005674731916372
20
-113.01718658174028
30
0
10
-15.849775963352105
20
-114.51536443596768
30
0
10
4.9050236226705124
20
-115.98513801774104
30
0
10
26.11572020413929
20
-114.52613240913007
30
0
10
45.98356415555731
20
-110.26193584428889
30
0
10
65.159104418928621
20
-106.14632706862174
30
0
10
83.067363462623632
20
-99.423884692591074
30
0
10
98.291067032968186
20
-90.625778228633536
30
0
10
113.01452247765539
20
-82.116775940121329
30
0
10
125.21738286786584
20
-71.674638213976635
30
0
10
133.99375990383112
20
-60.072143268724325
30
0
10
142.58082806282786
20
-48.719917344403783
30
0
10
147.88294750886877
20
-36.265239553780816
30
0
10
149.52063358087685
20
-23.594294556202886
30
0
10
151.16228542745102
20
-10.892665954325924
30
0
10
149.12001903385806
20
2.0167064281274705
30
0
10
143.54115141382235
20
14.208915133207451
30
0
10
137.87156229969926
20
26.599389053611251
30
0
10
128.55276989305861
20
38.239904262855987
30
0
10
116.27352626839308
20
48.273759181657176
30
0
10
103.46789017543801
20
58.737750175497808
30
0
10
87.449748428923726
20
67.444048852883583
30
0
10
69.500305513894119
20
73.697725011313651
30
0
10
60.136986338358028
20
76.959952489292434
30
0
10
50.255606221619814
20
79.560315110705517
30
0
10
40.074999999999989
20
81.441303566597739
30
0
0
LINE
5
112
100
AcDbEntity
8
PERIMETER
100
AcDbLine
10
40.075000000000003
20
81.441303566597739
30
0
11
40.075000000000003
21
111
31
0
0
ARC
5
113
100
AcDbEntity
8
PERIMETER
100
AcDbCircle
10
36
20
111
30
0
40
4.0750000000000064
100
AcDbArc
50
0
51
90
0
LINE
5
114
100
AcDbEntity
8
PERIMETER
100
AcDbLine
10
36
20
115.075
30
0
11
-36
21
115.075
31
0
0
ARC
5
115
100
AcDbEntity
8
PERIMETER
100
AcDbCircle
10
-36
20
111
30
0
40
4.0750000000000064
100
AcDbArc
50
90
51
180
0
ENDSEC
0
SECTION
2
OBJECTS
0
DICTIONARY
5
C
100
AcDbDictionary
3
ACAD_GROUP
350
D
3
ACAD_MLINESTYLE
350
17
0
DICTIONARY
5
D
100
AcDbDictionary
0
DICTIONARY
5
1A
330
C
100
AcDbDictionary
0
DICTIONARY
5
17
100
AcDbDictionary
0
ENDSEC
0
EOF
