ISO-10303-21;
HEADER;
/* Generated by software containing ST-Developer
 * from STEP Tools, Inc. (www.steptools.com) 
 */

FILE_DESCRIPTION(
/* description */ (''),
/* implementation_level */ '2;1');

FILE_NAME(
/* name */ 
'D:/PICT/SE_SEM2/PBL/Instructables/CAD Files/Caster Wheel .step',
/* time_stamp */ '2022-06-04T22:32:26+05:30',
/* author */ (''),
/* organization */ (''),
/* preprocessor_version */ 'ST-DEVELOPER v19',
/* originating_system */ 'Autodesk Translation Framework v11.7.0.108',
/* authorisation */ '');

FILE_SCHEMA (('AUTOMOTIVE_DESIGN { 1 0 10303 214 3 1 1 }'));
ENDSEC;

DATA;
#10=MECHANICAL_DESIGN_GEOMETRIC_PRESENTATION_REPRESENTATION('',(#13),#323);
#11=SHAPE_REPRESENTATION_RELATIONSHIP('SRR','None',#330,#12);
#12=ADVANCED_BREP_SHAPE_REPRESENTATION('',(#14),#322);
#13=STYLED_ITEM('',(#339),#14);
#14=MANIFOLD_SOLID_BREP('Body1',#177);
#15=FACE_BOUND('',#61,.T.);
#16=FACE_BOUND('',#68,.T.);
#17=FACE_BOUND('',#69,.T.);
#18=FACE_BOUND('',#70,.T.);
#19=FACE_BOUND('',#71,.T.);
#20=FACE_BOUND('',#73,.T.);
#21=FACE_BOUND('',#74,.T.);
#22=FACE_BOUND('',#75,.T.);
#23=FACE_BOUND('',#76,.T.);
#24=LINE('',#287,#30);
#25=LINE('',#294,#31);
#26=LINE('',#298,#32);
#27=LINE('',#304,#33);
#28=LINE('',#310,#34);
#29=LINE('',#316,#35);
#30=VECTOR('',#232,8.);
#31=VECTOR('',#241,1.5);
#32=VECTOR('',#246,3.5);
#33=VECTOR('',#253,1.5);
#34=VECTOR('',#260,1.5);
#35=VECTOR('',#267,13.5);
#36=CYLINDRICAL_SURFACE('',#196,8.);
#37=CYLINDRICAL_SURFACE('',#200,1.5);
#38=CYLINDRICAL_SURFACE('',#203,3.5);
#39=CYLINDRICAL_SURFACE('',#205,1.5);
#40=CYLINDRICAL_SURFACE('',#208,1.5);
#41=CYLINDRICAL_SURFACE('',#211,13.5);
#42=PLANE('',#194);
#43=PLANE('',#199);
#44=PLANE('',#214);
#45=PLANE('',#215);
#46=FACE_OUTER_BOUND('',#57,.T.);
#47=FACE_OUTER_BOUND('',#58,.T.);
#48=FACE_OUTER_BOUND('',#59,.T.);
#49=FACE_OUTER_BOUND('',#60,.T.);
#50=FACE_OUTER_BOUND('',#62,.T.);
#51=FACE_OUTER_BOUND('',#63,.T.);
#52=FACE_OUTER_BOUND('',#64,.T.);
#53=FACE_OUTER_BOUND('',#65,.T.);
#54=FACE_OUTER_BOUND('',#66,.T.);
#55=FACE_OUTER_BOUND('',#67,.T.);
#56=FACE_OUTER_BOUND('',#72,.T.);
#57=EDGE_LOOP('',(#125,#126,#127));
#58=EDGE_LOOP('',(#128));
#59=EDGE_LOOP('',(#129,#130,#131,#132));
#60=EDGE_LOOP('',(#133));
#61=EDGE_LOOP('',(#134));
#62=EDGE_LOOP('',(#135,#136,#137,#138));
#63=EDGE_LOOP('',(#139,#140,#141,#142));
#64=EDGE_LOOP('',(#143,#144,#145,#146));
#65=EDGE_LOOP('',(#147,#148,#149,#150));
#66=EDGE_LOOP('',(#151,#152,#153,#154));
#67=EDGE_LOOP('',(#155));
#68=EDGE_LOOP('',(#156));
#69=EDGE_LOOP('',(#157));
#70=EDGE_LOOP('',(#158));
#71=EDGE_LOOP('',(#159));
#72=EDGE_LOOP('',(#160));
#73=EDGE_LOOP('',(#161));
#74=EDGE_LOOP('',(#162));
#75=EDGE_LOOP('',(#163));
#76=EDGE_LOOP('',(#164));
#77=CIRCLE('',#192,6.);
#78=CIRCLE('',#193,6.);
#79=CIRCLE('',#195,3.5);
#80=CIRCLE('',#197,8.);
#81=CIRCLE('',#198,8.);
#82=CIRCLE('',#201,1.5);
#83=CIRCLE('',#202,1.5);
#84=CIRCLE('',#204,3.5);
#85=CIRCLE('',#206,1.5);
#86=CIRCLE('',#207,1.5);
#87=CIRCLE('',#209,1.5);
#88=CIRCLE('',#210,1.5);
#89=CIRCLE('',#212,13.5);
#90=CIRCLE('',#213,13.5);
#91=VERTEX_POINT('',#276);
#92=VERTEX_POINT('',#278);
#93=VERTEX_POINT('',#281);
#94=VERTEX_POINT('',#284);
#95=VERTEX_POINT('',#286);
#96=VERTEX_POINT('',#291);
#97=VERTEX_POINT('',#293);
#98=VERTEX_POINT('',#297);
#99=VERTEX_POINT('',#301);
#100=VERTEX_POINT('',#303);
#101=VERTEX_POINT('',#307);
#102=VERTEX_POINT('',#309);
#103=VERTEX_POINT('',#313);
#104=VERTEX_POINT('',#315);
#105=EDGE_CURVE('',#91,#91,#77,.T.);
#106=EDGE_CURVE('',#91,#92,#78,.T.);
#107=EDGE_CURVE('',#93,#93,#79,.T.);
#108=EDGE_CURVE('',#94,#94,#80,.T.);
#109=EDGE_CURVE('',#94,#95,#24,.T.);
#110=EDGE_CURVE('',#95,#95,#81,.T.);
#111=EDGE_CURVE('',#96,#96,#82,.T.);
#112=EDGE_CURVE('',#96,#97,#25,.T.);
#113=EDGE_CURVE('',#97,#97,#83,.T.);
#114=EDGE_CURVE('',#93,#98,#26,.T.);
#115=EDGE_CURVE('',#98,#98,#84,.T.);
#116=EDGE_CURVE('',#99,#99,#85,.T.);
#117=EDGE_CURVE('',#99,#100,#27,.T.);
#118=EDGE_CURVE('',#100,#100,#86,.T.);
#119=EDGE_CURVE('',#101,#101,#87,.T.);
#120=EDGE_CURVE('',#101,#102,#28,.T.);
#121=EDGE_CURVE('',#102,#102,#88,.T.);
#122=EDGE_CURVE('',#103,#103,#89,.T.);
#123=EDGE_CURVE('',#103,#104,#29,.T.);
#124=EDGE_CURVE('',#104,#104,#90,.T.);
#125=ORIENTED_EDGE('',*,*,#105,.F.);
#126=ORIENTED_EDGE('',*,*,#106,.T.);
#127=ORIENTED_EDGE('',*,*,#106,.F.);
#128=ORIENTED_EDGE('',*,*,#107,.T.);
#129=ORIENTED_EDGE('',*,*,#108,.F.);
#130=ORIENTED_EDGE('',*,*,#109,.T.);
#131=ORIENTED_EDGE('',*,*,#110,.F.);
#132=ORIENTED_EDGE('',*,*,#109,.F.);
#133=ORIENTED_EDGE('',*,*,#108,.T.);
#134=ORIENTED_EDGE('',*,*,#105,.T.);
#135=ORIENTED_EDGE('',*,*,#111,.F.);
#136=ORIENTED_EDGE('',*,*,#112,.T.);
#137=ORIENTED_EDGE('',*,*,#113,.F.);
#138=ORIENTED_EDGE('',*,*,#112,.F.);
#139=ORIENTED_EDGE('',*,*,#107,.F.);
#140=ORIENTED_EDGE('',*,*,#114,.T.);
#141=ORIENTED_EDGE('',*,*,#115,.F.);
#142=ORIENTED_EDGE('',*,*,#114,.F.);
#143=ORIENTED_EDGE('',*,*,#116,.F.);
#144=ORIENTED_EDGE('',*,*,#117,.T.);
#145=ORIENTED_EDGE('',*,*,#118,.F.);
#146=ORIENTED_EDGE('',*,*,#117,.F.);
#147=ORIENTED_EDGE('',*,*,#119,.F.);
#148=ORIENTED_EDGE('',*,*,#120,.T.);
#149=ORIENTED_EDGE('',*,*,#121,.F.);
#150=ORIENTED_EDGE('',*,*,#120,.F.);
#151=ORIENTED_EDGE('',*,*,#122,.F.);
#152=ORIENTED_EDGE('',*,*,#123,.T.);
#153=ORIENTED_EDGE('',*,*,#124,.F.);
#154=ORIENTED_EDGE('',*,*,#123,.F.);
#155=ORIENTED_EDGE('',*,*,#124,.T.);
#156=ORIENTED_EDGE('',*,*,#121,.T.);
#157=ORIENTED_EDGE('',*,*,#118,.T.);
#158=ORIENTED_EDGE('',*,*,#115,.T.);
#159=ORIENTED_EDGE('',*,*,#113,.T.);
#160=ORIENTED_EDGE('',*,*,#122,.T.);
#161=ORIENTED_EDGE('',*,*,#110,.T.);
#162=ORIENTED_EDGE('',*,*,#119,.T.);
#163=ORIENTED_EDGE('',*,*,#116,.T.);
#164=ORIENTED_EDGE('',*,*,#111,.T.);
#165=SPHERICAL_SURFACE('',#191,6.);
#166=ADVANCED_FACE('',(#46),#165,.T.);
#167=ADVANCED_FACE('',(#47),#42,.F.);
#168=ADVANCED_FACE('',(#48),#36,.T.);
#169=ADVANCED_FACE('',(#49,#15),#43,.T.);
#170=ADVANCED_FACE('',(#50),#37,.F.);
#171=ADVANCED_FACE('',(#51),#38,.F.);
#172=ADVANCED_FACE('',(#52),#39,.F.);
#173=ADVANCED_FACE('',(#53),#40,.F.);
#174=ADVANCED_FACE('',(#54),#41,.T.);
#175=ADVANCED_FACE('',(#55,#16,#17,#18,#19),#44,.T.);
#176=ADVANCED_FACE('',(#56,#20,#21,#22,#23),#45,.F.);
#177=CLOSED_SHELL('',(#166,#167,#168,#169,#170,#171,#172,#173,#174,#175,
#176));
#178=DERIVED_UNIT_ELEMENT(#180,1.);
#179=DERIVED_UNIT_ELEMENT(#325,-3.);
#180=(
MASS_UNIT()
NAMED_UNIT(*)
SI_UNIT(.KILO.,.GRAM.)
);
#181=DERIVED_UNIT((#178,#179));
#182=MEASURE_REPRESENTATION_ITEM('density measure',
POSITIVE_RATIO_MEASURE(7850.),#181);
#183=PROPERTY_DEFINITION_REPRESENTATION(#188,#185);
#184=PROPERTY_DEFINITION_REPRESENTATION(#189,#186);
#185=REPRESENTATION('material name',(#187),#322);
#186=REPRESENTATION('density',(#182),#322);
#187=DESCRIPTIVE_REPRESENTATION_ITEM('Steel','Steel');
#188=PROPERTY_DEFINITION('material property','material name',#332);
#189=PROPERTY_DEFINITION('material property','density of part',#332);
#190=AXIS2_PLACEMENT_3D('placement',#274,#216,#217);
#191=AXIS2_PLACEMENT_3D('',#275,#218,#219);
#192=AXIS2_PLACEMENT_3D('',#277,#220,#221);
#193=AXIS2_PLACEMENT_3D('',#279,#222,#223);
#194=AXIS2_PLACEMENT_3D('',#280,#224,#225);
#195=AXIS2_PLACEMENT_3D('',#282,#226,#227);
#196=AXIS2_PLACEMENT_3D('',#283,#228,#229);
#197=AXIS2_PLACEMENT_3D('',#285,#230,#231);
#198=AXIS2_PLACEMENT_3D('',#288,#233,#234);
#199=AXIS2_PLACEMENT_3D('',#289,#235,#236);
#200=AXIS2_PLACEMENT_3D('',#290,#237,#238);
#201=AXIS2_PLACEMENT_3D('',#292,#239,#240);
#202=AXIS2_PLACEMENT_3D('',#295,#242,#243);
#203=AXIS2_PLACEMENT_3D('',#296,#244,#245);
#204=AXIS2_PLACEMENT_3D('',#299,#247,#248);
#205=AXIS2_PLACEMENT_3D('',#300,#249,#250);
#206=AXIS2_PLACEMENT_3D('',#302,#251,#252);
#207=AXIS2_PLACEMENT_3D('',#305,#254,#255);
#208=AXIS2_PLACEMENT_3D('',#306,#256,#257);
#209=AXIS2_PLACEMENT_3D('',#308,#258,#259);
#210=AXIS2_PLACEMENT_3D('',#311,#261,#262);
#211=AXIS2_PLACEMENT_3D('',#312,#263,#264);
#212=AXIS2_PLACEMENT_3D('',#314,#265,#266);
#213=AXIS2_PLACEMENT_3D('',#317,#268,#269);
#214=AXIS2_PLACEMENT_3D('',#318,#270,#271);
#215=AXIS2_PLACEMENT_3D('',#319,#272,#273);
#216=DIRECTION('axis',(0.,0.,1.));
#217=DIRECTION('refdir',(1.,0.,0.));
#218=DIRECTION('center_axis',(0.,1.,-6.12323399573677E-17));
#219=DIRECTION('ref_axis',(0.,0.,-1.));
#220=DIRECTION('center_axis',(0.,1.,0.));
#221=DIRECTION('ref_axis',(0.,0.,1.));
#222=DIRECTION('center_axis',(1.,0.,-1.22464679914735E-16));
#223=DIRECTION('ref_axis',(1.22464679914735E-16,0.,1.));
#224=DIRECTION('center_axis',(0.,-1.,0.));
#225=DIRECTION('ref_axis',(1.,0.,0.));
#226=DIRECTION('center_axis',(0.,1.,0.));
#227=DIRECTION('ref_axis',(1.,0.,0.));
#228=DIRECTION('center_axis',(0.,-1.,0.));
#229=DIRECTION('ref_axis',(1.,0.,0.));
#230=DIRECTION('center_axis',(0.,-1.,0.));
#231=DIRECTION('ref_axis',(1.,0.,0.));
#232=DIRECTION('',(0.,1.,0.));
#233=DIRECTION('center_axis',(0.,1.,0.));
#234=DIRECTION('ref_axis',(1.,0.,0.));
#235=DIRECTION('center_axis',(0.,-1.,0.));
#236=DIRECTION('ref_axis',(1.,0.,0.));
#237=DIRECTION('center_axis',(0.,-1.,0.));
#238=DIRECTION('ref_axis',(1.,0.,0.));
#239=DIRECTION('center_axis',(0.,1.,0.));
#240=DIRECTION('ref_axis',(1.,0.,0.));
#241=DIRECTION('',(0.,1.,0.));
#242=DIRECTION('center_axis',(0.,-1.,0.));
#243=DIRECTION('ref_axis',(1.,0.,0.));
#244=DIRECTION('center_axis',(0.,-1.,0.));
#245=DIRECTION('ref_axis',(1.,0.,0.));
#246=DIRECTION('',(0.,1.,0.));
#247=DIRECTION('center_axis',(0.,-1.,0.));
#248=DIRECTION('ref_axis',(1.,0.,0.));
#249=DIRECTION('center_axis',(0.,-1.,0.));
#250=DIRECTION('ref_axis',(1.,0.,0.));
#251=DIRECTION('center_axis',(0.,1.,0.));
#252=DIRECTION('ref_axis',(1.,0.,0.));
#253=DIRECTION('',(0.,1.,0.));
#254=DIRECTION('center_axis',(0.,-1.,0.));
#255=DIRECTION('ref_axis',(1.,0.,0.));
#256=DIRECTION('center_axis',(0.,-1.,0.));
#257=DIRECTION('ref_axis',(1.,0.,0.));
#258=DIRECTION('center_axis',(0.,1.,0.));
#259=DIRECTION('ref_axis',(1.,0.,0.));
#260=DIRECTION('',(0.,1.,0.));
#261=DIRECTION('center_axis',(0.,-1.,0.));
#262=DIRECTION('ref_axis',(1.,0.,0.));
#263=DIRECTION('center_axis',(0.,-1.,0.));
#264=DIRECTION('ref_axis',(1.,0.,0.));
#265=DIRECTION('center_axis',(0.,-1.,0.));
#266=DIRECTION('ref_axis',(1.,0.,0.));
#267=DIRECTION('',(0.,1.,0.));
#268=DIRECTION('center_axis',(0.,1.,0.));
#269=DIRECTION('ref_axis',(1.,0.,0.));
#270=DIRECTION('center_axis',(0.,1.,0.));
#271=DIRECTION('ref_axis',(1.,0.,0.));
#272=DIRECTION('center_axis',(0.,1.,0.));
#273=DIRECTION('ref_axis',(1.,0.,0.));
#274=CARTESIAN_POINT('',(0.,0.,0.));
#275=CARTESIAN_POINT('Origin',(0.,-13.5,0.));
#276=CARTESIAN_POINT('',(0.,-13.5,6.));
#277=CARTESIAN_POINT('Origin',(0.,-13.5,0.));
#278=CARTESIAN_POINT('',(4.49927934798557E-32,-19.5,3.67394039744206E-16));
#279=CARTESIAN_POINT('Origin',(0.,-13.5,0.));
#280=CARTESIAN_POINT('Origin',(0.,-0.5,0.));
#281=CARTESIAN_POINT('',(-3.5,-0.5,0.));
#282=CARTESIAN_POINT('Origin',(0.,-0.5,0.));
#283=CARTESIAN_POINT('Origin',(0.,-0.5,0.));
#284=CARTESIAN_POINT('',(-8.,-13.5,-9.79717439317883E-16));
#285=CARTESIAN_POINT('Origin',(0.,-13.5,0.));
#286=CARTESIAN_POINT('',(-8.,-0.5,-9.79717439317883E-16));
#287=CARTESIAN_POINT('',(-8.,-0.5,-9.79717439317883E-16));
#288=CARTESIAN_POINT('Origin',(0.,-0.5,0.));
#289=CARTESIAN_POINT('Origin',(0.,-13.5,0.));
#290=CARTESIAN_POINT('Origin',(0.,0.,-11.));
#291=CARTESIAN_POINT('',(-1.5,-0.5,-11.));
#292=CARTESIAN_POINT('Origin',(0.,-0.5,-11.));
#293=CARTESIAN_POINT('',(-1.5,0.,-11.));
#294=CARTESIAN_POINT('',(-1.5,0.,-11.));
#295=CARTESIAN_POINT('Origin',(0.,0.,-11.));
#296=CARTESIAN_POINT('Origin',(0.,0.,0.));
#297=CARTESIAN_POINT('',(-3.5,0.,4.28626379701574E-16));
#298=CARTESIAN_POINT('',(-3.5,0.,-4.28626379701574E-16));
#299=CARTESIAN_POINT('Origin',(0.,0.,0.));
#300=CARTESIAN_POINT('Origin',(-9.52627944162883,0.,5.5));
#301=CARTESIAN_POINT('',(-11.0262794416288,-0.5,5.5));
#302=CARTESIAN_POINT('Origin',(-9.52627944162883,-0.5,5.5));
#303=CARTESIAN_POINT('',(-11.0262794416288,0.,5.5));
#304=CARTESIAN_POINT('',(-11.0262794416288,0.,5.5));
#305=CARTESIAN_POINT('Origin',(-9.52627944162883,0.,5.5));
#306=CARTESIAN_POINT('Origin',(9.52627944162882,0.,5.5));
#307=CARTESIAN_POINT('',(8.02627944162882,-0.5,5.5));
#308=CARTESIAN_POINT('Origin',(9.52627944162882,-0.5,5.5));
#309=CARTESIAN_POINT('',(8.02627944162882,0.,5.5));
#310=CARTESIAN_POINT('',(8.02627944162882,0.,5.5));
#311=CARTESIAN_POINT('Origin',(9.52627944162882,0.,5.5));
#312=CARTESIAN_POINT('Origin',(0.,0.,0.));
#313=CARTESIAN_POINT('',(-13.5,-0.5,1.11022302462516E-15));
#314=CARTESIAN_POINT('Origin',(0.,-0.5,0.));
#315=CARTESIAN_POINT('',(-13.5,0.,1.65327317884893E-15));
#316=CARTESIAN_POINT('',(-13.5,0.,-1.65327317884893E-15));
#317=CARTESIAN_POINT('Origin',(0.,0.,0.));
#318=CARTESIAN_POINT('Origin',(0.,0.,0.));
#319=CARTESIAN_POINT('Origin',(0.,-0.5,0.));
#320=UNCERTAINTY_MEASURE_WITH_UNIT(LENGTH_MEASURE(0.01),#324,
'DISTANCE_ACCURACY_VALUE',
'Maximum model space distance between geometric entities at asserted c
onnectivities');
#321=UNCERTAINTY_MEASURE_WITH_UNIT(LENGTH_MEASURE(0.01),#324,
'DISTANCE_ACCURACY_VALUE',
'Maximum model space distance between geometric entities at asserted c
onnectivities');
#322=(
GEOMETRIC_REPRESENTATION_CONTEXT(3)
GLOBAL_UNCERTAINTY_ASSIGNED_CONTEXT((#320))
GLOBAL_UNIT_ASSIGNED_CONTEXT((#324,#326,#327))
REPRESENTATION_CONTEXT('','3D')
);
#323=(
GEOMETRIC_REPRESENTATION_CONTEXT(3)
GLOBAL_UNCERTAINTY_ASSIGNED_CONTEXT((#321))
GLOBAL_UNIT_ASSIGNED_CONTEXT((#324,#326,#327))
REPRESENTATION_CONTEXT('','3D')
);
#324=(
LENGTH_UNIT()
NAMED_UNIT(*)
SI_UNIT(.MILLI.,.METRE.)
);
#325=(
LENGTH_UNIT()
NAMED_UNIT(*)
SI_UNIT($,.METRE.)
);
#326=(
NAMED_UNIT(*)
PLANE_ANGLE_UNIT()
SI_UNIT($,.RADIAN.)
);
#327=(
NAMED_UNIT(*)
SI_UNIT($,.STERADIAN.)
SOLID_ANGLE_UNIT()
);
#328=SHAPE_DEFINITION_REPRESENTATION(#329,#330);
#329=PRODUCT_DEFINITION_SHAPE('',$,#332);
#330=SHAPE_REPRESENTATION('',(#190),#322);
#331=PRODUCT_DEFINITION_CONTEXT('part definition',#336,'design');
#332=PRODUCT_DEFINITION('Caster Wheel','Caster Wheel v2',#333,#331);
#333=PRODUCT_DEFINITION_FORMATION('',$,#338);
#334=PRODUCT_RELATED_PRODUCT_CATEGORY('Caster Wheel v2',
'Caster Wheel v2',(#338));
#335=APPLICATION_PROTOCOL_DEFINITION('international standard',
'automotive_design',2009,#336);
#336=APPLICATION_CONTEXT(
'Core Data for Automotive Mechanical Design Process');
#337=PRODUCT_CONTEXT('part definition',#336,'mechanical');
#338=PRODUCT('Caster Wheel','Caster Wheel v2',$,(#337));
#339=PRESENTATION_STYLE_ASSIGNMENT((#340));
#340=SURFACE_STYLE_USAGE(.BOTH.,#341);
#341=SURFACE_SIDE_STYLE('',(#342));
#342=SURFACE_STYLE_FILL_AREA(#343);
#343=FILL_AREA_STYLE('Steel - Satin',(#344));
#344=FILL_AREA_STYLE_COLOUR('Steel - Satin',#345);
#345=COLOUR_RGB('Steel - Satin',0.627450980392157,0.627450980392157,0.627450980392157);
ENDSEC;
END-ISO-10303-21;
