  0
SECTION
  2
HEADER
  9
$ACADVER
  1
AC1009
  9
$EXTMIN
 10
-150.00000000
 20
-272.08742633
 30
0.0
  9
$EXTMAX
 10
150.00000000
 20
496.46856582
 30
0.0
  0
ENDSEC
  0
SECTION
  2
TABLES
  0
TABLE
  2
LAYER
 70
1
 0
LAYER
 2
Standard-Ebene
 70
0
 62
1
 6
CONTINUOUS
 0
ENDTAB
 0
ENDSEC
  0
SECTION
  2
ENTITIES
  0
POLYLINE
  8
Standard-Ebene
 66
   1
 39
0.000000
 70
    1
  0
VERTEX
  8
0
 10
-150.00000000
 20
251.46856582
  0
VERTEX
  8
0
 10
-150.00000000
 20
496.46856582
  0
VERTEX
  8
0
 10
150.00000000
 20
496.46856582
  0
VERTEX
  8
0
 10
150.00000000
 20
251.46856582
  0
VERTEX
  8
0
 10
-150.00000000
 20
251.46856582
  0
SEQEND
  0
POLYLINE
  8
Standard-Ebene
 66
   1
 39
0.000000
 70
    0
  0
VERTEX
  8
0
 10
82.39553000
 20
287.52584182
  0
VERTEX
  8
0
 10
79.27076200
 20
288.47029482
  0
VERTEX
  8
0
 10
76.22159200
 20
289.99121782
  0
VERTEX
  8
0
 10
73.28582200
 20
291.55622282
  0
VERTEX
  8
0
 10
70.50124900
 20
292.63299082
  0
VERTEX
  8
0
 10
68.32473000
 20
293.72810482
  0
VERTEX
  8
0
 10
65.87941400
 20
294.89784382
  0
VERTEX
  8
0
 10
64.55410900
 20
295.79135982
  0
VERTEX
  8
0
 10
63.24823871
 20
297.05219398
 42
-0.07368669
  0
VERTEX
  8
0
 10
62.53315748
 20
297.98153193
  0
VERTEX
  8
0
 10
61.08961400
 20
300.56997082
  0
VERTEX
  8
0
 10
60.11895300
 20
302.24249482
  0
VERTEX
  8
0
 10
58.54763100
 20
304.96144682
  0
VERTEX
  8
0
 10
56.99838400
 20
307.79063982
  0
VERTEX
  8
0
 10
55.60661900
 20
310.60094882
  0
VERTEX
  8
0
 10
54.50780900
 20
313.26318482
  0
VERTEX
  8
0
 10
54.34565700
 20
315.88960382
  0
VERTEX
  8
0
 10
54.31518200
 20
318.53913882
  0
VERTEX
  8
0
 10
54.40250800
 20
321.20631382
  0
VERTEX
  8
0
 10
54.59382400
 20
323.88558382
  0
VERTEX
  8
0
 10
54.87522200
 20
326.57144082
  0
VERTEX
  8
0
 10
55.23289000
 20
329.25843882
  0
VERTEX
  8
0
 10
55.65295300
 20
331.94100282
  0
VERTEX
  8
0
 10
56.12156800
 20
334.61365482
  0
VERTEX
  8
0
 10
56.62485700
 20
337.27091782
  0
VERTEX
  8
0
 10
57.14897800
 20
339.90724782
  0
VERTEX
  8
0
 10
57.68008800
 20
342.51713582
  0
VERTEX
  8
0
 10
58.20427600
 20
345.09510382
  0
VERTEX
  8
0
 10
58.70776700
 20
347.63564082
  0
VERTEX
  8
0
 10
59.43943400
 20
350.54080282
  0
VERTEX
  8
0
 10
60.00498300
 20
353.41048282
  0
VERTEX
  8
0
 10
60.80277400
 20
356.06404982
  0
VERTEX
  8
0
 10
62.23116300
 20
358.32087182
  0
VERTEX
  8
0
 10
64.68850800
 20
360.00031782
  0
VERTEX
  8
0
 10
65.05283100
 20
360.25730482
  0
SEQEND
  0
POLYLINE
  8
Standard-Ebene
 66
   1
 39
0.000000
 70
    0
  0
VERTEX
  8
0
 10
72.75242700
 20
306.87924882
  0
VERTEX
  8
0
 10
72.07546100
 20
306.97631782
  0
VERTEX
  8
0
 10
71.41341300
 20
307.07338782
  0
VERTEX
  8
0
 10
71.00524400
 20
307.28244482
  0
VERTEX
  8
0
 10
71.10107100
 20
310.59886582
  0
VERTEX
  8
0
 10
71.53899628
 20
312.81373329
 42
-0.13319484
  0
VERTEX
  8
0
 10
72.46866474
 20
314.68998847
  0
VERTEX
  8
0
 10
73.79401600
 20
316.18635582
  0
VERTEX
  8
0
 10
75.31719000
 20
317.81157182
  0
VERTEX
  8
0
 10
75.37422816
 20
317.97330439
 42
0.18272502
  0
VERTEX
  8
0
 10
75.31082076
 20
320.80170516
  0
VERTEX
  8
0
 10
75.28072976
 20
320.87620316
 42
0.09171691
  0
VERTEX
  8
0
 10
74.49937532
 20
322.10385736
  0
VERTEX
  8
0
 10
72.50725000
 20
324.24345382
  0
VERTEX
  8
0
 10
70.98424500
 20
326.90884882
  0
VERTEX
  8
0
 10
70.16051500
 20
329.88295582
  0
VERTEX
  8
0
 10
69.76205700
 20
333.49018282
  0
VERTEX
  8
0
 10
69.87172600
 20
336.02198482
  0
VERTEX
  8
0
 10
70.28459900
 20
338.93117782
  0
VERTEX
  8
0
 10
71.12647200
 20
341.78069782
  0
VERTEX
  8
0
 10
72.07107000
 20
343.37193582
 42
-0.10937904
  0
VERTEX
  8
0
 10
73.25442901
 20
344.63302268
  0
VERTEX
  8
0
 10
74.60040800
 20
345.55246182
  0
VERTEX
  8
0
 10
74.80020340
 20
345.61459813
 42
-0.14006524
  0
VERTEX
  8
0
 10
76.99751500
 20
345.66557382
  0
VERTEX
  8
0
 10
77.38633256
 20
345.56416761
 42
-0.05413504
  0
VERTEX
  8
0
 10
78.19358800
 20
345.25727882
  0
VERTEX
  8
0
 10
80.16303400
 20
344.25326382
  0
VERTEX
  8
0
 10
82.77826400
 20
342.54922282
  0
VERTEX
  8
0
 10
85.46983300
 20
340.54154282
  0
VERTEX
  8
0
 10
88.05519200
 20
338.42933282
  0
VERTEX
  8
0
 10
90.35186400
 20
336.41170682
  0
VERTEX
  8
0
 10
92.17733300
 20
334.68774182
  0
VERTEX
  8
0
 10
93.34902100
 20
333.45658282
  0
VERTEX
  8
0
 10
95.30774700
 20
331.64220082
  0
VERTEX
  8
0
 10
97.28142500
 20
329.82781882
  0
VERTEX
  8
0
 10
99.26256200
 20
328.01343782
  0
VERTEX
  8
0
 10
100.67374800
 20
326.56129382
  0
VERTEX
  8
0
 10
103.92451500
 20
324.00667782
  0
VERTEX
  8
0
 10
107.54067900
 20
321.38906182
  0
VERTEX
  8
0
 10
110.04805400
 20
319.74791982
  0
VERTEX
  8
0
 10
111.22777200
 20
318.73122782
  0
VERTEX
  8
0
 10
113.10189400
 20
317.55026682
  0
VERTEX
  8
0
 10
114.68480800
 20
316.69035082
  0
VERTEX
  8
0
 10
115.86857800
 20
316.11300282
 42
0.13677750
  0
VERTEX
  8
0
 10
117.98136272
 20
315.72437784
  0
VERTEX
  8
0
 10
117.73946500
 20
315.70255682
 42
0.11742528
  0
VERTEX
  8
0
 10
119.49642578
 20
316.29209914
  0
VERTEX
  8
0
 10
119.94958178
 20
316.57464314
 42
0.04904878
  0
VERTEX
  8
0
 10
120.57019265
 20
317.05188273
  0
VERTEX
  8
0
 10
121.80296400
 20
318.20855182
  0
VERTEX
  8
0
 10
123.09859627
 20
319.39585443
 42
-0.04987706
  0
VERTEX
  8
0
 10
123.73608900
 20
319.87260382
  0
VERTEX
  8
0
 10
124.68279300
 20
320.44324782
 42
-0.07527845
  0
VERTEX
  8
0
 10
125.78952100
 20
320.90099682
  0
VERTEX
  8
0
 10
127.39542600
 20
321.29723382
  0
VERTEX
  8
0
 10
128.97979147
 20
321.64819917
 42
0.12116957
  0
VERTEX
  8
0
 10
130.69253700
 20
322.49498882
  0
VERTEX
  8
0
 10
130.90609539
 20
322.67498568
 42
0.13022639
  0
VERTEX
  8
0
 10
132.08229600
 20
324.35259082
  0
VERTEX
  8
0
 10
132.59951000
 20
325.75866482
  0
VERTEX
  8
0
 10
133.47098500
 20
328.24141082
  0
VERTEX
  8
0
 10
134.30217300
 20
330.72583782
  0
VERTEX
  8
0
 10
135.09458700
 20
333.21362382
  0
VERTEX
  8
0
 10
135.84970600
 20
335.70638282
  0
VERTEX
  8
0
 10
136.56910900
 20
338.20579482
  0
VERTEX
  8
0
 10
137.25430700
 20
340.71353882
  0
VERTEX
  8
0
 10
137.90674500
 20
343.23129682
  0
VERTEX
  8
0
 10
138.52800300
 20
345.76071282
  0
VERTEX
  8
0
 10
139.11955800
 20
348.30346782
  0
VERTEX
  8
0
 10
139.68295800
 20
350.86120882
  0
VERTEX
  8
0
 10
139.95051200
 20
352.97177182
  0
VERTEX
  8
0
 10
140.34500500
 20
355.64979982
  0
VERTEX
  8
0
 10
140.85894600
 20
357.44674282
  0
VERTEX
  8
0
 10
141.71009879
 20
361.00022156
 42
0.06806981
  0
VERTEX
  8
0
 10
141.81742836
 20
362.07897843
  0
VERTEX
  8
0
 10
141.69893700
 20
365.30066482
  0
VERTEX
  8
0
 10
141.15714300
 20
369.13206782
  0
VERTEX
  8
0
 10
140.59014900
 20
371.65940082
  0
VERTEX
  8
0
 10
139.61078600
 20
374.68088382
  0
VERTEX
  8
0
 10
138.10874600
 20
378.18022182
  0
VERTEX
  8
0
 10
136.52458900
 20
380.66411082
  0
VERTEX
  8
0
 10
136.28939200
 20
381.09096082
  0
VERTEX
  8
0
 10
136.05419400
 20
381.50285882
  0
VERTEX
  8
0
 10
134.89996000
 20
383.29506882
 42
0.04686054
  0
VERTEX
  8
0
 10
134.43784510
 20
383.88339722
  0
VERTEX
  8
0
 10
133.17829800
 20
385.21001082
  0
VERTEX
  8
0
 10
132.48860248
 20
385.97703213
 42
0.05277495
  0
VERTEX
  8
0
 10
131.86280700
 20
386.54043282
  0
VERTEX
  8
0
 10
131.68623800
 20
386.66850482
  0
VERTEX
  8
0
 10
131.53087600
 20
386.77543282
 42
0.09546548
  0
VERTEX
  8
0
 10
130.14416500
 20
387.38217182
  0
VERTEX
  8
0
 10
128.40466700
 20
387.77497282
 42
0.05448736
  0
VERTEX
  8
0
 10
127.54102348
 20
387.87317590
  0
VERTEX
  8
0
 10
125.73821548
 20
387.88102590
 42
0.05454599
  0
VERTEX
  8
0
 10
124.87283574
 20
387.79014952
  0
VERTEX
  8
0
 10
122.81562400
 20
387.34389182
  0
VERTEX
  8
0
 10
120.49234100
 20
386.34695682
  0
VERTEX
  8
0
 10
118.29956000
 20
384.98506082
  0
VERTEX
  8
0
 10
116.20610000
 20
383.35100882
  0
VERTEX
  8
0
 10
114.18081300
 20
381.53770182
  0
VERTEX
  8
0
 10
111.97069400
 20
378.90822582
  0
VERTEX
  8
0
 10
109.93979600
 20
374.92727082
  0
VERTEX
  8
0
 10
108.53606900
 20
371.62580082
  0
VERTEX
  8
0
 10
107.80282400
 20
369.01571182
  0
VERTEX
  8
0
 10
107.21476200
 20
366.34534482
  0
VERTEX
  8
0
 10
106.77020500
 20
363.62659482
  0
VERTEX
  8
0
 10
106.46753900
 20
360.87132182
  0
VERTEX
  8
0
 10
106.30508500
 20
358.09145382
  0
VERTEX
  8
0
 10
106.28116200
 20
355.29885082
  0
VERTEX
  8
0
 10
106.39412400
 20
352.50544182
  0
VERTEX
  8
0
 10
106.64232500
 20
349.72305382
  0
VERTEX
  8
0
 10
107.31529200
 20
344.85875982
  0
VERTEX
  8
0
 10
102.74066500
 20
347.50124282
  0
VERTEX
  8
0
 10
99.70355700
 20
349.39122382
  0
VERTEX
  8
0
 10
96.74836600
 20
351.24340482
  0
VERTEX
  8
0
 10
93.85301600
 20
352.94438782
  0
VERTEX
  8
0
 10
92.27631800
 20
354.05690682
  0
VERTEX
  8
0
 10
89.34817500
 20
355.77421882
  0
VERTEX
  8
0
 10
87.77147700
 20
356.77474982
  0
VERTEX
  8
0
 10
87.20903400
 20
357.09096082
  0
VERTEX
  8
0
 10
86.68639100
 20
357.43569282
  0
VERTEX
  8
0
 10
86.36029100
 20
357.61474182
  0
VERTEX
  8
0
 10
83.92992600
 20
358.83178882
  0
VERTEX
  8
0
 10
81.45474000
 20
360.47444282
  0
VERTEX
  8
0
 10
79.20356200
 20
361.84829882
  0
VERTEX
  8
0
 10
77.88079729
 20
362.59275489
 42
0.09677885
  0
VERTEX
  8
0
 10
76.42443400
 20
363.07483282
  0
VERTEX
  8
0
 10
75.02811300
 20
363.25270782
 42
0.05700387
  0
VERTEX
  8
0
 10
74.11908900
 20
363.26436382
  0
VERTEX
  8
0
 10
71.98765800
 20
363.04821882
 42
0.03999327
  0
VERTEX
  8
0
 10
71.35923100
 20
362.93320982
  0
VERTEX
  8
0
 10
68.82499600
 20
362.25646782
  0
VERTEX
  8
0
 10
66.38435000
 20
361.19653282
  0
VERTEX
  8
0
 10
65.66093800
 20
360.68625182
  0
VERTEX
  8
0
 10
62.41783100
 20
365.06444682
  0
SEQEND
  0
POLYLINE
  8
Standard-Ebene
 66
   1
 39
0.000000
 70
    0
  0
VERTEX
  8
0
 10
72.81962600
 20
306.84564882
  0
VERTEX
  8
0
 10
74.29055200
 20
306.89292382
  0
VERTEX
  8
0
 10
75.85105500
 20
306.93277282
  0
VERTEX
  8
0
 10
77.45638000
 20
306.91284882
  0
VERTEX
  8
0
 10
81.43481500
 20
306.98874982
  0
VERTEX
  8
0
 10
83.47072000
 20
306.14005582
  0
VERTEX
  8
0
 10
83.50556300
 20
306.13881282
  0
VERTEX
  8
0
 10
83.54786500
 20
306.13011082
  0
VERTEX
  8
0
 10
83.60511800
 20
306.10645682
  0
VERTEX
  8
0
 10
84.40962900
 20
303.59239482
  0
VERTEX
  8
0
 10
84.85610100
 20
300.41225382
  0
VERTEX
  8
0
 10
85.07839600
 20
296.94019882
  0
VERTEX
  8
0
 10
85.21037600
 20
293.55039682
  0
VERTEX
  8
0
 10
85.38590100
 20
290.61701182
  0
VERTEX
  8
0
 10
85.02252000
 20
288.88850982
  0
VERTEX
  8
0
 10
84.13649700
 20
287.94395682
  0
VERTEX
  8
0
 10
82.42913000
 20
287.49224282
  0
SEQEND
  0
POLYLINE
  8
Standard-Ebene
 66
   1
 39
0.000000
 70
    0
  0
VERTEX
  8
0
 10
8.35346300
 20
465.69431482
  0
VERTEX
  8
0
 10
8.25006300
 20
468.33410182
  0
VERTEX
  8
0
 10
8.23032700
 20
471.03872782
  0
VERTEX
  8
0
 10
8.31434000
 20
473.85845582
  0
VERTEX
  8
0
 10
8.58864400
 20
476.43565282
  0
VERTEX
  8
0
 10
8.86583000
 20
479.19588982
  0
VERTEX
  8
0
 10
9.23738100
 20
482.03470882
  0
VERTEX
  8
0
 10
9.79478900
 20
484.84771582
  0
VERTEX
  8
0
 10
10.62947600
 20
487.53049182
  0
VERTEX
  8
0
 10
11.50458200
 20
489.31065382
 42
-0.09078096
  0
VERTEX
  8
0
 10
12.36254900
 20
490.46791182
  0
VERTEX
  8
0
 10
12.54523500
 20
490.63870582
 42
-0.07362964
  0
VERTEX
  8
0
 10
13.50911800
 20
491.30491382
  0
VERTEX
  8
0
 10
13.71532249
 20
491.40650935
 42
-0.07342597
  0
VERTEX
  8
0
 10
14.82770208
 20
491.76429870
  0
VERTEX
  8
0
 10
14.82993200
 20
491.76466882
 42
-0.15709364
  0
VERTEX
  8
0
 10
17.25640200
 20
491.40529582
  0
VERTEX
  8
0
 10
18.24622500
 20
490.91651882
  0
VERTEX
  8
0
 10
22.83041800
 20
488.83820882
  0
VERTEX
  8
0
 10
25.30094300
 20
487.73619082
  0
VERTEX
  8
0
 10
28.18201700
 20
486.88156682
  0
VERTEX
  8
0
 10
30.97602000
 20
486.17361682
  0
VERTEX
  8
0
 10
33.70434400
 20
485.60136382
  0
VERTEX
  8
0
 10
36.38838200
 20
485.15383382
  0
VERTEX
  8
0
 10
39.04952700
 20
484.82004882
  0
VERTEX
  8
0
 10
41.70917100
 20
484.58903382
  0
VERTEX
  8
0
 10
44.38870700
 20
484.44981182
  0
VERTEX
  8
0
 10
47.10952800
 20
484.39140682
  0
VERTEX
  8
0
 10
49.89302800
 20
484.40284282
  0
VERTEX
  8
0
 10
52.76059700
 20
484.47314282
  0
VERTEX
  8
0
 10
55.73431100
 20
484.78503882
  0
VERTEX
  8
0
 10
58.67832100
 20
484.99342382
  0
VERTEX
  8
0
 10
61.59605900
 20
485.08090982
  0
VERTEX
  8
0
 10
64.49103200
 20
485.03013482
  0
VERTEX
  8
0
 10
67.36678200
 20
484.82376782
  0
VERTEX
  8
0
 10
70.22674400
 20
484.44441982
  0
VERTEX
  8
0
 10
72.66370100
 20
483.91208782
  0
VERTEX
  8
0
 10
75.04084800
 20
483.08379482
 42
-0.07788812
  0
VERTEX
  8
0
 10
76.13334406
 20
482.50002244
  0
VERTEX
  8
0
 10
77.32334200
 20
481.60247982
  0
VERTEX
  8
0
 10
78.21619401
 20
480.65303670
 42
-0.06208240
  0
VERTEX
  8
0
 10
78.79969743
 20
479.85389747
  0
VERTEX
  8
0
 10
79.87219100
 20
477.92150282
  0
VERTEX
  8
0
 10
80.06766878
 20
477.46928358
 42
-0.23376411
  0
VERTEX
  8
0
 10
79.94649455
 20
475.10812859
  0
VERTEX
  8
0
 10
79.90243700
 20
475.02946682
  0
VERTEX
  8
0
 10
77.97903704
 20
471.76214253
 42
0.04923093
  0
VERTEX
  8
0
 10
77.64884800
 20
471.04909982
  0
VERTEX
  8
0
 10
76.64112600
 20
468.15703382
  0
VERTEX
  8
0
 10
75.27640500
 20
465.06323182
  0
VERTEX
  8
0
 10
71.84804900
 20
457.35308482
  0
VERTEX
  8
0
 10
70.67585300
 20
454.04961882
  0
VERTEX
  8
0
 10
69.62169000
 20
450.72517982
  0
VERTEX
  8
0
 10
68.62567700
 20
447.43481582
  0
VERTEX
  8
0
 10
67.66902700
 20
444.97433282
  0
VERTEX
  8
0
 10
66.89967000
 20
442.40498082
  0
VERTEX
  8
0
 10
66.25622700
 20
439.76289582
  0
VERTEX
  8
0
 10
65.67726300
 20
437.08429082
  0
VERTEX
  8
0
 10
65.10143300
 20
434.40529782
  0
VERTEX
  8
0
 10
64.46736000
 20
431.76205282
  0
VERTEX
  8
0
 10
63.71360800
 20
429.19076982
  0
VERTEX
  8
0
 10
62.77886600
 20
426.72757582
  0
VERTEX
  8
0
 10
62.00798600
 20
425.50384982
  0
VERTEX
  8
0
 10
61.22318200
 20
424.28936282
  0
VERTEX
  8
0
 10
60.43281300
 20
423.09063082
  0
VERTEX
  8
0
 10
57.86629500
 20
420.51923482
  0
VERTEX
  8
0
 10
56.55864200
 20
419.60935282
 42
-0.20312267
  0
VERTEX
  8
0
 10
53.50419410
 20
418.96751762
  0
VERTEX
  8
0
 10
49.97784210
 20
419.65915162
 42
-0.08465112
  0
VERTEX
  8
0
 10
48.72050160
 20
420.13611703
  0
VERTEX
  8
0
 10
46.92221000
 20
421.19332982
  0
VERTEX
  8
0
 10
44.46585900
 20
422.57591882
  0
VERTEX
  8
0
 10
41.93593400
 20
423.88050182
  0
VERTEX
  8
0
 10
39.32880300
 20
425.04956682
  0
VERTEX
  8
0
 10
36.64092500
 20
426.02548882
  0
VERTEX
  8
0
 10
33.86869300
 20
426.75068582
  0
VERTEX
  8
0
 10
31.09748300
 20
427.13672282
  0
VERTEX
  8
0
 10
28.12928400
 20
427.48050982
  0
VERTEX
  8
0
 10
26.85208100
 20
427.65813282
  0
SEQEND
  0
POLYLINE
  8
Standard-Ebene
 66
   1
 39
0.000000
 70
    0
  0
VERTEX
  8
0
 10
8.34933600
 20
465.66096982
  0
VERTEX
  8
0
 10
8.40148400
 20
464.62864482
  0
VERTEX
  8
0
 10
8.56158700
 20
462.15704582
  0
VERTEX
  8
0
 10
8.81680000
 20
458.72943082
  0
VERTEX
  8
0
 10
9.15436800
 20
454.82898182
  0
VERTEX
  8
0
 10
9.56145100
 20
450.93898982
  0
VERTEX
  8
0
 10
10.02526400
 20
447.54267382
  0
VERTEX
  8
0
 10
10.53302600
 20
445.12325082
  0
VERTEX
  8
0
 10
10.96136200
 20
443.99772182
  0
VERTEX
  8
0
 10
11.97559300
 20
441.09017382
  0
VERTEX
  8
0
 10
13.35168100
 20
438.07812782
  0
VERTEX
  8
0
 10
15.03947700
 20
435.19488882
  0
VERTEX
  8
0
 10
16.87826500
 20
432.50747282
  0
VERTEX
  8
0
 10
18.70733100
 20
430.08290082
  0
VERTEX
  8
0
 10
18.95055300
 20
429.85968382
  0
VERTEX
  8
0
 10
19.19561200
 20
429.65130682
  0
VERTEX
  8
0
 10
18.88615453
 20
429.90414946
 42
0.08894852
  0
VERTEX
  8
0
 10
20.12009560
 20
429.21777720
  0
VERTEX
  8
0
 10
22.16145200
 20
428.51811882
  0
VERTEX
  8
0
 10
25.10397900
 20
427.90124382
  0
VERTEX
  8
0
 10
26.02423900
 20
427.77326182
  0
VERTEX
  8
0
 10
26.02423900
 20
423.42908582
  0
SEQEND
  0
POLYLINE
  8
Standard-Ebene
 66
   1
 39
0.000000
 70
    0
  0
VERTEX
  8
0
 10
-67.29234200
 20
427.82156082
  0
VERTEX
  8
0
 10
-74.83596600
 20
430.29223382
  0
VERTEX
  8
0
 10
-77.19689400
 20
430.95403182
  0
VERTEX
  8
0
 10
-78.47062400
 20
431.32880282
  0
VERTEX
  8
0
 10
-80.78140700
 20
432.12776882
  0
VERTEX
  8
0
 10
-83.81229900
 20
433.23259382
  0
VERTEX
  8
0
 10
-87.24638600
 20
434.52490382
  0
VERTEX
  8
0
 10
-90.76672300
 20
435.88636182
  0
VERTEX
  8
0
 10
-94.05646600
 20
437.19859682
  0
VERTEX
  8
0
 10
-96.79863600
 20
438.34323682
  0
VERTEX
  8
0
 10
-98.67635300
 20
439.20194382
  0
VERTEX
  8
0
 10
-99.37267200
 20
439.65634482
  0
VERTEX
  8
0
 10
-101.88740600
 20
440.66171482
  0
VERTEX
  8
0
 10
-104.39582200
 20
441.80252382
  0
VERTEX
  8
0
 10
-106.03677100
 20
442.03366682
 42
0.16004994
  0
VERTEX
  8
0
 10
-107.67517000
 20
441.73980982
  0
VERTEX
  8
0
 10
-109.41897200
 20
440.79873382
  0
VERTEX
  8
0
 10
-111.48599000
 20
439.77831182
  0
VERTEX
  8
0
 10
-114.15030900
 20
438.48159982
  0
VERTEX
  8
0
 10
-115.73972500
 20
437.87867682
  0
VERTEX
  8
0
 10
-117.23899100
 20
437.11520282
  0
VERTEX
  8
0
 10
-117.81888800
 20
436.86757282
  0
VERTEX
  8
0
 10
-119.75392927
 20
435.92223961
 42
-0.07157685
  0
VERTEX
  8
0
 10
-120.47695603
 20
435.68941972
  0
VERTEX
  8
0
 10
-123.13260800
 20
435.23735082
  0
VERTEX
  8
0
 10
-125.74840900
 20
435.01959182
  0
VERTEX
  8
0
 10
-128.50831900
 20
434.38381882
  0
VERTEX
  8
0
 10
-131.92654700
 20
433.73860482
  0
VERTEX
  8
0
 10
-135.21249300
 20
432.86027582
  0
VERTEX
  8
0
 10
-137.57549000
 20
431.52522682
  0
VERTEX
  8
0
 10
-139.50595900
 20
430.15651082
  0
VERTEX
  8
0
 10
-141.10715100
 20
428.57930882
  0
VERTEX
  8
0
 10
-142.40362800
 20
426.81724182
  0
VERTEX
  8
0
 10
-143.42001800
 20
424.89389582
  0
VERTEX
  8
0
 10
-144.18094900
 20
422.83285882
  0
VERTEX
  8
0
 10
-144.71098400
 20
420.65775082
  0
VERTEX
  8
0
 10
-145.03478400
 20
418.39212582
  0
VERTEX
  8
0
 10
-145.17691000
 20
416.05963682
  0
VERTEX
  8
0
 10
-145.16202600
 20
413.68380482
  0
VERTEX
  8
0
 10
-145.01469100
 20
411.28828282
  0
VERTEX
  8
0
 10
-144.75956900
 20
408.89662582
  0
VERTEX
  8
0
 10
-144.42122000
 20
406.53245282
  0
VERTEX
  8
0
 10
-144.02427400
 20
404.21935082
  0
VERTEX
  8
0
 10
-143.59335800
 20
401.98090782
  0
VERTEX
  8
0
 10
-143.15303500
 20
399.84074382
  0
VERTEX
  8
0
 10
-143.11785600
 20
396.96323482
  0
VERTEX
  8
0
 10
-143.37563200
 20
394.00700182
  0
VERTEX
  8
0
 10
-143.86649000
 20
391.01925282
  0
VERTEX
  8
0
 10
-144.53062100
 20
388.04726082
  0
VERTEX
  8
0
 10
-144.85915800
 20
384.47326482
  0
VERTEX
  8
0
 10
-145.18769600
 20
380.77978882
  0
VERTEX
  8
0
 10
-145.33701300
 20
377.02657182
  0
VERTEX
  8
0
 10
-145.37081400
 20
374.13757182
  0
VERTEX
  8
0
 10
-145.28234600
 20
371.25623282
  0
VERTEX
  8
0
 10
-145.08928300
 20
368.37784982
  0
VERTEX
  8
0
 10
-144.80922900
 20
365.49768682
  0
VERTEX
  8
0
 10
-144.45979300
 20
362.61103882
  0
VERTEX
  8
0
 10
-144.05864600
 20
359.71323582
  0
VERTEX
  8
0
 10
-143.62343000
 20
356.79957382
  0
VERTEX
  8
0
 10
-142.89542600
 20
353.71959382
  0
VERTEX
  8
0
 10
-142.36905400
 20
350.32602782
  0
VERTEX
  8
0
 10
-141.30505300
 20
347.22366982
  0
VERTEX
  8
0
 10
-140.43643500
 20
343.60733782
  0
VERTEX
  8
0
 10
-139.46328800
 20
339.72970082
  0
VERTEX
  8
0
 10
-138.21388400
 20
336.06858082
  0
VERTEX
  8
0
 10
-137.47096200
 20
332.57297282
  0
VERTEX
  8
0
 10
-136.45924200
 20
328.91309582
  0
VERTEX
  8
0
 10
-135.69390900
 20
325.14868982
  0
VERTEX
  8
0
 10
-135.13800300
 20
322.69702382
  0
VERTEX
  8
0
 10
-134.86806300
 20
320.12006382
  0
VERTEX
  8
0
 10
-134.86386300
 20
317.46182682
  0
VERTEX
  8
0
 10
-135.10524300
 20
314.76625982
  0
VERTEX
  8
0
 10
-135.57201000
 20
312.07731182
  0
VERTEX
  8
0
 10
-136.24393600
 20
309.43896582
  0
VERTEX
  8
0
 10
-137.10089500
 20
306.89523582
  0
VERTEX
  8
0
 10
-138.12266100
 20
304.49000382
  0
VERTEX
  8
0
 10
-139.28907300
 20
302.26731882
  0
VERTEX
  8
0
 10
-140.26719300
 20
300.37081982
  0
VERTEX
  8
0
 10
-141.44691100
 20
298.42949782
  0
VERTEX
  8
0
 10
-142.31304300
 20
296.62257582
  0
VERTEX
  8
0
 10
-143.08103100
 20
294.87176382
  0
VERTEX
  8
0
 10
-143.28269600
 20
292.60378682
  0
VERTEX
  8
0
 10
-143.02360900
 20
289.96113982
  0
VERTEX
  8
0
 10
-142.40947400
 20
287.08618482
  0
VERTEX
  8
0
 10
-141.54586200
 20
284.12134982
  0
VERTEX
  8
0
 10
-140.53847700
 20
281.20903182
  0
VERTEX
  8
0
 10
-139.49292200
 20
278.49169282
  0
VERTEX
  8
0
 10
-138.51483600
 20
276.11176182
  0
VERTEX
  8
0
 10
-137.75760700
 20
274.32424382
  0
VERTEX
  8
0
 10
-136.77034200
 20
272.34120682
  0
VERTEX
  8
0
 10
-136.25267200
 20
271.47883782
  0
VERTEX
  8
0
 10
-135.59311000
 20
270.54245882
  0
VERTEX
  8
0
 10
-134.24052330
 20
268.62788570
 42
0.04741070
  0
VERTEX
  8
0
 10
-133.74728700
 20
268.05381382
  0
VERTEX
  8
0
 10
-131.91220000
 20
266.28772382
  0
VERTEX
  8
0
 10
-129.48711100
 20
264.44995682
  0
VERTEX
  8
0
 10
-126.96686700
 20
262.72669682
  0
VERTEX
  8
0
 10
-124.57242000
 20
261.04053182
  0
VERTEX
  8
0
 10
-122.11497500
 20
259.65898082
  0
VERTEX
  8
0
 10
-119.67940200
 20
258.46521782
  0
VERTEX
  8
0
 10
-117.24520700
 20
257.45033982
  0
VERTEX
  8
0
 10
-114.79192800
 20
256.60554382
  0
VERTEX
  8
0
 10
-112.29910200
 20
255.92199182
  0
VERTEX
  8
0
 10
-109.74626600
 20
255.39081482
  0
VERTEX
  8
0
 10
-107.11296000
 20
255.00314182
  0
VERTEX
  8
0
 10
-104.37868600
 20
254.75016982
  0
VERTEX
  8
0
 10
-101.52305100
 20
254.62299582
  0
SEQEND
  0
POLYLINE
  8
Standard-Ebene
 66
   1
 39
0.000000
 70
    0
  0
VERTEX
  8
0
 10
-28.14138500
 20
420.40373782
  0
VERTEX
  8
0
 10
-30.60860800
 20
420.64837682
  0
VERTEX
  8
0
 10
-33.09767100
 20
420.90981582
  0
VERTEX
  8
0
 10
-35.60387000
 20
421.19097782
  0
VERTEX
  8
0
 10
-38.12256800
 20
421.49468482
  0
VERTEX
  8
0
 10
-40.64902800
 20
421.82382782
  0
VERTEX
  8
0
 10
-43.17864600
 20
422.18132782
  0
VERTEX
  8
0
 10
-45.70668400
 20
422.56997482
  0
VERTEX
  8
0
 10
-48.22847400
 20
422.99269282
  0
VERTEX
  8
0
 10
-50.73934300
 20
423.45233582
  0
VERTEX
  8
0
 10
-53.23465500
 20
423.95176182
  0
VERTEX
  8
0
 10
-55.70967400
 20
424.49389182
  0
VERTEX
  8
0
 10
-58.15976100
 20
425.08154982
  0
VERTEX
  8
0
 10
-60.58018000
 20
425.71765882
  0
VERTEX
  8
0
 10
-62.96632800
 20
426.40504082
  0
VERTEX
  8
0
 10
-65.31349900
 20
427.14658582
  0
VERTEX
  8
0
 10
-67.61699200
 20
427.94514882
  0
SEQEND
  0
POLYLINE
  8
Standard-Ebene
 66
   1
 39
0.000000
 70
    0
  0
VERTEX
  8
0
 10
-28.07418500
 20
420.37013782
  0
VERTEX
  8
0
 10
-25.98865400
 20
420.47540582
  0
VERTEX
  8
0
 10
-23.67000900
 20
420.72945282
  0
VERTEX
  8
0
 10
-21.24599500
 20
421.17404382
  0
VERTEX
  8
0
 10
-18.84435800
 20
421.85090882
  0
VERTEX
  8
0
 10
-16.59291200
 20
422.80184682
  0
VERTEX
  8
0
 10
-14.61940200
 20
424.06858782
  0
VERTEX
  8
0
 10
-13.18920900
 20
425.55027082
 42
0.07393003
  0
VERTEX
  8
0
 10
-12.96131800
 20
425.86940182
  0
VERTEX
  8
0
 10
-12.11577900
 20
427.52356738
 42
0.08073999
  0
VERTEX
  8
0
 10
-11.98469717
 20
427.93081122
  0
VERTEX
  8
0
 10
-11.67718000
 20
429.96177382
 42
0.08266976
  0
VERTEX
  8
0
 10
-11.68361347
 20
430.39963516
  0
VERTEX
  8
0
 10
-11.74723500
 20
430.74994782
  0
VERTEX
  8
0
 10
-11.88785000
 20
431.34852582
  0
VERTEX
  8
0
 10
-12.01354600
 20
431.62602582
  0
VERTEX
  8
0
 10
-12.18030100
 20
431.96077882
  0
VERTEX
  8
0
 10
-12.33959700
 20
432.28807282
  0
VERTEX
  8
0
 10
-12.37296311
 20
432.36027187
 42
0.21079723
  0
VERTEX
  8
0
 10
-13.18051824
 20
433.07196908
  0
VERTEX
  8
0
 10
-15.19929800
 20
433.71169082
  0
VERTEX
  8
0
 10
-18.61651800
 20
435.01710482
  0
VERTEX
  8
0
 10
-20.34626300
 20
436.32997882
  0
VERTEX
  8
0
 10
-22.68148570
 20
438.67442138
 42
-0.05093647
  0
VERTEX
  8
0
 10
-23.02292733
 20
439.09523614
  0
VERTEX
  8
0
 10
-24.54916533
 20
441.42549314
 42
-0.05377552
  0
VERTEX
  8
0
 10
-24.80942013
 20
441.93479604
  0
VERTEX
  8
0
 10
-25.89020700
 20
444.76349382
  0
VERTEX
  8
0
 10
-26.25944600
 20
446.27073482
 42
-0.04335834
  0
VERTEX
  8
0
 10
-26.33006321
 20
446.72691799
  0
VERTEX
  8
0
 10
-26.43216800
 20
448.25039982
  0
VERTEX
  8
0
 10
-26.40966500
 20
449.20001782
 42
-0.07713142
  0
VERTEX
  8
0
 10
-26.35374300
 20
450.01596482
  0
VERTEX
  8
0
 10
-25.88473379
 20
452.09006532
 42
-0.07936391
  0
VERTEX
  8
0
 10
-25.57208890
 20
452.87105184
  0
VERTEX
  8
0
 10
-24.80833600
 20
454.14756082
 42
-0.08118385
  0
VERTEX
  8
0
 10
-24.25334400
 20
454.80488082
  0
VERTEX
  8
0
 10
-23.16144562
 20
455.73883870
 42
-0.06723563
  0
VERTEX
  8
0
 10
-22.56165800
 20
456.12610182
  0
VERTEX
  8
0
 10
-20.81245800
 20
456.94757182
  0
VERTEX
  8
0
 10
-18.47103200
 20
457.53314682
  0
VERTEX
  8
0
 10
-15.97568600
 20
457.81750082
  0
VERTEX
  8
0
 10
-13.43857500
 20
457.88842982
  0
VERTEX
  8
0
 10
-11.97659300
 20
457.85602882
 42
-0.18216506
  0
VERTEX
  8
0
 10
-10.23186100
 20
457.15402182
  0
VERTEX
  8
0
 10
-10.06968300
 20
457.00506882
 42
-0.13531778
  0
VERTEX
  8
0
 10
-9.31811486
 20
455.80330843
  0
VERTEX
  8
0
 10
-9.09382286
 20
455.05135243
 42
-0.07444864
  0
VERTEX
  8
0
 10
-8.98264040
 20
454.26948427
  0
VERTEX
  8
0
 10
-8.99535500
 20
452.54403382
  0
VERTEX
  8
0
 10
-9.24436300
 20
450.36113082
  0
VERTEX
  8
0
 10
-9.37120100
 20
448.67454482
 42
0.06126331
  0
VERTEX
  8
0
 10
-9.34041200
 20
448.02424782
  0
VERTEX
  8
0
 10
-9.26730808
 20
447.59756324
 42
0.16067088
  0
VERTEX
  8
0
 10
-8.48354708
 20
446.12213792
  0
VERTEX
  8
0
 10
-8.08238500
 20
445.73788482
  0
VERTEX
  8
0
 10
-7.24025191
 20
444.56612118
 42
0.14605971
  0
VERTEX
  8
0
 10
-6.03291800
 20
443.63379782
  0
VERTEX
  8
0
 10
-4.70423267
 20
443.12226682
 42
0.05319843
  0
VERTEX
  8
0
 10
-4.15758329
 20
442.97614150
  0
VERTEX
  8
0
 10
-1.82216029
 20
442.61144650
 42
0.03874614
  0
VERTEX
  8
0
 10
-1.41072900
 20
442.57951582
  0
VERTEX
  8
0
 10
-1.31890700
 20
442.57951582
  0
VERTEX
  8
0
 10
-1.02645600
 20
442.57951582
  0
VERTEX
  8
0
 10
1.50719400
 20
442.67285582
  0
VERTEX
  8
0
 10
3.93120900
 20
442.40205382
 42
-0.10270911
  0
VERTEX
  8
0
 10
4.96166100
 20
442.06519282
  0
VERTEX
  8
0
 10
5.57718500
 20
441.71223082
 42
-0.24310934
  0
VERTEX
  8
0
 10
6.90497600
 20
439.65509782
  0
VERTEX
  8
0
 10
7.02859300
 20
438.37418182
  0
VERTEX
  8
0
 10
6.47729000
 20
435.14861382
  0
VERTEX
  8
0
 10
5.41634700
 20
431.77789582
  0
VERTEX
  8
0
 10
4.14735500
 20
428.64909482
  0
VERTEX
  8
0
 10
2.97190400
 20
426.14927982
  0
VERTEX
  8
0
 10
1.66151700
 20
424.06610082
  0
VERTEX
  8
0
 10
0.35113000
 20
421.98292182
  0
VERTEX
  8
0
 10
-0.95925700
 20
419.89974282
  0
VERTEX
  8
0
 10
-2.65953400
 20
417.78558482
  0
VERTEX
  8
0
 10
-4.45624200
 20
415.71238482
  0
VERTEX
  8
0
 10
-6.34511500
 20
413.69586682
  0
VERTEX
  8
0
 10
-8.32178300
 20
411.75182382
  0
VERTEX
  8
0
 10
-10.38191300
 20
409.89598082
  0
VERTEX
  8
0
 10
-12.52120300
 20
408.14406082
  0
VERTEX
  8
0
 10
-14.73532000
 20
406.51185582
  0
VERTEX
  8
0
 10
-17.01989600
 20
405.01509182
  0
VERTEX
  8
0
 10
-18.94999500
 20
403.66986182
  0
VERTEX
  8
0
 10
-21.77613000
 20
401.98117682
  0
VERTEX
  8
0
 10
-23.37023300
 20
401.15112982
  0
VERTEX
  8
0
 10
-25.88550300
 20
399.78577482
  0
VERTEX
  8
0
 10
-28.39724600
 20
398.48570282
  0
VERTEX
  8
0
 10
-30.91429800
 20
397.25434182
  0
VERTEX
  8
0
 10
-33.44542800
 20
396.09532182
  0
VERTEX
  8
0
 10
-35.99950600
 20
395.01210182
  0
VERTEX
  8
0
 10
-38.58530300
 20
394.00821082
  0
VERTEX
  8
0
 10
-41.21165400
 20
393.08721082
  0
VERTEX
  8
0
 10
-44.36266400
 20
392.27958082
  0
VERTEX
  8
0
 10
-47.57039100
 20
391.46845082
  0
VERTEX
  8
0
 10
-51.94741300
 20
389.50097882
  0
VERTEX
  8
0
 10
-69.13352700
 20
406.53835282
  0
VERTEX
  8
0
 10
-71.94960600
 20
403.69768882
  0
VERTEX
  8
0
 10
-53.97585100
 20
385.87948882
  0
VERTEX
  8
0
 10
-54.67090700
 20
382.81481882
  0
VERTEX
  8
0
 10
-55.48280900
 20
380.00205682
  0
VERTEX
  8
0
 10
-56.46570000
 20
377.37678082
  0
VERTEX
  8
0
 10
-57.67021400
 20
374.89077482
  0
VERTEX
  8
0
 10
-59.14681900
 20
372.49589182
  0
VERTEX
  8
0
 10
-60.94611400
 20
370.14391582
  0
VERTEX
  8
0
 10
-63.11863500
 20
367.78666382
  0
VERTEX
  8
0
 10
-65.37975800
 20
366.08426982
  0
VERTEX
  8
0
 10
-67.63342200
 20
364.29229882
  0
VERTEX
  8
0
 10
-69.53617100
 20
362.14192082
  0
VERTEX
  8
0
 10
-70.81453700
 20
359.27650782
  0
VERTEX
  8
0
 10
-71.92594700
 20
356.22837982
  0
VERTEX
  8
0
 10
-72.86727500
 20
353.07945282
  0
VERTEX
  8
0
 10
-73.63533000
 20
349.91164282
  0
VERTEX
  8
0
 10
-74.15051400
 20
347.20418182
  0
VERTEX
  8
0
 10
-74.45351800
 20
345.58759682
  0
SEQEND
  0
POLYLINE
  8
Standard-Ebene
 66
   1
 39
0.000000
 70
    1
  0
VERTEX
  8
0
 10
-122.28124600
 20
360.77200182
  0
VERTEX
  8
0
 10
-87.03244300
 20
361.10807082
  0
VERTEX
  8
0
 10
-87.07057700
 20
365.10784882
  0
VERTEX
  8
0
 10
-122.31938000
 20
364.77177982
  0
VERTEX
  8
0
 10
-122.28124600
 20
360.77200182
  0
SEQEND
  0
POLYLINE
  8
Standard-Ebene
 66
   1
 39
0.000000
 70
    1
  0
VERTEX
  8
0
 10
-136.71208600
 20
421.03530082
  0
VERTEX
  8
0
 10
-103.20937500
 20
410.07357682
  0
VERTEX
  8
0
 10
-101.96551800
 20
413.87522082
  0
VERTEX
  8
0
 10
-135.46823000
 20
424.83694582
  0
VERTEX
  8
0
 10
-136.71208600
 20
421.03530082
  0
SEQEND
  0
POLYLINE
  8
Standard-Ebene
 66
   1
 39
0.000000
 70
    1
  0
VERTEX
  8
0
 10
-130.15959500
 20
301.42715682
  0
VERTEX
  8
0
 10
-101.05589300
 20
281.53832582
  0
VERTEX
  8
0
 10
-98.79905300
 20
284.84080282
  0
VERTEX
  8
0
 10
-127.90275500
 20
304.72963282
  0
VERTEX
  8
0
 10
-130.15959500
 20
301.42715682
  0
SEQEND
  0
POLYLINE
  8
Standard-Ebene
 66
   1
 39
0.000000
 70
    1
  0
VERTEX
  8
0
 10
120.47096500
 20
343.93272682
  0
VERTEX
  8
0
 10
122.68883900
 20
378.61228382
  0
VERTEX
  8
0
 10
126.68064400
 20
378.35699482
  0
VERTEX
  8
0
 10
124.46277000
 20
343.67743682
  0
VERTEX
  8
0
 10
120.47096500
 20
343.93272682
  0
SEQEND
  0
POLYLINE
  8
Standard-Ebene
 66
   1
 39
0.000000
 70
    1
  0
VERTEX
  8
0
 10
25.51793300
 20
455.11206182
  0
VERTEX
  8
0
 10
25.58548400
 20
459.11145182
  0
VERTEX
  8
0
 10
60.33093300
 20
458.52458682
  0
VERTEX
  8
0
 10
60.26338200
 20
454.52519782
  0
VERTEX
  8
0
 10
25.51793300
 20
455.11206182
  0
SEQEND
  0
POLYLINE
  8
Standard-Ebene
 66
   1
 39
0.000000
 70
    0
  0
VERTEX
  8
0
 10
82.22039800
 20
393.34698082
  0
VERTEX
  8
0
 10
64.00796400
 20
393.34698082
 42
0.41421356
  0
VERTEX
  8
0
 10
62.67464400
 20
392.01366082
  0
VERTEX
  8
0
 10
62.67464400
 20
374.68050082
 42
0.41421356
  0
VERTEX
  8
0
 10
64.00796400
 20
373.34718082
  0
VERTEX
  8
0
 10
101.34092400
 20
373.34718082
 42
0.41421356
  0
VERTEX
  8
0
 10
102.67424400
 20
374.68050082
  0
VERTEX
  8
0
 10
102.67424400
 20
392.01366082
 42
0.41421356
  0
VERTEX
  8
0
 10
101.34092400
 20
393.34698082
  0
VERTEX
  8
0
 10
83.92818500
 20
393.34698082
  0
VERTEX
  8
0
 10
83.92818500
 20
397.71157382
  0
SEQEND
  0
POLYLINE
  8
Standard-Ebene
 66
   1
 39
0.000000
 70
    1
  0
VERTEX
  8
0
 10
-19.63742400
 20
284.35080982
  0
VERTEX
  8
0
 10
19.30347900
 20
296.07048382
  0
VERTEX
  8
0
 10
18.15072400
 20
299.90073682
  0
VERTEX
  8
0
 10
-20.79017900
 20
288.18106282
  0
VERTEX
  8
0
 10
-19.63742400
 20
284.35080982
  0
SEQEND
  0
POLYLINE
  8
Standard-Ebene
 66
   1
 39
0.000000
 70
    0
  0
VERTEX
  8
0
 10
-119.53494500
 20
449.22163882
  0
VERTEX
  8
0
 10
-122.11481385
 20
449.17571619
 42
-0.32492342
  0
VERTEX
  8
0
 10
-124.68334400
 20
450.97292382
  0
VERTEX
  8
0
 10
-128.58100236
 20
462.28035294
 42
-0.08962554
  0
VERTEX
  8
0
 10
-128.72569908
 20
463.21762772
  0
VERTEX
  8
0
 10
-128.66664400
 20
468.51399482
 42
-0.41095167
  0
VERTEX
  8
0
 10
-127.16673700
 20
469.99727082
  0
VERTEX
  8
0
 10
-124.58761300
 20
469.99727082
  0
VERTEX
  8
0
 10
-124.67064800
 20
477.99727082
  0
VERTEX
  8
0
 10
-109.18270200
 20
477.99727082
  0
VERTEX
  8
0
 10
-109.18270200
 20
481.99723082
  0
VERTEX
  8
0
 10
-124.71216500
 20
481.99723082
  0
VERTEX
  8
0
 10
-124.73431300
 20
484.13111082
 42
-0.13423589
  0
VERTEX
  8
0
 10
-124.19908500
 20
486.17182682
  0
VERTEX
  8
0
 10
-124.32423900
 20
485.95494082
 42
-0.15782297
  0
VERTEX
  8
0
 10
-122.49547600
 20
487.60594382
  0
VERTEX
  8
0
 10
-122.68857980
 20
487.51940885
 42
-0.09048632
  0
VERTEX
  8
0
 10
-121.29400800
 20
487.86188682
  0
VERTEX
  8
0
 10
-99.78991300
 20
488.24467182
  0
VERTEX
  8
0
 10
-97.38297125
 20
487.93248538
 42
-0.05358015
  0
VERTEX
  8
0
 10
-96.55185426
 20
487.73258192
  0
VERTEX
  8
0
 10
-95.59669500
 20
487.39137382
 42
-0.11550247
  0
VERTEX
  8
0
 10
-94.06436900
 20
486.40252082
  0
VERTEX
  8
0
 10
-93.40199200
 20
485.71630982
  0
VERTEX
  8
0
 10
-92.79116539
 20
484.82663650
 42
-0.09345341
  0
VERTEX
  8
0
 10
-92.19312235
 20
483.47034022
  0
VERTEX
  8
0
 10
-91.72903100
 20
481.47863482
  0
VERTEX
  8
0
 10
-91.00542300
 20
469.99727082
  0
VERTEX
  8
0
 10
-90.01829200
 20
469.99727082
 42
-0.41421356
  0
VERTEX
  8
0
 10
-88.51829200
 20
468.49727082
  0
VERTEX
  8
0
 10
-88.51829200
 20
465.30790982
 42
-0.11396841
  0
VERTEX
  8
0
 10
-88.78832327
 20
464.13862136
  0
VERTEX
  8
0
 10
-88.93526500
 20
463.83744582
 42
-0.14498001
  0
VERTEX
  8
0
 10
-89.95863100
 20
462.72086982
  0
VERTEX
  8
0
 10
-90.52901968
 20
462.37820677
 42
-0.13607411
  0
VERTEX
  8
0
 10
-91.90226200
 20
461.99743082
  0
VERTEX
  8
0
 10
-102.51610200
 20
461.99743082
  0
VERTEX
  8
0
 10
-102.51610200
 20
457.99747082
  0
VERTEX
  8
0
 10
-90.78873000
 20
457.99747082
  0
VERTEX
  8
0
 10
-91.10594000
 20
452.20162782
 42
-0.39314204
  0
VERTEX
  8
0
 10
-93.72113500
 20
449.68113882
  0
VERTEX
  8
0
 10
-118.28776900
 20
449.24383982
  0
VERTEX
  8
0
 10
-118.46605700
 20
445.50468282
  0
SEQEND
  0
POLYLINE
  8
Standard-Ebene
 66
   1
 39
0.000000
 70
    0
  0
VERTEX
  8
0
 10
-70.46006700
 20
343.60440082
  0
VERTEX
  8
0
 10
-74.66025400
 20
344.48462482
  0
VERTEX
  8
0
 10
-75.15306000
 20
341.75297182
  0
VERTEX
  8
0
 10
-75.61744100
 20
339.00922382
  0
VERTEX
  8
0
 10
-76.04190600
 20
336.25337882
  0
VERTEX
  8
0
 10
-76.41496300
 20
333.48543882
  0
VERTEX
  8
0
 10
-76.72512100
 20
330.70540282
  0
VERTEX
  8
0
 10
-76.96089000
 20
327.91327082
  0
VERTEX
  8
0
 10
-77.11077800
 20
325.10904282
  0
VERTEX
  8
0
 10
-77.16329500
 20
322.29271882
  0
VERTEX
  8
0
 10
-76.87937449
 20
319.14516180
 42
0.06696782
  0
VERTEX
  8
0
 10
-76.64274526
 20
318.10504864
  0
VERTEX
  8
0
 10
-75.69236900
 20
315.56035382
  0
VERTEX
  8
0
 10
-74.24012400
 20
311.74242482
  0
VERTEX
  8
0
 10
-73.05294700
 20
309.03953282
  0
VERTEX
  8
0
 10
-72.08974500
 20
305.61982682
  0
VERTEX
  8
0
 10
-71.21615400
 20
302.46891682
  0
VERTEX
  8
0
 10
-70.67429200
 20
299.80110382
  0
VERTEX
  8
0
 10
-70.23282600
 20
297.13443282
  0
VERTEX
  8
0
 10
-69.89138700
 20
294.46070582
  0
VERTEX
  8
0
 10
-69.64957000
 20
291.77162382
  0
VERTEX
  8
0
 10
-69.50697300
 20
289.05892182
  0
VERTEX
  8
0
 10
-69.46319200
 20
286.31429982
  0
VERTEX
  8
0
 10
-69.51785900
 20
283.52952582
  0
VERTEX
  8
0
 10
-69.67057000
 20
280.69633482
  0
VERTEX
  8
0
 10
-70.20554300
 20
278.49189482
  0
VERTEX
  8
0
 10
-71.30435300
 20
274.85419282
  0
VERTEX
  8
0
 10
-73.21322000
 20
270.69636582
 42
-0.03158622
  0
VERTEX
  8
0
 10
-73.45240500
 20
270.25174782
  0
VERTEX
  8
0
 10
-75.16532400
 20
267.49946182
  0
VERTEX
  8
0
 10
-77.07486000
 20
265.06765282
  0
VERTEX
  8
0
 10
-79.36178800
 20
262.72938482
  0
VERTEX
  8
0
 10
-81.75515900
 20
260.73302682
  0
VERTEX
  8
0
 10
-83.98402600
 20
259.32694882
  0
VERTEX
  8
0
 10
-85.27437743
 20
258.53313502
 42
-0.03649744
  0
VERTEX
  8
0
 10
-85.79204127
 20
258.26458536
  0
VERTEX
  8
0
 10
-88.65665600
 20
257.03452582
 42
-0.02079248
  0
VERTEX
  8
0
 10
-88.96740000
 20
256.91613582
  0
VERTEX
  8
0
 10
-92.66325600
 20
255.68138482
  0
VERTEX
  8
0
 10
-95.69350900
 20
255.11019082
  0
VERTEX
  8
0
 10
-98.72379600
 20
254.79099382
  0
VERTEX
  8
0
 10
-101.48945100
 20
254.62299582
  0
SEQEND
  0
POLYLINE
  8
Standard-Ebene
 66
   1
 39
0.000000
 70
    0
  0
VERTEX
  8
0
 10
24.96942400
 20
349.28527782
  0
VERTEX
  8
0
 10
26.40168900
 20
346.66847082
  0
VERTEX
  8
0
 10
26.56979400
 20
346.74610182
  0
VERTEX
  8
0
 10
28.26182200
 20
347.57306682
  0
VERTEX
  8
0
 10
30.36674600
 20
348.53432882
  0
VERTEX
  8
0
 10
33.42940900
 20
349.57020082
  0
VERTEX
  8
0
 10
36.68707900
 20
350.63331382
  0
VERTEX
  8
0
 10
39.64846200
 20
351.40157182
 42
-0.03364923
  0
VERTEX
  8
0
 10
40.17690500
 20
351.50131582
  0
VERTEX
  8
0
 10
41.46316290
 20
351.65547765
 42
-0.17138804
  0
VERTEX
  8
0
 10
44.06277300
 20
351.07362382
  0
VERTEX
  8
0
 10
43.78803900
 20
351.24574282
 42
-0.24224991
  0
VERTEX
  8
0
 10
45.65708347
 20
348.09766752
  0
VERTEX
  8
0
 10
45.69371000
 20
347.49241482
  0
VERTEX
  8
0
 10
28.54821300
 20
278.76603582
  0
VERTEX
  8
0
 10
33.27626400
 20
275.95191082
  0
VERTEX
  8
0
 10
35.91072600
 20
274.41887282
  0
VERTEX
  8
0
 10
38.37674900
 20
272.57043582
  0
VERTEX
  8
0
 10
39.74490723
 20
271.41431051
 42
-0.15642469
  0
VERTEX
  8
0
 10
41.04023900
 20
269.34299882
  0
VERTEX
  8
0
 10
41.65844600
 20
266.90696382
 42
-0.24652744
  0
VERTEX
  8
0
 10
41.36998145
 20
265.70152889
 42
-0.24652744
  0
VERTEX
  8
0
 10
40.21397744
 20
265.25438139
  0
VERTEX
  8
0
 10
29.56994600
 20
266.47670882
  0
VERTEX
  8
0
 10
26.90863100
 20
266.83751282
  0
VERTEX
  8
0
 10
24.22679000
 20
267.24921082
  0
VERTEX
  8
0
 10
21.50918500
 20
267.70700582
  0
VERTEX
  8
0
 10
18.95044100
 20
268.16815082
  0
VERTEX
  8
0
 10
17.36722400
 20
268.62966782
  0
VERTEX
  8
0
 10
13.99780400
 20
269.24222482
  0
VERTEX
  8
0
 10
15.06232400
 20
267.09100982
  0
VERTEX
  8
0
 10
15.34793433
 20
266.36389646
 42
-0.12045828
  0
VERTEX
  8
0
 10
15.60272458
 20
264.48131254
  0
VERTEX
  8
0
 10
15.62875200
 20
264.72771382
 42
-0.11861695
  0
VERTEX
  8
0
 10
15.00221000
 20
262.96418582
  0
VERTEX
  8
0
 10
14.99558424
 20
262.95401695
 42
-0.15717624
  0
VERTEX
  8
0
 10
14.36025677
 20
262.43867867
  0
VERTEX
  8
0
 10
13.70331930
 20
262.18410839
 42
-0.07387622
  0
VERTEX
  8
0
 10
12.55663200
 20
261.92502482
  0
VERTEX
  8
0
 10
10.89441000
 20
261.80058382
  0
VERTEX
  8
0
 10
8.19855000
 20
261.99127282
  0
VERTEX
  8
0
 10
5.26365100
 20
262.44518182
  0
VERTEX
  8
0
 10
2.29172600
 20
263.06603982
  0
VERTEX
  8
0
 10
-0.51521700
 20
263.75757282
  0
VERTEX
  8
0
 10
-2.95516500
 20
264.42350882
  0
VERTEX
  8
0
 10
-4.82610700
 20
264.96757582
  0
VERTEX
  8
0
 10
-5.92603300
 20
265.29349982
  0
VERTEX
  8
0
 10
-6.99985400
 20
265.75144782
  0
VERTEX
  8
0
 10
-9.22396300
 20
266.46453482
  0
VERTEX
  8
0
 10
-7.35781499
 20
262.72928980
 42
-0.04897156
  0
VERTEX
  8
0
 10
-7.26469700
 20
262.48594282
  0
VERTEX
  8
0
 10
-6.94648278
 20
261.32532939
 42
-0.24694733
  0
VERTEX
  8
0
 10
-7.21326563
 20
260.11299746
  0
VERTEX
  8
0
 10
-8.17289663
 20
258.97555946
 42
-0.24732984
  0
VERTEX
  8
0
 10
-9.32491800
 20
258.50865982
  0
VERTEX
  8
0
 10
-10.23915400
 20
258.60027182
  0
VERTEX
  8
0
 10
-11.63525900
 20
258.93415282
  0
VERTEX
  8
0
 10
-12.92044300
 20
259.37369482
  0
VERTEX
  8
0
 10
-15.92189200
 20
260.41755582
  0
VERTEX
  8
0
 10
-17.94832500
 20
261.45797082
  0
VERTEX
  8
0
 10
-21.51789000
 20
263.35796982
  0
VERTEX
  8
0
 10
-24.91721800
 20
265.24714982
  0
VERTEX
  8
0
 10
-26.40896200
 20
266.23911582
  0
VERTEX
  8
0
 10
-26.63289952
 20
264.34423694
 42
-0.08097166
  0
VERTEX
  8
0
 10
-26.75114534
 20
263.93182202
  0
VERTEX
  8
0
 10
-27.17104334
 20
263.04178902
 42
-0.16839294
  0
VERTEX
  8
0
 10
-27.78179146
 20
262.41754622
  0
VERTEX
  8
0
 10
-28.73875146
 20
261.94023622
 42
-0.22103656
  0
VERTEX
  8
0
 10
-29.86226100
 20
261.90922882
  0
VERTEX
  8
0
 10
-31.94571200
 20
262.80854182
 42
-0.07784774
  0
VERTEX
  8
0
 10
-32.29473000
 20
263.02875482
  0
VERTEX
  8
0
 10
-34.88555000
 20
265.29307182
  0
VERTEX
  8
0
 10
-37.33310600
 20
267.51877782
  0
VERTEX
  8
0
 10
-39.36080100
 20
269.57962282
  0
VERTEX
  8
0
 10
-40.42160200
 20
270.57906182
  0
VERTEX
  8
0
 10
-40.83557600
 20
271.11028782
  0
VERTEX
  8
0
 10
-41.39346900
 20
270.12357982
 42
-0.06879700
  0
VERTEX
  8
0
 10
-41.61504751
 20
269.83329881
  0
VERTEX
  8
0
 10
-42.11220451
 20
269.34005581
 42
-0.10245909
  0
VERTEX
  8
0
 10
-42.56535147
 20
269.04495273
  0
VERTEX
  8
0
 10
-43.16177300
 20
268.81153882
 42
-0.21568696
  0
VERTEX
  8
0
 10
-44.25948100
 20
268.86848482
  0
VERTEX
  8
0
 10
-45.44547700
 20
269.48095682
 42
-0.10099255
  0
VERTEX
  8
0
 10
-45.86073500
 20
269.81538782
  0
VERTEX
  8
0
 10
-47.08549300
 20
271.29482882
 42
-0.06252471
  0
VERTEX
  8
0
 10
-47.26379000
 20
271.57508382
  0
VERTEX
  8
0
 10
-48.31396000
 20
273.79585982
  0
VERTEX
  8
0
 10
-49.12258700
 20
276.46984482
  0
VERTEX
  8
0
 10
-49.68839000
 20
279.19341182
  0
VERTEX
  8
0
 10
-50.08161200
 20
281.71418382
  0
VERTEX
  8
0
 10
-50.41300900
 20
284.06738882
  0
VERTEX
  8
0
 10
-52.21967700
 20
283.09606482
  0
VERTEX
  8
0
 10
-52.89891900
 20
282.82332082
 42
-0.23824229
  0
VERTEX
  8
0
 10
-54.09685000
 20
282.92651182
  0
VERTEX
  8
0
 10
-55.10629629
 20
283.55055083
 42
-0.15384463
  0
VERTEX
  8
0
 10
-55.62985532
 20
284.15745248
  0
VERTEX
  8
0
 10
-56.10061400
 20
285.25099482
 42
-0.06938754
  0
VERTEX
  8
0
 10
-56.19812289
 20
285.60614148
  0
VERTEX
  8
0
 10
-56.42448600
 20
287.34562682
  0
VERTEX
  8
0
 10
-56.80062700
 20
289.75602782
  0
VERTEX
  8
0
 10
-56.97537000
 20
292.18345482
  0
VERTEX
  8
0
 10
-56.69331500
 20
294.52642982
  0
VERTEX
  8
0
 10
-43.73162400
 20
305.86265382
  0
VERTEX
  8
0
 10
-46.36492500
 20
308.87353582
  0
VERTEX
  8
0
 10
-56.08786300
 20
300.36990682
  0
VERTEX
  8
0
 10
-56.49247000
 20
306.69937982
  0
VERTEX
  8
0
 10
-56.11983000
 20
309.41454882
  0
VERTEX
  8
0
 10
-55.59763000
 20
312.11048182
  0
VERTEX
  8
0
 10
-54.94737500
 20
314.78725682
  0
VERTEX
  8
0
 10
-54.19050400
 20
317.44481782
  0
VERTEX
  8
0
 10
-53.34852200
 20
320.08320982
  0
VERTEX
  8
0
 10
-52.44283200
 20
322.70244182
  0
VERTEX
  8
0
 10
-51.49494000
 20
325.30249282
  0
VERTEX
  8
0
 10
-50.52635100
 20
327.88343882
  0
VERTEX
  8
0
 10
-49.55846800
 20
330.44519082
  0
VERTEX
  8
0
 10
-48.61279800
 20
332.98782682
  0
VERTEX
  8
0
 10
-47.71077800
 20
335.51135782
  0
VERTEX
  8
0
 10
-46.87391300
 20
338.01575982
  0
VERTEX
  8
0
 10
-45.89082100
 20
340.16410382
  0
VERTEX
  8
0
 10
-45.05629000
 20
342.23619782
  0
VERTEX
  8
0
 10
-44.38442300
 20
344.15726682
  0
VERTEX
  8
0
 10
-42.85385400
 20
347.62552382
  0
VERTEX
  8
0
 10
-41.37478200
 20
351.01854682
  0
VERTEX
  8
0
 10
-39.88551900
 20
354.15035782
  0
VERTEX
  8
0
 10
-38.88738800
 20
355.45509182
  0
VERTEX
  8
0
 10
-37.90780800
 20
356.39371182
  0
VERTEX
  8
0
 10
-36.79113700
 20
357.07244582
  0
VERTEX
  8
0
 10
-33.38840400
 20
358.71344182
  0
VERTEX
  8
0
 10
-28.95723400
 20
360.54438982
  0
VERTEX
  8
0
 10
-28.16248007
 20
360.93050449
 42
-0.28095806
  0
VERTEX
  8
0
 10
-26.78001478
 20
360.79801163
 42
-0.28095806
  0
VERTEX
  8
0
 10
-26.26531588
 20
359.50810865
  0
VERTEX
  8
0
 10
-26.24358800
 20
359.63612582
  0
VERTEX
  8
0
 10
-26.83622900
 20
357.05706082
  0
VERTEX
  8
0
 10
-27.44009900
 20
354.12509682
  0
VERTEX
  8
0
 10
-27.99978300
 20
349.92807482
  0
VERTEX
  8
0
 10
-25.58636900
 20
349.80433582
  0
VERTEX
  8
0
 10
-24.81336800
 20
352.41123382
  0
VERTEX
  8
0
 10
-22.98821100
 20
355.59525982
  0
VERTEX
  8
0
 10
-21.36419000
 20
357.73536082
  0
VERTEX
  8
0
 10
-20.74982300
 20
356.74238982
  0
VERTEX
  8
0
 10
-20.73546400
 20
356.72789682
 42
-0.09139611
  0
VERTEX
  8
0
 10
-19.91842600
 20
355.52974982
  0
VERTEX
  8
0
 10
-19.47595700
 20
354.52874282
 42
-0.14328719
  0
VERTEX
  8
0
 10
-19.18125700
 20
352.30170682
  0
VERTEX
  8
0
 10
-19.31268363
 20
351.44983428
 42
-0.09067667
  0
VERTEX
  8
0
 10
-19.78432368
 20
350.09034149
  0
VERTEX
  8
0
 10
-20.91140200
 20
348.09785682
  0
VERTEX
  8
0
 10
-22.44969679
 20
346.20654247
 42
0.08757220
  0
VERTEX
  8
0
 10
-23.12622400
 20
344.99174182
  0
VERTEX
  8
0
 10
-23.53853000
 20
343.80134682
  0
VERTEX
  8
0
 10
-24.08940400
 20
341.42462982
  0
VERTEX
  8
0
 10
-24.47238200
 20
338.72759882
  0
VERTEX
  8
0
 10
-24.61188900
 20
335.90905782
  0
VERTEX
  8
0
 10
-24.43248700
 20
333.16787482
  0
VERTEX
  8
0
 10
-24.03185365
 20
331.44696993
 42
0.09463865
  0
VERTEX
  8
0
 10
-23.42340532
 20
330.07508208
  0
VERTEX
  8
0
 10
-22.60093500
 20
328.88863182
  0
VERTEX
  8
0
 10
-21.22572900
 20
327.39708582
  0
VERTEX
  8
0
 10
-19.18032400
 20
324.83163082
  0
VERTEX
  8
0
 10
-17.93399300
 20
322.82062082
 42
-0.04897539
  0
VERTEX
  8
0
 10
-17.58908900
 20
322.11909882
  0
VERTEX
  8
0
 10
-17.01419300
 20
320.58744982
 42
-0.05858815
  0
VERTEX
  8
0
 10
-16.79029000
 20
319.68048382
  0
VERTEX
  8
0
 10
-16.52854500
 20
317.59723682
  0
VERTEX
  8
0
 10
-16.74883500
 20
314.62167082
  0
VERTEX
  8
0
 10
-17.49255100
 20
311.00499182
  0
VERTEX
  8
0
 10
-17.94876200
 20
309.88391182
  0
VERTEX
  8
0
 10
-18.34265900
 20
308.51704982
  0
VERTEX
  8
0
 10
-18.59831900
 20
307.03574282
  0
VERTEX
  8
0
 10
-16.87701900
 20
307.25521282
  0
VERTEX
  8
0
 10
-15.07348300
 20
307.75482382
 42
0.06474875
  0
VERTEX
  8
0
 10
-14.06966714
 20
308.08522463
  0
VERTEX
  8
0
 10
-12.70054200
 20
308.67114182
  0
VERTEX
  8
0
 10
-9.98335700
 20
310.16337482
  0
VERTEX
  8
0
 10
-7.62872200
 20
312.20919582
  0
VERTEX
  8
0
 10
-5.51213700
 20
314.50090882
  0
VERTEX
  8
0
 10
-3.54758400
 20
316.83296782
  0
VERTEX
  8
0
 10
-1.64904500
 20
318.99982282
  0
VERTEX
  8
0
 10
-1.61669000
 20
319.00016082
  0
VERTEX
  8
0
 10
-1.59179400
 20
319.00042182
  0
VERTEX
  8
0
 10
-1.58184900
 20
319.00052582
  0
VERTEX
  8
0
 10
0.14134700
 20
321.54114482
  0
VERTEX
  8
0
 10
2.67795700
 20
324.84445582
  0
VERTEX
  8
0
 10
4.05213400
 20
326.48537382
  0
VERTEX
  8
0
 10
5.85923400
 20
329.01631982
  0
VERTEX
  8
0
 10
7.71658000
 20
331.52359782
  0
VERTEX
  8
0
 10
9.64267100
 20
333.93482282
  0
VERTEX
  8
0
 10
11.65600600
 20
336.17760782
  0
VERTEX
  8
0
 10
13.77508300
 20
338.17956882
  0
VERTEX
  8
0
 10
14.45082200
 20
338.79065282
  0
VERTEX
  8
0
 10
15.00297000
 20
339.29255582
  0
VERTEX
  8
0
 10
15.55934600
 20
339.79600882
  0
VERTEX
  8
0
 10
17.01146000
 20
341.01260082
  0
VERTEX
  8
0
 10
19.98624100
 20
343.08733782
  0
VERTEX
  8
0
 10
23.21523000
 20
345.03585182
  0
VERTEX
  8
0
 10
25.08358600
 20
346.05977282
  0
VERTEX
  8
0
 10
25.80790900
 20
346.39426382
  0
SEQEND
  0
POLYLINE
  8
Standard-Ebene
 66
   1
 39
0.000000
 70
    0
  0
VERTEX
  8
0
 10
-18.49212900
 20
390.63008582
  0
VERTEX
  8
0
 10
-16.03564400
 20
389.22859082
  0
VERTEX
  8
0
 10
-17.07804100
 20
387.70208282
  0
VERTEX
  8
0
 10
-18.84464300
 20
385.08723082
  0
VERTEX
  8
0
 10
-19.32282500
 20
383.68294782
  0
VERTEX
  8
0
 10
-20.07239200
 20
382.13014282
  0
VERTEX
  8
0
 10
-20.68106700
 20
380.54658482
  0
VERTEX
  8
0
 10
-21.15921400
 20
379.05411182
  0
VERTEX
  8
0
 10
-21.38151200
 20
376.12800882
  0
VERTEX
  8
0
 10
-21.35214600
 20
374.98420782
 42
0.06875408
  0
VERTEX
  8
0
 10
-21.23372400
 20
374.26395882
  0
VERTEX
  8
0
 10
-20.20026200
 20
370.92604482
  0
VERTEX
  8
0
 10
-19.05726900
 20
368.07384782
  0
VERTEX
  8
0
 10
-18.43002600
 20
366.82325682
  0
VERTEX
  8
0
 10
-17.85020500
 20
365.54998582
  0
VERTEX
  8
0
 10
-16.34732600
 20
362.86990782
  0
VERTEX
  8
0
 10
-14.39758482
 20
359.97021453
 42
0.06875409
  0
VERTEX
  8
0
 10
-13.91123200
 20
359.42593282
  0
VERTEX
  8
0
 10
-13.03926000
 20
358.68511782
  0
VERTEX
  8
0
 10
-10.62186600
 20
357.02147582
  0
VERTEX
  8
0
 10
-9.15990400
 20
356.45688082
  0
VERTEX
  8
0
 10
-7.54510500
 20
355.93672382
  0
VERTEX
  8
0
 10
-5.86580800
 20
355.54554882
  0
VERTEX
  8
0
 10
-4.47247700
 20
355.03633782
  0
VERTEX
  8
0
 10
-1.32803300
 20
354.77024682
  0
VERTEX
  8
0
 10
1.81190000
 20
354.52024382
  0
VERTEX
  8
0
 10
4.95790500
 20
354.28580782
  0
VERTEX
  8
0
 10
7.16442200
 20
354.34359482
  0
VERTEX
  8
0
 10
9.48993000
 20
354.55008482
  0
VERTEX
  8
0
 10
11.91296500
 20
354.89544082
  0
VERTEX
  8
0
 10
14.41215100
 20
355.36972782
  0
VERTEX
  8
0
 10
16.96604500
 20
355.96308482
  0
VERTEX
  8
0
 10
19.55324800
 20
356.66560082
  0
VERTEX
  8
0
 10
22.15231600
 20
357.46736682
  0
VERTEX
  8
0
 10
24.74182800
 20
358.35849782
  0
VERTEX
  8
0
 10
27.30038700
 20
359.32908382
  0
VERTEX
  8
0
 10
29.80654800
 20
360.36926282
  0
VERTEX
  8
0
 10
32.23891200
 20
361.46907582
  0
VERTEX
  8
0
 10
34.57601300
 20
362.61868882
  0
VERTEX
  8
0
 10
36.79647600
 20
363.80816582
  0
VERTEX
  8
0
 10
38.87885800
 20
365.02764482
  0
VERTEX
  8
0
 10
40.80176100
 20
366.26721482
  0
VERTEX
  8
0
 10
42.30774700
 20
367.01974682
  0
VERTEX
  8
0
 10
44.44333100
 20
368.50768382
  0
VERTEX
  8
0
 10
46.92332700
 20
370.51544582
  0
VERTEX
  8
0
 10
49.46240200
 20
372.82736582
  0
VERTEX
  8
0
 10
51.77531900
 20
375.22781982
  0
VERTEX
  8
0
 10
53.57684400
 20
377.50123182
  0
VERTEX
  8
0
 10
54.58166700
 20
379.43190782
  0
VERTEX
  8
0
 10
54.57560800
 20
381.54224682
  0
VERTEX
  8
0
 10
53.34537900
 20
385.66436182
  0
VERTEX
  8
0
 10
13.44539900
 20
366.82160382
  0
VERTEX
  8
0
 10
11.73730900
 20
370.43852382
  0
VERTEX
  8
0
 10
56.98589100
 20
391.80715782
  0
VERTEX
  8
0
 10
52.71566700
 20
400.84945782
  0
VERTEX
  8
0
 10
48.35697100
 20
409.84944482
  0
VERTEX
  8
0
 10
3.32012400
 20
388.03809182
  0
VERTEX
  8
0
 10
1.57664600
 20
391.63808682
  0
VERTEX
  8
0
 10
41.28991900
 20
410.87123282
  0
VERTEX
  8
0
 10
38.85321600
 20
414.41633882
  0
VERTEX
  8
0
 10
37.21420200
 20
415.74569882
  0
VERTEX
  8
0
 10
35.08052500
 20
416.17535282
  0
VERTEX
  8
0
 10
32.17995800
 20
416.19993782
  0
VERTEX
  8
0
 10
28.85949700
 20
415.90616782
  0
VERTEX
  8
0
 10
25.46599800
 20
415.38077082
  0
VERTEX
  8
0
 10
22.34635800
 20
414.71044582
  0
VERTEX
  8
0
 10
19.84756700
 20
413.98194182
  0
VERTEX
  8
0
 10
18.26276900
 20
413.39419682
  0
VERTEX
  8
0
 10
16.14450400
 20
412.56311082
  0
VERTEX
  8
0
 10
13.88809200
 20
411.70751382
  0
VERTEX
  8
0
 10
11.56836300
 20
410.72559482
  0
VERTEX
  8
0
 10
9.20645300
 20
409.62785382
  0
VERTEX
  8
0
 10
6.82351400
 20
408.42469682
  0
VERTEX
  8
0
 10
4.44067700
 20
407.12665882
  0
VERTEX
  8
0
 10
2.07912600
 20
405.74414882
  0
VERTEX
  8
0
 10
-0.24000200
 20
404.28766982
  0
VERTEX
  8
0
 10
-2.49556200
 20
402.76765782
  0
VERTEX
  8
0
 10
-4.66641100
 20
401.19458382
  0
VERTEX
  8
0
 10
-6.73137600
 20
399.57892082
  0
VERTEX
  8
0
 10
-8.66931000
 20
397.93110682
  0
VERTEX
  8
0
 10
-10.45907600
 20
396.26164482
  0
VERTEX
  8
0
 10
-12.07952500
 20
394.58093782
  0
VERTEX
  8
0
 10
-13.50952400
 20
392.89952182
  0
VERTEX
  8
0
 10
-15.30174800
 20
390.30332482
  0
VERTEX
  8
0
 10
-15.73906400
 20
389.66290882
  0
SEQEND
  0
POLYLINE
  8
Standard-Ebene
 66
   1
 39
0.000000
 70
    0
  0
VERTEX
  8
0
 10
-69.82981600
 20
442.35763182
  0
VERTEX
  8
0
 10
-69.65152800
 20
446.09678882
  0
VERTEX
  8
0
 10
-45.08489500
 20
446.53408782
 42
0.39314204
  0
VERTEX
  8
0
 10
-42.46970000
 20
449.05457682
  0
VERTEX
  8
0
 10
-42.15249000
 20
454.85042082
  0
VERTEX
  8
0
 10
-53.87986200
 20
454.85042082
  0
VERTEX
  8
0
 10
-53.87986200
 20
458.85038082
  0
VERTEX
  8
0
 10
-43.26602100
 20
458.85038082
 42
0.13607411
  0
VERTEX
  8
0
 10
-41.89277900
 20
459.23115582
  0
VERTEX
  8
0
 10
-41.32239100
 20
459.57381982
 42
0.14498001
  0
VERTEX
  8
0
 10
-40.29902400
 20
460.69039482
  0
VERTEX
  8
0
 10
-40.15208300
 20
460.99157082
 42
0.11396841
  0
VERTEX
  8
0
 10
-39.88205200
 20
462.16085982
  0
VERTEX
  8
0
 10
-39.88205200
 20
465.35022082
 42
0.41421356
  0
VERTEX
  8
0
 10
-41.38205200
 20
466.85022082
  0
VERTEX
  8
0
 10
-42.36918200
 20
466.85022082
  0
VERTEX
  8
0
 10
-43.09279000
 20
478.33158382
  0
VERTEX
  8
0
 10
-43.55688200
 20
480.32328882
 42
0.09345341
  0
VERTEX
  8
0
 10
-44.15492500
 20
481.67958482
  0
VERTEX
  8
0
 10
-44.76575200
 20
482.56925882
  0
VERTEX
  8
0
 10
-45.42812896
 20
483.25547021
 42
0.11550247
  0
VERTEX
  8
0
 10
-46.96045426
 20
484.24432292
  0
VERTEX
  8
0
 10
-47.91561426
 20
484.58553192
 42
0.05358015
  0
VERTEX
  8
0
 10
-48.74673100
 20
484.78543482
  0
VERTEX
  8
0
 10
-51.15367300
 20
485.09762082
  0
VERTEX
  8
0
 10
-72.65776700
 20
484.71483582
 42
0.09048632
  0
VERTEX
  8
0
 10
-74.05233900
 20
484.37235782
  0
VERTEX
  8
0
 10
-73.85923600
 20
484.45889282
 42
0.15782297
  0
VERTEX
  8
0
 10
-75.68799900
 20
482.80788982
  0
VERTEX
  8
0
 10
-75.56284458
 20
483.02477587
 42
0.13423589
  0
VERTEX
  8
0
 10
-76.09807256
 20
480.98406011
  0
VERTEX
  8
0
 10
-76.07592400
 20
478.85018082
  0
VERTEX
  8
0
 10
-60.54646200
 20
478.85018082
  0
VERTEX
  8
0
 10
-60.54646200
 20
474.85022082
  0
VERTEX
  8
0
 10
-76.03440700
 20
474.85022082
  0
VERTEX
  8
0
 10
-75.95137200
 20
466.85022082
  0
VERTEX
  8
0
 10
-78.53049700
 20
466.85022082
 42
0.41095167
  0
VERTEX
  8
0
 10
-80.03040400
 20
465.36694482
  0
VERTEX
  8
0
 10
-80.08945908
 20
460.07057672
 42
0.08962554
  0
VERTEX
  8
0
 10
-79.94476236
 20
459.13330194
  0
VERTEX
  8
0
 10
-76.04710336
 20
447.82587294
 42
0.32492342
  0
VERTEX
  8
0
 10
-73.47857385
 20
446.02866519
  0
VERTEX
  8
0
 10
-70.89870400
 20
446.07458782
  0
SEQEND
  0
POLYLINE
  8
Standard-Ebene
 66
   1
 39
0.000000
 70
    1
  0
VERTEX
  8
0
 10
-9.40049600
 20
373.42834482
  0
VERTEX
  8
0
 10
16.82344400
 20
385.81259582
  0
VERTEX
  8
0
 10
18.56702300
 20
382.21239182
  0
VERTEX
  8
0
 10
-7.65691600
 20
369.82814082
  0
VERTEX
  8
0
 10
-9.40049600
 20
373.42834482
  0
SEQEND
  0
POLYLINE
  8
Standard-Ebene
 66
   1
 39
0.000000
 70
    0
  0
VERTEX
  8
0
 10
115.45817300
 20
309.99501082
  0
VERTEX
  8
0
 10
115.41774300
 20
305.69570282
  0
VERTEX
  8
0
 10
97.38980300
 20
305.37479503
 42
0.09048632
  0
VERTEX
  8
0
 10
95.99523100
 20
305.03231682
  0
VERTEX
  8
0
 10
96.18833400
 20
305.11885182
 42
0.15782297
  0
VERTEX
  8
0
 10
94.35957142
 20
303.46784887
  0
VERTEX
  8
0
 10
94.48472542
 20
303.68473487
 42
0.13423589
  0
VERTEX
  8
0
 10
93.94949744
 20
301.64401911
  0
VERTEX
  8
0
 10
93.96645100
 20
300.01062982
  0
VERTEX
  8
0
 10
99.26349700
 20
299.51013982
  0
VERTEX
  8
0
 10
109.50110900
 20
299.51013982
  0
VERTEX
  8
0
 10
109.50110900
 20
295.51017982
  0
VERTEX
  8
0
 10
94.01316300
 20
295.51017982
  0
VERTEX
  8
0
 10
94.09619800
 20
283.01017982
  0
VERTEX
  8
0
 10
91.51707300
 20
283.01017982
 42
0.41095167
  0
VERTEX
  8
0
 10
90.01716623
 20
281.52690392
  0
VERTEX
  8
0
 10
89.95581500
 20
276.33176582
 42
0.20276260
  0
VERTEX
  8
0
 10
90.84064826
 20
274.16867589
 42
0.20276260
  0
VERTEX
  8
0
 10
93.00899900
 20
273.29681482
  0
VERTEX
  8
0
 10
120.61838200
 20
273.78827682
  0
VERTEX
  8
0
 10
120.75488818
 20
266.11962161
 42
0.41421356
  0
VERTEX
  8
0
 10
123.80780600
 20
263.17348982
  0
VERTEX
  8
0
 10
138.89982900
 20
263.44213582
 42
0.40575999
  0
VERTEX
  8
0
 10
141.84624900
 20
266.40821282
  0
VERTEX
  8
0
 10
141.90313900
 20
271.51037982
  0
VERTEX
  8
0
 10
129.90251700
 20
271.51037982
  0
VERTEX
  8
0
 10
129.94711700
 20
275.51033982
  0
VERTEX
  8
0
 10
141.94773900
 20
275.51033982
  0
VERTEX
  8
0
 10
142.00311400
 20
280.47673082
 42
0.41748300
  0
VERTEX
  8
0
 10
139.00330100
 20
283.51017982
  0
VERTEX
  8
0
 10
127.67838800
 20
283.51017982
  0
VERTEX
  8
0
 10
126.95478000
 20
298.99154282
  0
VERTEX
  8
0
 10
126.49068900
 20
300.98324782
 42
0.09345341
  0
VERTEX
  8
0
 10
125.89264500
 20
302.33954482
  0
VERTEX
  8
0
 10
125.28181900
 20
303.22921782
  0
VERTEX
  8
0
 10
124.61944104
 20
303.91542921
 42
0.11550247
  0
VERTEX
  8
0
 10
123.08711574
 20
304.90428192
  0
VERTEX
  8
0
 10
122.13195600
 20
305.24549082
 42
0.05358015
  0
VERTEX
  8
0
 10
121.30083900
 20
305.44539382
  0
VERTEX
  8
0
 10
118.89389700
 20
305.75757982
  0
VERTEX
  8
0
 10
116.36091800
 20
305.71249182
  0
SEQEND
  0
POLYLINE
  8
Standard-Ebene
 66
   1
 39
0.000000
 70
    0
  0
VERTEX
  8
0
 10
96.16939700
 20
458.05587482
  0
VERTEX
  8
0
 10
99.48541100
 20
456.63553682
  0
VERTEX
  8
0
 10
98.72260000
 20
455.41583482
  0
VERTEX
  8
0
 10
97.20429800
 20
453.11385582
  0
VERTEX
  8
0
 10
95.62430600
 20
450.87580382
  0
VERTEX
  8
0
 10
93.95995900
 20
448.70228382
  0
VERTEX
  8
0
 10
92.20901100
 20
446.80859582
  0
VERTEX
  8
0
 10
90.36680100
 20
444.97923182
  0
VERTEX
  8
0
 10
88.45655600
 20
443.20177582
  0
VERTEX
  8
0
 10
86.50146800
 20
441.46376382
  0
VERTEX
  8
0
 10
84.52474300
 20
439.75275582
  0
VERTEX
  8
0
 10
82.54950800
 20
438.05630582
  0
VERTEX
  8
0
 10
80.59905500
 20
436.36197982
  0
VERTEX
  8
0
 10
78.69648900
 20
434.65730882
  0
VERTEX
  8
0
 10
76.86504000
 20
432.92987482
  0
VERTEX
  8
0
 10
75.00341500
 20
430.81626582
  0
VERTEX
  8
0
 10
73.03889300
 20
428.39675682
  0
VERTEX
  8
0
 10
71.41388200
 20
425.88248282
  0
VERTEX
  8
0
 10
70.57083100
 20
423.48462182
  0
VERTEX
  8
0
 10
70.09586900
 20
421.60510282
  0
VERTEX
  8
0
 10
70.28817800
 20
419.92112782
  0
VERTEX
  8
0
 10
71.04441300
 20
418.41739682
  0
VERTEX
  8
0
 10
72.26122800
 20
417.07861182
  0
VERTEX
  8
0
 10
73.83532400
 20
415.88943282
  0
VERTEX
  8
0
 10
75.66333400
 20
414.83453982
  0
VERTEX
  8
0
 10
77.64191300
 20
413.89863282
  0
VERTEX
  8
0
 10
79.66775800
 20
413.06641482
  0
VERTEX
  8
0
 10
81.63754900
 20
412.32252682
  0
VERTEX
  8
0
 10
83.44789500
 20
411.65170782
  0
VERTEX
  8
0
 10
84.99549500
 20
411.03861882
  0
VERTEX
  8
0
 10
87.15706500
 20
410.26176482
  0
VERTEX
  8
0
 10
89.67941300
 20
409.07092282
  0
VERTEX
  8
0
 10
92.30903800
 20
407.65040482
  0
VERTEX
  8
0
 10
94.79244100
 20
406.18452282
  0
VERTEX
  8
0
 10
96.87612200
 20
404.85758682
  0
VERTEX
  8
0
 10
98.83867400
 20
403.89759782
  0
VERTEX
  8
0
 10
100.79398400
 20
402.73762082
  0
VERTEX
  8
0
 10
102.75120000
 20
401.44354982
  0
VERTEX
  8
0
 10
104.71947000
 20
400.08127982
  0
VERTEX
  8
0
 10
106.70794300
 20
398.71670382
  0
VERTEX
  8
0
 10
108.72576800
 20
397.41571782
  0
VERTEX
  8
0
 10
110.78209200
 20
396.24421382
  0
VERTEX
  8
0
 10
112.88606500
 20
395.26808782
  0
VERTEX
  8
0
 10
115.04683400
 20
394.55323282
  0
VERTEX
  8
0
 10
117.27354900
 20
394.16554382
  0
VERTEX
  8
0
 10
119.96341900
 20
394.38152382
  0
VERTEX
  8
0
 10
123.42304200
 20
394.99440082
  0
VERTEX
  8
0
 10
125.14791600
 20
395.33425982
  0
VERTEX
  8
0
 10
127.66749300
 20
396.59794982
  0
VERTEX
  8
0
 10
130.00744400
 20
398.06441882
  0
VERTEX
  8
0
 10
132.32041400
 20
400.10051882
  0
SEQEND
  0
POLYLINE
  8
Standard-Ebene
 66
   1
 39
0.000000
 70
    0
  0
VERTEX
  8
0
 10
132.36309200
 20
400.10325282
  0
VERTEX
  8
0
 10
133.96634600
 20
402.17352582
  0
VERTEX
  8
0
 10
135.82683200
 20
405.02561282
  0
VERTEX
  8
0
 10
137.34031800
 20
407.96395182
  0
VERTEX
  8
0
 10
137.90253000
 20
410.29293182
  0
VERTEX
  8
0
 10
138.62889400
 20
412.49311382
  0
VERTEX
  8
0
 10
139.23267000
 20
414.69609082
  0
VERTEX
  8
0
 10
139.70856100
 20
416.90055882
  0
VERTEX
  8
0
 10
140.05119300
 20
419.10516682
  0
VERTEX
  8
0
 10
140.25520300
 20
421.30862982
  0
VERTEX
  8
0
 10
140.31527600
 20
423.50966282
  0
VERTEX
  8
0
 10
140.22605400
 20
425.70693682
  0
VERTEX
  8
0
 10
139.98218000
 20
427.89912382
  0
VERTEX
  8
0
 10
139.57831600
 20
430.08491782
  0
VERTEX
  8
0
 10
139.00910300
 20
432.26303182
  0
VERTEX
  8
0
 10
138.26920300
 20
434.43215982
  0
VERTEX
  8
0
 10
137.35328200
 20
436.59095382
  0
VERTEX
  8
0
 10
136.67778500
 20
437.68328282
  0
VERTEX
  8
0
 10
135.98993100
 20
439.11764482
  0
VERTEX
  8
0
 10
135.55355600
 20
440.26814682
  0
VERTEX
  8
0
 10
134.36079000
 20
442.08202082
  0
VERTEX
  8
0
 10
133.11661700
 20
443.91670582
  0
VERTEX
  8
0
 10
131.82270300
 20
445.76393082
  0
VERTEX
  8
0
 10
130.48067000
 20
447.61542282
  0
VERTEX
  8
0
 10
129.09209800
 20
449.46290482
  0
VERTEX
  8
0
 10
127.65867300
 20
451.29812782
  0
VERTEX
  8
0
 10
126.18199800
 20
453.11279682
  0
VERTEX
  8
0
 10
124.66369200
 20
454.89867882
  0
VERTEX
  8
0
 10
123.10540200
 20
456.64748182
  0
VERTEX
  8
0
 10
121.50875000
 20
458.35092982
  0
VERTEX
  8
0
 10
119.87537900
 20
460.00077382
  0
VERTEX
  8
0
 10
118.20689300
 20
461.58871682
  0
VERTEX
  8
0
 10
116.50495200
 20
463.10652982
  0
VERTEX
  8
0
 10
114.77114100
 20
464.54589382
  0
VERTEX
  8
0
 10
113.00714300
 20
465.89860382
  0
VERTEX
  8
0
 10
111.21452000
 20
467.15631682
  0
VERTEX
  8
0
 10
109.39495400
 20
468.31082782
  0
VERTEX
  8
0
 10
106.83561200
 20
468.55207482
  0
VERTEX
  8
0
 10
105.08701200
 20
467.83406082
  0
VERTEX
  8
0
 10
103.92245300
 20
466.39875782
  0
VERTEX
  8
0
 10
103.11509800
 20
464.48817382
  0
VERTEX
  8
0
 10
102.43811300
 20
462.34431482
  0
VERTEX
  8
0
 10
101.66479400
 20
460.20915382
  0
VERTEX
  8
0
 10
100.20187700
 20
457.78113582
  0
VERTEX
  8
0
 10
99.84814000
 20
457.21552582
  0
SEQEND
  0
POLYLINE
  8
Standard-Ebene
 66
   1
 39
0.000000
 70
    1
  0
VERTEX
  8
0
 10
93.74782300
 20
416.73673082
  0
VERTEX
  8
0
 10
118.89660900
 20
440.71858282
  0
VERTEX
  8
0
 10
121.65705000
 20
437.82382182
  0
VERTEX
  8
0
 10
96.50826400
 20
413.84196882
  0
VERTEX
  8
0
 10
93.74782300
 20
416.73673082
  0
SEQEND
  0
POLYLINE
  8
Standard-Ebene
 66
   1
 39
0.000000
 70
    1
  0
VERTEX
  8
0
 10
60.68425800
 20
272.10997582
  0
VERTEX
  8
0
 10
60.68425800
 20
268.11001582
  0
VERTEX
  8
0
 10
74.01745800
 20
268.11001582
  0
VERTEX
  8
0
 10
74.01745800
 20
272.10997582
  0
VERTEX
  8
0
 10
60.68425800
 20
272.10997582
  0
SEQEND
  0
POLYLINE
  8
Standard-Ebene
 66
   1
 39
0.000000
 70
    0
  0
VERTEX
  8
0
 10
57.30645400
 20
283.91213382
  0
VERTEX
  8
0
 10
57.30645400
 20
280.77655582
  0
VERTEX
  8
0
 10
79.35073800
 20
280.77655582
 42
-0.41421356
  0
VERTEX
  8
0
 10
83.35069800
 20
276.77659582
  0
VERTEX
  8
0
 10
83.35069800
 20
263.44339582
 42
-0.41421356
  0
VERTEX
  8
0
 10
79.35073800
 20
259.44343582
  0
VERTEX
  8
0
 10
55.35097800
 20
259.44343582
 42
-0.41421356
  0
VERTEX
  8
0
 10
51.35101800
 20
263.44339582
  0
VERTEX
  8
0
 10
51.35101800
 20
276.77659582
 42
-0.41421356
  0
VERTEX
  8
0
 10
55.35097800
 20
280.77655582
  0
VERTEX
  8
0
 10
56.79110600
 20
280.77655582
  0
SEQEND
  0
POLYLINE
  8
Standard-Ebene
 66
   1
 39
0.000000
 70
    1
  0
VERTEX
  8
0
 10
-150.00000000
 20
-11.69449902
  0
VERTEX
  8
0
 10
-150.00000000
 20
233.30550098
  0
VERTEX
  8
0
 10
150.00000000
 20
233.30550098
  0
VERTEX
  8
0
 10
150.00000000
 20
-11.69449902
  0
VERTEX
  8
0
 10
-150.00000000
 20
-11.69449902
  0
SEQEND
  0
POLYLINE
  8
Standard-Ebene
 66
   1
 39
0.000000
 70
    1
  0
VERTEX
  8
0
 10
-138.02172296
 20
-2.15339636
  0
VERTEX
  8
0
 10
-138.65336996
 20
-1.20032136
 42
-0.13115527
  0
VERTEX
  8
0
 10
-139.31104400
 20
0.75501398
  0
VERTEX
  8
0
 10
-139.32929700
 20
1.04144798
  0
VERTEX
  8
0
 10
-139.24341600
 20
2.35680698
  0
VERTEX
  8
0
 10
-138.93356000
 20
3.64229698
  0
VERTEX
  8
0
 10
-138.06040600
 20
5.83087798
  0
VERTEX
  8
0
 10
-137.48114700
 20
8.22055398
  0
VERTEX
  8
0
 10
-137.15644000
 20
10.77174298
  0
VERTEX
  8
0
 10
-137.04700600
 20
13.44469698
  0
VERTEX
  8
0
 10
-137.11346600
 20
16.19976798
  0
VERTEX
  8
0
 10
-137.31657600
 20
18.99734298
  0
VERTEX
  8
0
 10
-137.61695700
 20
21.79770698
  0
VERTEX
  8
0
 10
-137.97533100
 20
24.56121298
  0
VERTEX
  8
0
 10
-138.35238700
 20
27.24814398
  0
VERTEX
  8
0
 10
-138.70877800
 20
29.81892198
  0
VERTEX
  8
0
 10
-139.00522800
 20
32.23382998
  0
VERTEX
  8
0
 10
-139.20235700
 20
34.45318898
  0
VERTEX
  8
0
 10
-139.19546900
 20
36.54556898
 42
-0.06852831
  0
VERTEX
  8
0
 10
-139.04303700
 20
37.62618798
  0
VERTEX
  8
0
 10
-139.01197664
 20
37.73544520
 42
-0.18411570
  0
VERTEX
  8
0
 10
-137.30784210
 20
40.01888011
  0
VERTEX
  8
0
 10
-137.83608610
 20
39.68362711
 42
-0.19134073
  0
VERTEX
  8
0
 10
-134.93449601
 20
40.23384405
  0
VERTEX
  8
0
 10
-130.57564400
 20
39.39233998
  0
VERTEX
  8
0
 10
-126.63316300
 20
38.04599698
  0
VERTEX
  8
0
 10
-125.44897100
 20
20.08503798
  0
VERTEX
  8
0
 10
-121.45767700
 20
20.34818998
  0
VERTEX
  8
0
 10
-122.55469700
 20
36.98698998
  0
VERTEX
  8
0
 10
-118.44670300
 20
36.34316998
  0
VERTEX
  8
0
 10
-115.40119500
 20
35.80557498
  0
VERTEX
  8
0
 10
-112.33680500
 20
35.17978198
  0
VERTEX
  8
0
 10
-110.03696837
 20
34.62361014
 42
-0.08989673
  0
VERTEX
  8
0
 10
-108.73219244
 20
34.04626638
  0
VERTEX
  8
0
 10
-107.73913244
 20
33.37284038
 42
-0.09202480
  0
VERTEX
  8
0
 10
-106.70060199
 20
32.34663066
  0
VERTEX
  8
0
 10
-106.04669799
 20
31.40670466
 42
-0.07684197
  0
VERTEX
  8
0
 10
-105.51017239
 20
30.30851689
  0
VERTEX
  8
0
 10
-104.89334039
 20
28.32198089
 42
-0.05490235
  0
VERTEX
  8
0
 10
-104.72675919
 20
27.46218034
  0
VERTEX
  8
0
 10
-104.58217100
 20
25.69590698
  0
VERTEX
  8
0
 10
-104.62793400
 20
23.46404898
  0
VERTEX
  8
0
 10
-104.88883500
 20
21.22006198
  0
VERTEX
  8
0
 10
-105.35378700
 20
18.97825898
  0
VERTEX
  8
0
 10
-106.01166900
 20
16.75298698
  0
VERTEX
  8
0
 10
-106.85135800
 20
14.55859298
  0
VERTEX
  8
0
 10
-107.86176700
 20
12.40938998
  0
VERTEX
  8
0
 10
-109.03174100
 20
10.31975998
  0
VERTEX
  8
0
 10
-110.35019200
 20
8.30401498
  0
VERTEX
  8
0
 10
-111.80603100
 20
6.37646998
  0
VERTEX
  8
0
 10
-113.38810500
 20
4.55150398
  0
VERTEX
  8
0
 10
-115.08532500
 20
2.84343098
  0
VERTEX
  8
0
 10
-116.88656900
 20
1.26659898
  0
VERTEX
  8
0
 10
-118.78071700
 20
-0.16464602
  0
VERTEX
  8
0
 10
-120.75667900
 20
-1.43599002
  0
VERTEX
  8
0
 10
-122.80330200
 20
-2.53305202
  0
VERTEX
  8
0
 10
-124.90949700
 20
-3.44152002
  0
VERTEX
  8
0
 10
-127.06417600
 20
-4.14707902
  0
VERTEX
  8
0
 10
-129.25618500
 20
-4.63535002
  0
VERTEX
  8
0
 10
-130.81168700
 20
-4.81533302
 42
-0.07067966
  0
VERTEX
  8
0
 10
-131.93655100
 20
-4.78615902
  0
VERTEX
  8
0
 10
-134.33175430
 20
-4.38226607
 42
-0.07108805
  0
VERTEX
  8
0
 10
-135.40983735
 20
-4.03812486
  0
VERTEX
  8
0
 10
-136.43072400
 20
-3.54381102
 42
-0.13444746
  0
VERTEX
  8
0
 10
-138.02172296
 20
-2.15339636
  0
SEQEND
  0
POLYLINE
  8
Standard-Ebene
 66
   1
 39
0.000000
 70
    0
  0
VERTEX
  8
0
 10
121.43458400
 20
147.73824198
  0
VERTEX
  8
0
 10
124.26400300
 20
146.05255598
  0
VERTEX
  8
0
 10
126.99659800
 20
144.28068698
  0
VERTEX
  8
0
 10
129.62605500
 20
142.48998698
  0
VERTEX
  8
0
 10
131.03265600
 20
141.51750298
  0
VERTEX
  8
0
 10
133.75537100
 20
145.08901698
  0
SEQEND
  0
POLYLINE
  8
Standard-Ebene
 66
   1
 39
0.000000
 70
    0
  0
VERTEX
  8
0
 10
121.38524000
 20
147.79489698
  0
VERTEX
  8
0
 10
119.55453900
 20
148.18938198
  0
VERTEX
  8
0
 10
116.85473400
 20
148.33614698
  0
VERTEX
  8
0
 10
115.05084500
 20
147.67793098
  0
VERTEX
  8
0
 10
114.99682700
 20
147.63825598
  0
VERTEX
  8
0
 10
114.94160500
 20
147.61524698
  0
VERTEX
  8
0
 10
114.87539700
 20
147.60482798
  0
VERTEX
  8
0
 10
112.83526500
 20
146.19938898
  0
VERTEX
  8
0
 10
110.36424200
 20
143.13525098
  0
VERTEX
  8
0
 10
108.14576200
 20
139.82403098
  0
VERTEX
  8
0
 10
106.86328300
 20
137.67740898
  0
VERTEX
  8
0
 10
104.52600600
 20
134.47858598
  0
VERTEX
  8
0
 10
102.28497900
 20
131.19979598
  0
VERTEX
  8
0
 10
99.86730300
 20
128.27633398
  0
VERTEX
  8
0
 10
97.64210500
 20
125.51692598
  0
VERTEX
  8
0
 10
95.45323900
 20
122.76297898
  0
VERTEX
  8
0
 10
93.27876500
 20
120.04398498
  0
VERTEX
  8
0
 10
90.04015300
 20
116.10403498
 42
0.03279171
  0
VERTEX
  8
0
 10
89.73459000
 20
115.67822898
  0
VERTEX
  8
0
 10
88.99380300
 20
114.48844498
  0
VERTEX
  8
0
 10
87.32306114
 20
112.16196483
 42
0.12353306
  0
VERTEX
  8
0
 10
86.60642139
 20
110.35186574
  0
VERTEX
  8
0
 10
86.62715900
 20
110.50906698
  0
VERTEX
  8
0
 10
86.48387100
 20
109.47796898
  0
VERTEX
  8
0
 10
86.48476399
 20
109.48379783
 42
0.11419451
  0
VERTEX
  8
0
 10
86.62056200
 20
107.68534298
  0
VERTEX
  8
0
 10
87.04017149
 20
106.34204691
 42
0.10639573
  0
VERTEX
  8
0
 10
87.86888895
 20
104.87692175
  0
VERTEX
  8
0
 10
88.54561495
 20
104.11578175
 42
0.06451314
  0
VERTEX
  8
0
 10
89.32166270
 20
103.44170984
  0
VERTEX
  8
0
 10
91.02811300
 20
102.30816098
 42
0.04694618
  0
VERTEX
  8
0
 10
91.68851304
 20
101.95377093
  0
VERTEX
  8
0
 10
93.98273800
 20
100.98730998
  0
VERTEX
  8
0
 10
96.79217000
 20
100.18796498
  0
VERTEX
  8
0
 10
99.68728700
 20
99.56732398
  0
VERTEX
  8
0
 10
102.58547000
 20
98.99084098
  0
VERTEX
  8
0
 10
105.40404000
 20
98.32399498
  0
VERTEX
  8
0
 10
108.06034800
 20
97.43225298
  0
VERTEX
  8
0
 10
110.92652700
 20
96.43617898
  0
VERTEX
  8
0
 10
113.75119700
 20
95.39171898
  0
VERTEX
  8
0
 10
116.51582400
 20
94.26329898
  0
VERTEX
  8
0
 10
119.20199700
 20
93.01529698
  0
VERTEX
  8
0
 10
121.79121700
 20
91.61205298
  0
VERTEX
  8
0
 10
124.26497900
 20
90.01798198
  0
VERTEX
  8
0
 10
126.60481000
 20
88.19748698
  0
VERTEX
  8
0
 10
127.81317400
 20
86.77537698
  0
VERTEX
  8
0
 10
129.99829300
 20
84.17586798
  0
VERTEX
  8
0
 10
130.65403700
 20
83.35096998
 42
0.09830204
  0
VERTEX
  8
0
 10
131.84228937
 20
82.34365516
  0
VERTEX
  8
0
 10
131.73570337
 20
82.40288316
 42
0.13316543
  0
VERTEX
  8
0
 10
133.76798736
 20
81.90031968
  0
VERTEX
  8
0
 10
134.15654600
 20
81.90900498
  0
VERTEX
  8
0
 10
135.11215500
 20
82.47623698
 42
0.06179913
  0
VERTEX
  8
0
 10
135.89083496
 20
83.07948789
  0
VERTEX
  8
0
 10
136.63050602
 20
83.81498666
 42
0.04395964
  0
VERTEX
  8
0
 10
137.06815300
 20
84.36385398
  0
VERTEX
  8
0
 10
138.09732700
 20
85.91679598
  0
VERTEX
  8
0
 10
139.21785900
 20
88.08646198
  0
VERTEX
  8
0
 10
140.22491100
 20
90.43835298
  0
VERTEX
  8
0
 10
141.10836900
 20
92.83168898
  0
VERTEX
  8
0
 10
141.85804500
 20
95.12568098
  0
VERTEX
  8
0
 10
142.46378000
 20
97.17952898
  0
VERTEX
  8
0
 10
142.91546100
 20
98.85245098
  0
VERTEX
  8
0
 10
143.20289900
 20
100.00365898
  0
VERTEX
  8
0
 10
143.58872300
 20
102.27538198
  0
VERTEX
  8
0
 10
144.10458200
 20
105.72330098
  0
VERTEX
  8
0
 10
144.41724200
 20
109.20721698
  0
VERTEX
  8
0
 10
144.19344800
 20
111.58686598
  0
VERTEX
  8
0
 10
144.16454800
 20
113.98757098
  0
VERTEX
  8
0
 10
143.93055400
 20
116.53729598
  0
VERTEX
  8
0
 10
143.62141500
 20
119.19873998
  0
VERTEX
  8
0
 10
143.61208500
 20
119.37216498
  0
VERTEX
  8
0
 10
143.57105400
 20
119.70395298
  0
VERTEX
  8
0
 10
143.47886400
 20
119.91149598
  0
VERTEX
  8
0
 10
143.02584500
 20
122.69457498
  0
VERTEX
  8
0
 10
142.43842600
 20
125.33012698
  0
VERTEX
  8
0
 10
141.67869700
 20
127.86101598
  0
VERTEX
  8
0
 10
140.70879800
 20
130.33004698
  0
VERTEX
  8
0
 10
139.49083200
 20
132.78011198
  0
VERTEX
  8
0
 10
137.98698400
 20
135.25403698
  0
VERTEX
  8
0
 10
136.22612600
 20
137.11897598
  0
VERTEX
  8
0
 10
134.28580700
 20
138.92056598
  0
VERTEX
  8
0
 10
132.14603500
 20
140.74774498
  0
VERTEX
  8
0
 10
131.28412900
 20
141.34364198
  0
SEQEND
  0
POLYLINE
  8
Standard-Ebene
 66
   1
 39
0.000000
 70
    0
  0
VERTEX
  8
0
 10
32.51969700
 20
213.86817898
  0
VERTEX
  8
0
 10
32.53570200
 20
213.94663698
  0
VERTEX
  8
0
 10
32.56562800
 20
214.03055398
  0
VERTEX
  8
0
 10
32.60249800
 20
214.11719498
  0
SEQEND
  0
POLYLINE
  8
Standard-Ebene
 66
   1
 39
0.000000
 70
    0
  0
VERTEX
  8
0
 10
117.21094400
 20
33.68591098
  0
VERTEX
  8
0
 10
119.09280600
 20
33.14149698
  0
VERTEX
  8
0
 10
121.39416200
 20
32.36494898
 42
-0.02757749
  0
VERTEX
  8
0
 10
121.59884100
 20
32.28306098
  0
VERTEX
  8
0
 10
123.90948500
 20
31.20732498
  0
VERTEX
  8
0
 10
126.33437000
 20
29.99293798
  0
VERTEX
  8
0
 10
128.86403900
 20
28.57810698
  0
VERTEX
  8
0
 10
131.29997100
 20
26.98910298
  0
VERTEX
  8
0
 10
133.44362800
 20
25.25223798
  0
VERTEX
  8
0
 10
135.09642700
 20
23.39380698
  0
VERTEX
  8
0
 10
136.29007300
 20
21.48360798
  0
VERTEX
  8
0
 10
136.58632600
 20
20.99286098
  0
VERTEX
  8
0
 10
136.77039900
 20
20.48168098
  0
VERTEX
  8
0
 10
136.84412600
 20
20.22190298
  0
VERTEX
  8
0
 10
137.97632200
 20
17.47475198
  0
VERTEX
  8
0
 10
138.52968800
 20
14.58277198
  0
VERTEX
  8
0
 10
138.41002800
 20
11.62940498
  0
VERTEX
  8
0
 10
137.75338300
 20
8.74164698
  0
VERTEX
  8
0
 10
136.69579500
 20
6.04649798
  0
VERTEX
  8
0
 10
135.01268200
 20
3.96905198
  0
VERTEX
  8
0
 10
133.07952900
 20
2.10610898
  0
VERTEX
  8
0
 10
130.93433200
 20
0.44523998
  0
VERTEX
  8
0
 10
128.61508800
 20
-1.02598402
  0
VERTEX
  8
0
 10
126.15979500
 20
-2.31999002
  0
VERTEX
  8
0
 10
123.60644900
 20
-3.44920902
  0
VERTEX
  8
0
 10
120.99304700
 20
-4.42606602
  0
VERTEX
  8
0
 10
118.35758700
 20
-5.26299302
  0
VERTEX
  8
0
 10
115.73806500
 20
-5.97241502
  0
VERTEX
  8
0
 10
113.17247900
 20
-6.56676302
  0
VERTEX
  8
0
 10
109.88020200
 20
-6.81695702
  0
VERTEX
  8
0
 10
104.46498087
 20
-7.26378534
 42
-0.06236386
  0
VERTEX
  8
0
 10
103.47192132
 20
-7.22181414
  0
VERTEX
  8
0
 10
99.59531900
 20
-6.56911002
  0
VERTEX
  8
0
 10
96.40160900
 20
-5.77314002
  0
VERTEX
  8
0
 10
92.86651300
 20
-4.76212002
  0
VERTEX
  8
0
 10
89.48189700
 20
-3.71955702
  0
VERTEX
  8
0
 10
86.73955600
 20
-2.82886002
  0
VERTEX
  8
0
 10
85.13123900
 20
-2.27356302
  0
VERTEX
  8
0
 10
83.27289100
 20
-1.37012502
  0
VERTEX
  8
0
 10
79.68426200
 20
0.25496498
  0
VERTEX
  8
0
 10
76.30090341
 20
1.40888052
 42
0.07564406
  0
VERTEX
  8
0
 10
75.11644344
 20
1.62158400
  0
VERTEX
  8
0
 10
72.75423900
 20
1.68463298
  0
VERTEX
  8
0
 10
69.97254000
 20
1.16329498
  0
VERTEX
  8
0
 10
67.17870500
 20
0.49090198
  0
VERTEX
  8
0
 10
64.36579900
 20
-0.22598602
  0
VERTEX
  8
0
 10
61.52688400
 20
-0.88080902
  0
VERTEX
  8
0
 10
58.65502300
 20
-1.36700902
  0
VERTEX
  8
0
 10
57.63119800
 20
-1.57883602
  0
VERTEX
  8
0
 10
54.99690800
 20
-2.05939302
  0
VERTEX
  8
0
 10
51.36084400
 20
-2.69704702
  0
VERTEX
  8
0
 10
47.33170600
 20
-3.38024302
  0
VERTEX
  8
0
 10
43.51818800
 20
-3.99734802
  0
VERTEX
  8
0
 10
40.52905600
 20
-4.43672602
  0
VERTEX
  8
0
 10
38.97290600
 20
-4.58681402
  0
VERTEX
  8
0
 10
35.72204600
 20
-6.19408402
  0
VERTEX
  8
0
 10
32.91168600
 20
-7.59637002
  0
VERTEX
  8
0
 10
29.20339700
 20
-8.28009002
  0
VERTEX
  8
0
 10
26.56370200
 20
-7.92148802
  0
VERTEX
  8
0
 10
23.91086500
 20
-7.59707002
  0
VERTEX
  8
0
 10
21.24654400
 20
-7.30322902
  0
VERTEX
  8
0
 10
18.57230400
 20
-7.03631802
  0
VERTEX
  8
0
 10
15.88971800
 20
-6.79276802
  0
VERTEX
  8
0
 10
13.20044300
 20
-6.56896902
  0
VERTEX
  8
0
 10
10.50606500
 20
-6.36131902
  0
VERTEX
  8
0
 10
7.80819100
 20
-6.16615502
  0
VERTEX
  8
0
 10
5.10839300
 20
-5.97990502
  0
VERTEX
  8
0
 10
2.40831900
 20
-5.79899302
  0
VERTEX
  8
0
 10
-0.29045600
 20
-5.61974102
  0
VERTEX
  8
0
 10
-2.98629600
 20
-5.43860402
  0
VERTEX
  8
0
 10
-5.67762400
 20
-5.25190502
  0
VERTEX
  8
0
 10
-8.48964700
 20
-5.07676702
  0
VERTEX
  8
0
 10
-11.33822700
 20
-4.89679302
  0
VERTEX
  8
0
 10
-14.21427800
 20
-4.70301302
  0
VERTEX
  8
0
 10
-17.10849600
 20
-4.48635702
  0
VERTEX
  8
0
 10
-20.01177000
 20
-4.23779202
  0
VERTEX
  8
0
 10
-22.91482100
 20
-3.94831202
  0
VERTEX
  8
0
 10
-25.80852600
 20
-3.60885102
  0
VERTEX
  8
0
 10
-28.34748500
 20
-2.62868802
  0
VERTEX
  8
0
 10
-30.92876500
 20
-1.88045602
  0
VERTEX
  8
0
 10
-33.79415100
 20
-1.61452602
  0
VERTEX
  8
0
 10
-37.10766400
 20
-2.64575002
  0
VERTEX
  8
0
 10
-40.13588800
 20
-4.26099302
  0
VERTEX
  8
0
 10
-43.24208500
 20
-5.68555602
  0
VERTEX
  8
0
 10
-46.95160600
 20
-6.07763802
  0
VERTEX
  8
0
 10
-50.74979200
 20
-6.16268702
  0
VERTEX
  8
0
 10
-54.50823600
 20
-5.26155202
  0
VERTEX
  8
0
 10
-47.46397100
 20
11.61038798
  0
VERTEX
  8
0
 10
-46.16353500
 20
11.57503498
  0
VERTEX
  8
0
 10
-44.86115900
 20
11.48285198
  0
VERTEX
  8
0
 10
-44.80903500
 20
11.49081398
 42
-0.12913322
  0
VERTEX
  8
0
 10
-42.78806100
 20
11.27728498
  0
VERTEX
  8
0
 10
-41.78789200
 20
10.89840598
  0
VERTEX
  8
0
 10
-38.64905600
 20
10.12948398
  0
VERTEX
  8
0
 10
-35.03356100
 20
9.47770898
  0
VERTEX
  8
0
 10
-31.62097100
 20
9.07810598
  0
VERTEX
  8
0
 10
-29.09084900
 20
9.06569798
  0
VERTEX
  8
0
 10
-27.30581100
 20
9.78707898
  0
VERTEX
  8
0
 10
-25.52927400
 20
10.52782098
  0
VERTEX
  8
0
 10
-23.75697900
 20
11.27822098
  0
VERTEX
  8
0
 10
-22.44997000
 20
11.12945498
  0
VERTEX
  8
0
 10
-21.16727100
 20
11.06228498
  0
VERTEX
  8
0
 10
-19.94727500
 20
10.87530798
  0
VERTEX
  8
0
 10
-17.41375000
 20
9.74555298
  0
VERTEX
  8
0
 10
-14.75039400
 20
8.57659398
  0
VERTEX
  8
0
 10
-12.00203700
 20
7.45899898
  0
VERTEX
  8
0
 10
-9.21346300
 20
6.48346198
  0
VERTEX
  8
0
 10
-6.42948900
 20
5.74058098
  0
VERTEX
  8
0
 10
-3.69489100
 20
5.32097598
  0
VERTEX
  8
0
 10
-1.05443300
 20
5.31529598
  0
VERTEX
  8
0
 10
2.41212400
 20
5.22108598
  0
VERTEX
  8
0
 10
5.94233700
 20
5.45463798
  0
VERTEX
  8
0
 10
9.33032200
 20
5.77571398
  0
VERTEX
  8
0
 10
12.63478500
 20
6.04412898
  0
VERTEX
  8
0
 10
15.96367000
 20
6.66140198
  0
VERTEX
  8
0
 10
19.28088800
 20
7.40492798
  0
VERTEX
  8
0
 10
22.55041300
 20
8.05207898
  0
VERTEX
  8
0
 10
25.53436100
 20
8.68153598
  0
VERTEX
  8
0
 10
28.49479200
 20
9.12629298
  0
VERTEX
  8
0
 10
31.44305700
 20
9.49097598
  0
VERTEX
  8
0
 10
34.39050500
 20
9.88020998
  0
VERTEX
  8
0
 10
37.34848500
 20
10.39862198
  0
VERTEX
  8
0
 10
37.35209600
 20
10.40788898
  0
VERTEX
  8
0
 10
37.36113700
 20
10.43108598
  0
VERTEX
  8
0
 10
37.37288700
 20
10.46123398
  0
VERTEX
  8
0
 10
39.93171600
 20
11.00141898
  0
VERTEX
  8
0
 10
42.75131100
 20
12.08208198
  0
VERTEX
  8
0
 10
45.66295400
 20
13.52754698
  0
VERTEX
  8
0
 10
48.49806700
 20
15.16212098
  0
VERTEX
  8
0
 10
51.08795300
 20
16.81008298
  0
VERTEX
  8
0
 10
53.26402600
 20
18.29581398
  0
VERTEX
  8
0
 10
55.91507300
 20
19.76325398
  0
VERTEX
  8
0
 10
58.56056000
 20
21.19903498
  0
VERTEX
  8
0
 10
61.21580200
 20
22.59044498
  0
VERTEX
  8
0
 10
63.89610900
 20
23.92477498
  0
VERTEX
  8
0
 10
66.11144800
 20
24.77361698
  0
VERTEX
  8
0
 10
69.93880300
 20
26.46875198
  0
VERTEX
  8
0
 10
71.99532500
 20
27.40354198
  0
VERTEX
  8
0
 10
74.40480500
 20
28.40780098
  0
VERTEX
  8
0
 10
78.88860200
 20
30.19033398
  0
VERTEX
  8
0
 10
81.43957100
 20
31.18752098
  0
VERTEX
  8
0
 10
82.86590300
 20
32.16741298
  0
VERTEX
  8
0
 10
85.85801800
 20
33.14510298
  0
VERTEX
  8
0
 10
89.60204900
 20
34.04211498
  0
VERTEX
  8
0
 10
93.28406300
 20
34.77999798
  0
VERTEX
  8
0
 10
96.09011500
 20
35.28026898
  0
VERTEX
  8
0
 10
97.20633700
 20
35.46445298
  0
VERTEX
  8
0
 10
98.23667600
 20
35.42484698
  0
VERTEX
  8
0
 10
99.24778900
 20
35.52096798
  0
VERTEX
  8
0
 10
100.19356900
 20
35.63450898
  0
VERTEX
  8
0
 10
103.13578800
 20
35.65723598
  0
VERTEX
  8
0
 10
105.94376400
 20
35.56109798
  0
VERTEX
  8
0
 10
108.64960900
 20
35.34169498
  0
VERTEX
  8
0
 10
111.28537200
 20
34.99446998
  0
VERTEX
  8
0
 10
113.88312000
 20
34.51500298
  0
VERTEX
  8
0
 10
116.47490600
 20
33.89884398
  0
VERTEX
  8
0
 10
116.81530900
 20
33.80036698
  0
VERTEX
  8
0
 10
116.81530900
 20
35.62292298
  0
SEQEND
  0
POLYLINE
  8
Standard-Ebene
 66
   1
 39
0.000000
 70
    1
  0
VERTEX
  8
0
 10
93.79865700
 20
12.12603598
  0
VERTEX
  8
0
 10
128.41168600
 20
9.03914698
  0
VERTEX
  8
0
 10
128.76700400
 20
13.02329398
  0
VERTEX
  8
0
 10
94.15397500
 20
16.11018298
  0
VERTEX
  8
0
 10
93.79865700
 20
12.12603598
  0
SEQEND
  0
POLYLINE
  8
Standard-Ebene
 66
   1
 39
0.000000
 70
    1
  0
VERTEX
  8
0
 10
102.63815500
 20
119.54236398
  0
VERTEX
  8
0
 10
135.19086700
 20
107.38047198
  0
VERTEX
  8
0
 10
136.59076700
 20
111.12746598
  0
VERTEX
  8
0
 10
104.03805500
 20
123.28935798
  0
VERTEX
  8
0
 10
102.63815500
 20
119.54236398
  0
SEQEND
  0
POLYLINE
  8
Standard-Ebene
 66
   1
 39
0.000000
 70
    0
  0
VERTEX
  8
0
 10
-92.15150500
 20
227.52542098
  0
VERTEX
  8
0
 10
-95.00966200
 20
227.48343498
  0
VERTEX
  8
0
 10
-97.75026200
 20
227.31208898
  0
VERTEX
  8
0
 10
-100.39395500
 20
227.00309198
  0
VERTEX
  8
0
 10
-102.96149100
 20
226.54825498
  0
VERTEX
  8
0
 10
-105.47358700
 20
225.93932298
  0
VERTEX
  8
0
 10
-107.95096100
 20
225.16803898
  0
VERTEX
  8
0
 10
-110.41432900
 20
224.22617998
  0
VERTEX
  8
0
 10
-112.88440800
 20
223.10555698
  0
VERTEX
  8
0
 10
-115.38194800
 20
221.79788098
  0
VERTEX
  8
0
 10
-117.82559800
 20
220.18384798
  0
VERTEX
  8
0
 10
-120.39609500
 20
218.53648698
  0
VERTEX
  8
0
 10
-122.87489300
 20
216.77183298
  0
VERTEX
  8
0
 10
-124.76181500
 20
215.06123598
 42
0.04741069
  0
VERTEX
  8
0
 10
-125.27194600
 20
214.50212298
  0
VERTEX
  8
0
 10
-126.68100900
 20
212.62872398
  0
VERTEX
  8
0
 10
-127.36819200
 20
211.71242398
  0
VERTEX
  8
0
 10
-127.91134100
 20
210.86587098
  0
VERTEX
  8
0
 10
-128.95728600
 20
208.91314798
  0
VERTEX
  8
0
 10
-129.76746700
 20
207.14899898
  0
VERTEX
  8
0
 10
-130.81606900
 20
204.79928398
  0
VERTEX
  8
0
 10
-131.94216700
 20
202.11432198
  0
VERTEX
  8
0
 10
-133.03592600
 20
199.23332998
  0
VERTEX
  8
0
 10
-133.98754200
 20
196.29555998
  0
VERTEX
  8
0
 10
-134.68711100
 20
193.44019098
  0
VERTEX
  8
0
 10
-135.02486500
 20
190.80644198
  0
VERTEX
  8
0
 10
-134.89090200
 20
188.53346098
  0
VERTEX
  8
0
 10
-134.17545100
 20
186.76053298
  0
VERTEX
  8
0
 10
-133.36357100
 20
184.92859198
  0
VERTEX
  8
0
 10
-132.24225200
 20
182.95296398
  0
VERTEX
  8
0
 10
-131.32110500
 20
181.02814798
  0
VERTEX
  8
0
 10
-130.22147300
 20
178.77167798
  0
VERTEX
  8
0
 10
-129.27186600
 20
176.33705398
  0
VERTEX
  8
0
 10
-128.49112100
 20
173.76890798
  0
VERTEX
  8
0
 10
-127.89814700
 20
171.11170298
  0
VERTEX
  8
0
 10
-127.51175100
 20
168.41003498
  0
VERTEX
  8
0
 10
-127.35083800
 20
165.70847098
  0
VERTEX
  8
0
 10
-127.43428300
 20
163.05153998
  0
VERTEX
  8
0
 10
-127.78092600
 20
160.48377298
  0
VERTEX
  8
0
 10
-128.40967400
 20
158.04976798
  0
VERTEX
  8
0
 10
-129.28689100
 20
154.30985198
  0
VERTEX
  8
0
 10
-130.40726800
 20
150.68176298
  0
VERTEX
  8
0
 10
-131.25407100
 20
147.20985598
  0
VERTEX
  8
0
 10
-132.61206400
 20
143.58760998
  0
VERTEX
  8
0
 10
-133.70037800
 20
139.74070898
  0
VERTEX
  8
0
 10
-134.67641900
 20
136.15187898
  0
VERTEX
  8
0
 10
-135.83243400
 20
133.08261998
  0
VERTEX
  8
0
 10
-136.45974100
 20
129.70625498
  0
VERTEX
  8
0
 10
-137.27924100
 20
126.64934598
  0
VERTEX
  8
0
 10
-137.80112500
 20
123.74995398
  0
VERTEX
  8
0
 10
-138.28848200
 20
120.86539798
  0
VERTEX
  8
0
 10
-138.72382000
 20
117.99044998
  0
VERTEX
  8
0
 10
-139.08961100
 20
115.11991598
  0
VERTEX
  8
0
 10
-139.36839900
 20
112.24856898
  0
VERTEX
  8
0
 10
-139.54272600
 20
109.37114698
  0
VERTEX
  8
0
 10
-139.59506600
 20
106.48242398
  0
VERTEX
  8
0
 10
-139.55770500
 20
102.72642398
  0
VERTEX
  8
0
 10
-139.33942300
 20
99.02479398
  0
VERTEX
  8
0
 10
-139.11757900
 20
95.44259198
  0
VERTEX
  8
0
 10
-138.54234400
 20
92.45212298
  0
VERTEX
  8
0
 10
-138.14077500
 20
89.45106898
  0
VERTEX
  8
0
 10
-137.97124300
 20
86.48846498
  0
VERTEX
  8
0
 10
-138.09219000
 20
83.61328398
  0
VERTEX
  8
0
 10
-138.59612000
 20
81.48719798
  0
VERTEX
  8
0
 10
-139.09357700
 20
79.26259598
  0
VERTEX
  8
0
 10
-139.55930400
 20
76.96235598
  0
VERTEX
  8
0
 10
-139.96798300
 20
74.60931998
  0
VERTEX
  8
0
 10
-140.29429100
 20
72.22633098
  0
VERTEX
  8
0
 10
-140.51297500
 20
69.83626698
  0
VERTEX
  8
0
 10
-140.59868100
 20
67.46193398
  0
VERTEX
  8
0
 10
-140.52615400
 20
65.12624498
  0
VERTEX
  8
0
 10
-140.27004000
 20
62.85197398
  0
VERTEX
  8
0
 10
-139.80508500
 20
60.66203198
  0
VERTEX
  8
0
 10
-139.10593500
 20
58.57922598
  0
VERTEX
  8
0
 10
-138.14733500
 20
56.62643498
  0
VERTEX
  8
0
 10
-136.90396500
 20
54.82649998
  0
VERTEX
  8
0
 10
-135.35050400
 20
53.20226498
  0
VERTEX
  8
0
 10
-133.46169700
 20
51.77660698
  0
VERTEX
  8
0
 10
-131.13955100
 20
50.37170598
  0
VERTEX
  8
0
 10
-127.88124900
 20
49.39580698
  0
VERTEX
  8
0
 10
-124.48377500
 20
48.64897598
  0
VERTEX
  8
0
 10
-121.74404600
 20
47.93120798
  0
VERTEX
  8
0
 10
-119.13589900
 20
47.63556398
  0
VERTEX
  8
0
 10
-116.49490491
 20
47.10452579
 42
-0.07157685
  0
VERTEX
  8
0
 10
-115.77914034
 20
46.85025466
  0
VERTEX
  8
0
 10
-113.87314100
 20
45.84765498
  0
VERTEX
  8
0
 10
-113.30088500
 20
45.58284698
  0
VERTEX
  8
0
 10
-111.82504500
 20
44.77501698
  0
VERTEX
  8
0
 10
-110.25430900
 20
44.12497798
  0
VERTEX
  8
0
 10
-107.62983200
 20
42.74941398
  0
VERTEX
  8
0
 10
-105.59415400
 20
41.66782398
  0
VERTEX
  8
0
 10
-103.87918193
 20
40.67518077
 42
0.16004994
  0
VERTEX
  8
0
 10
-102.25027113
 20
40.33261077
  0
VERTEX
  8
0
 10
-100.60316100
 20
40.51473098
  0
VERTEX
  8
0
 10
-98.06185000
 20
41.58025298
  0
VERTEX
  8
0
 10
-95.51826300
 20
42.51020698
  0
VERTEX
  8
0
 10
-94.80870600
 20
42.94364798
  0
VERTEX
  8
0
 10
-92.90622400
 20
43.74599498
  0
VERTEX
  8
0
 10
-90.13115000
 20
44.80837698
  0
VERTEX
  8
0
 10
-86.80374900
 20
46.02195498
  0
VERTEX
  8
0
 10
-83.24438800
 20
47.27786098
  0
VERTEX
  8
0
 10
-79.77330100
 20
48.46721998
  0
VERTEX
  8
0
 10
-76.71082000
 20
49.48119698
  0
VERTEX
  8
0
 10
-74.37724500
 20
50.21091998
  0
VERTEX
  8
0
 10
-73.09290900
 20
50.54755098
  0
VERTEX
  8
0
 10
-70.71330100
 20
51.13867198
  0
VERTEX
  8
0
 10
-63.09937500
 20
53.38335798
  0
SEQEND
  0
POLYLINE
  8
Standard-Ebene
 66
   1
 39
0.000000
 70
    0
  0
VERTEX
  8
0
 10
-62.31704500
 20
183.21124098
  0
VERTEX
  8
0
 10
-62.14253100
 20
184.10005998
  0
VERTEX
  8
0
 10
-61.72153400
 20
186.76241998
  0
VERTEX
  8
0
 10
-61.39965800
 20
189.44309798
  0
VERTEX
  8
0
 10
-61.17625400
 20
192.15034298
  0
VERTEX
  8
0
 10
-61.05067100
 20
194.89243998
  0
VERTEX
  8
0
 10
-61.02229400
 20
197.67760598
  0
VERTEX
  8
0
 10
-61.09047400
 20
200.51408998
  0
VERTEX
  8
0
 10
-61.55949200
 20
202.73349898
  0
VERTEX
  8
0
 10
-62.54936700
 20
206.40234098
  0
VERTEX
  8
0
 10
-64.33343374
 20
210.61522664
 42
0.03158623
  0
VERTEX
  8
0
 10
-64.55925725
 20
211.06677768
  0
VERTEX
  8
0
 10
-66.18936400
 20
213.86890598
  0
VERTEX
  8
0
 10
-68.02555500
 20
216.35656098
  0
VERTEX
  8
0
 10
-70.24175800
 20
218.76196698
  0
VERTEX
  8
0
 10
-72.57455000
 20
220.82878798
  0
VERTEX
  8
0
 10
-74.76050900
 20
222.30068898
  0
VERTEX
  8
0
 10
-76.02662200
 20
223.13261698
 42
0.03649744
  0
VERTEX
  8
0
 10
-76.53604909
 20
223.41647895
  0
VERTEX
  8
0
 10
-79.36272009
 20
224.73139195
 42
0.02079249
  0
VERTEX
  8
0
 10
-79.66979700
 20
224.85899298
  0
VERTEX
  8
0
 10
-83.32720000
 20
226.20337498
  0
VERTEX
  8
0
 10
-86.33907800
 20
226.86465298
  0
VERTEX
  8
0
 10
-89.35850200
 20
227.27404698
  0
VERTEX
  8
0
 10
-92.11792000
 20
227.52441898
  0
SEQEND
  0
POLYLINE
  8
Standard-Ebene
 66
   1
 39
0.000000
 70
    0
  0
VERTEX
  8
0
 10
-23.74468000
 20
59.63072298
  0
VERTEX
  8
0
 10
-26.21810000
 20
59.45974498
  0
VERTEX
  8
0
 10
-28.71385100
 20
59.27262498
  0
VERTEX
  8
0
 10
-31.22731800
 20
59.06630298
  0
VERTEX
  8
0
 10
-33.75395000
 20
58.83781698
  0
VERTEX
  8
0
 10
-36.28909900
 20
58.58413998
  0
VERTEX
  8
0
 10
-38.82825000
 20
58.30221098
  0
VERTEX
  8
0
 10
-41.36675200
 20
57.98910098
  0
VERTEX
  8
0
 10
-43.90002200
 20
57.64175098
  0
VERTEX
  8
0
 10
-46.42347800
 20
57.25716598
  0
VERTEX
  8
0
 10
-48.93257100
 20
56.83235198
  0
VERTEX
  8
0
 10
-51.42265100
 20
56.36424698
  0
VERTEX
  8
0
 10
-53.88916800
 20
55.84989198
  0
VERTEX
  8
0
 10
-56.32747500
 20
55.28622298
  0
VERTEX
  8
0
 10
-58.73305400
 20
54.67028198
  0
VERTEX
  8
0
 10
-61.10128900
 20
53.99903998
  0
VERTEX
  8
0
 10
-63.42756400
 20
53.26950298
  0
SEQEND
  0
POLYLINE
  8
Standard-Ebene
 66
   1
 39
0.000000
 70
    0
  0
VERTEX
  8
0
 10
-23.67650900
 20
59.66230398
  0
VERTEX
  8
0
 10
-21.59504300
 20
59.49490998
  0
VERTEX
  8
0
 10
-19.28500200
 20
59.17185198
  0
VERTEX
  8
0
 10
-16.87531900
 20
58.65519498
  0
VERTEX
  8
0
 10
-14.49492800
 20
57.90703298
  0
VERTEX
  8
0
 10
-12.27283200
 20
56.88939898
  0
VERTEX
  8
0
 10
-10.33796300
 20
55.56438698
  0
VERTEX
  8
0
 10
-8.95257789
 20
54.04072453
 42
-0.07393003
  0
VERTEX
  8
0
 10
-8.73430231
 20
53.71494175
  0
VERTEX
  8
0
 10
-7.93845231
 20
52.03630475
 42
-0.08073999
  0
VERTEX
  8
0
 10
-7.81956942
 20
51.62533414
  0
VERTEX
  8
0
 10
-7.57273600
 20
49.58610698
 42
-0.08266977
  0
VERTEX
  8
0
 10
-7.59222000
 20
49.14863198
  0
VERTEX
  8
0
 10
-7.66625600
 20
48.80037198
  0
VERTEX
  8
0
 10
-7.82465300
 20
48.20625198
  0
VERTEX
  8
0
 10
-7.95856600
 20
47.93262298
  0
VERTEX
  8
0
 10
-8.13522700
 20
47.60298898
  0
VERTEX
  8
0
 10
-8.30421000
 20
47.28058898
  0
VERTEX
  8
0
 10
-8.33971300
 20
47.20941698
 42
-0.21079724
  0
VERTEX
  8
0
 10
-9.16812600
 20
46.52211098
  0
VERTEX
  8
0
 10
-11.20508000
 20
45.94285698
  0
VERTEX
  8
0
 10
-14.65969800
 20
44.73989698
  0
VERTEX
  8
0
 10
-16.42781300
 20
43.47917398
  0
VERTEX
  8
0
 10
-18.83189000
 20
41.20538998
 42
0.05093648
  0
VERTEX
  8
0
 10
-19.18572500
 20
40.79494198
  0
VERTEX
  8
0
 10
-20.78075400
 20
38.51121998
 42
0.05377551
  0
VERTEX
  8
0
 10
-21.05607600
 20
38.00990198
  0
VERTEX
  8
0
 10
-22.22071200
 20
35.21468198
  0
VERTEX
  8
0
 10
-22.63472000
 20
33.71911898
 42
0.04335834
  0
VERTEX
  8
0
 10
-22.71890600
 20
33.26524398
  0
VERTEX
  8
0
 10
-22.86638200
 20
31.74548198
  0
VERTEX
  8
0
 10
-22.87219940
 20
30.79561620
 42
0.07713142
  0
VERTEX
  8
0
 10
-22.84062754
 20
29.97836454
  0
VERTEX
  8
0
 10
-22.43365900
 20
27.89120398
 42
0.07936390
  0
VERTEX
  8
0
 10
-22.14443525
 20
27.10124368
  0
VERTEX
  8
0
 10
-21.41907825
 20
25.80253368
 42
0.08118385
  0
VERTEX
  8
0
 10
-20.88392855
 20
25.12896064
  0
VERTEX
  8
0
 10
-19.82035800
 20
24.16286598
 42
0.06723563
  0
VERTEX
  8
0
 10
-19.23238200
 20
23.75789398
  0
VERTEX
  8
0
 10
-17.50844900
 20
22.88464198
  0
VERTEX
  8
0
 10
-15.18552100
 20
22.22952498
  0
VERTEX
  8
0
 10
-12.69976100
 20
21.87090698
  0
VERTEX
  8
0
 10
-10.16589200
 20
21.72437398
  0
VERTEX
  8
0
 10
-8.70359400
 20
21.71317598
 42
0.18216506
  0
VERTEX
  8
0
 10
-6.93870883
 20
22.36285755
  0
VERTEX
  8
0
 10
-6.77216283
 20
22.50690855
 42
0.13531779
  0
VERTEX
  8
0
 10
-5.98510274
 20
23.68572949
  0
VERTEX
  8
0
 10
-5.73849274
 20
24.43066449
 42
0.07444864
  0
VERTEX
  8
0
 10
-5.60405080
 20
25.20887054
  0
VERTEX
  8
0
 10
-5.56532100
 20
26.93393398
  0
VERTEX
  8
0
 10
-5.74914100
 20
29.12328998
  0
VERTEX
  8
0
 10
-5.82564400
 20
30.81290798
 42
-0.06126331
  0
VERTEX
  8
0
 10
-5.77548200
 20
31.46199798
  0
VERTEX
  8
0
 10
-5.68968900
 20
31.88631298
 42
-0.16067089
  0
VERTEX
  8
0
 10
-4.86229200
 20
33.33771698
  0
VERTEX
  8
0
 10
-4.44985300
 20
33.70984098
  0
VERTEX
  8
0
 10
-3.57316200
 20
34.85597698
 42
-0.14605970
  0
VERTEX
  8
0
 10
-2.33857000
 20
35.75189398
  0
VERTEX
  8
0
 10
-0.99522600
 20
36.22358698
 42
-0.05319843
  0
VERTEX
  8
0
 10
-0.44446300
 20
36.35334998
  0
VERTEX
  8
0
 10
1.90079400
 20
36.64825998
 42
-0.03874614
  0
VERTEX
  8
0
 10
2.31299500
 20
36.66791098
  0
VERTEX
  8
0
 10
2.40477500
 20
36.66517398
  0
VERTEX
  8
0
 10
2.69709700
 20
36.65645498
  0
VERTEX
  8
0
 10
5.22683800
 20
36.48762398
  0
VERTEX
  8
0
 10
7.65784800
 20
36.68604098
 42
0.10270912
  0
VERTEX
  8
0
 10
8.69788553
 20
36.99203324
  0
VERTEX
  8
0
 10
9.32365800
 20
37.32648798
 42
0.24310934
  0
VERTEX
  8
0
 10
10.71218500
 20
39.34312298
  0
VERTEX
  8
0
 10
10.87393400
 20
40.61978498
  0
VERTEX
  8
0
 10
10.41903600
 20
43.86035398
  0
VERTEX
  8
0
 10
9.45905200
 20
47.26120298
  0
VERTEX
  8
0
 10
8.28389900
 20
50.42644398
  0
VERTEX
  8
0
 10
7.18349500
 20
52.96018998
  0
VERTEX
  8
0
 10
5.93579400
 20
55.08150798
  0
VERTEX
  8
0
 10
4.68809300
 20
57.20282698
  0
VERTEX
  8
0
 10
3.44039100
 20
59.32414498
  0
VERTEX
  8
0
 10
1.80389700
 20
61.48805198
  0
VERTEX
  8
0
 10
0.06979300
 20
63.61389298
  0
VERTEX
  8
0
 10
-1.75812400
 20
65.68582498
  0
VERTEX
  8
0
 10
-3.67595800
 20
67.68793198
  0
VERTEX
  8
0
 10
-5.67984600
 20
69.60436698
  0
VERTEX
  8
0
 10
-7.76595800
 20
71.41928498
  0
VERTEX
  8
0
 10
-9.93043200
 20
73.11677098
  0
VERTEX
  8
0
 10
-12.16937100
 20
74.68097698
  0
VERTEX
  8
0
 10
-14.05850800
 20
76.08314898
  0
VERTEX
  8
0
 10
-16.83304400
 20
77.85533598
  0
VERTEX
  8
0
 10
-18.40169300
 20
78.73253598
  0
VERTEX
  8
0
 10
-20.87514200
 20
80.17226998
  0
VERTEX
  8
0
 10
-23.34701100
 20
81.54664398
  0
VERTEX
  8
0
 10
-25.82623500
 20
82.85249498
  0
VERTEX
  8
0
 10
-28.32168700
 20
84.08645798
  0
VERTEX
  8
0
 10
-30.84233800
 20
85.24533698
  0
VERTEX
  8
0
 10
-33.39705700
 20
86.32586898
  0
VERTEX
  8
0
 10
-35.99478500
 20
87.32475698
  0
VERTEX
  8
0
 10
-39.12031700
 20
88.22596498
  0
VERTEX
  8
0
 10
-42.30243700
 20
89.13236198
  0
VERTEX
  8
0
 10
-46.61886000
 20
91.22944798
  0
VERTEX
  8
0
 10
-64.30525000
 20
74.71199498
  0
VERTEX
  8
0
 10
-67.03539200
 20
77.63534898
  0
VERTEX
  8
0
 10
-48.53843300
 20
94.90979898
  0
VERTEX
  8
0
 10
-49.14181600
 20
97.99382698
  0
VERTEX
  8
0
 10
-49.86950400
 20
100.82954398
  0
VERTEX
  8
0
 10
-50.77369400
 20
103.48295498
  0
VERTEX
  8
0
 10
-51.90356100
 20
106.00376398
  0
VERTEX
  8
0
 10
-53.30811300
 20
108.44160298
  0
VERTEX
  8
0
 10
-55.03649200
 20
110.84617398
  0
VERTEX
  8
0
 10
-57.13777300
 20
113.26714498
  0
VERTEX
  8
0
 10
-59.34714000
 20
115.03619098
  0
VERTEX
  8
0
 10
-61.54638000
 20
116.89455098
  0
VERTEX
  8
0
 10
-63.38417700
 20
119.10069798
  0
VERTEX
  8
0
 10
-64.57655200
 20
122.00294798
  0
VERTEX
  8
0
 10
-65.59659700
 20
125.08285398
  0
VERTEX
  8
0
 10
-66.44363200
 20
128.25844398
  0
VERTEX
  8
0
 10
-67.11690700
 20
131.44774298
  0
VERTEX
  8
0
 10
-67.55114700
 20
134.16935898
  0
VERTEX
  8
0
 10
-67.97958600
 20
136.90290398
  0
VERTEX
  8
0
 10
-68.39073800
 20
139.64803398
  0
VERTEX
  8
0
 10
-68.77311600
 20
142.40440698
  0
VERTEX
  8
0
 10
-69.11523500
 20
145.17167998
  0
VERTEX
  8
0
 10
-69.40560900
 20
147.94951198
  0
VERTEX
  8
0
 10
-69.63275200
 20
150.73755898
  0
VERTEX
  8
0
 10
-69.78517700
 20
153.53547898
  0
VERTEX
  8
0
 10
-69.85140000
 20
156.34292898
  0
VERTEX
  8
0
 10
-69.81993300
 20
159.15956598
  0
VERTEX
  8
0
 10
-69.44230490
 20
162.29726021
 42
-0.06696781
  0
VERTEX
  8
0
 10
-69.17477300
 20
163.32985598
  0
VERTEX
  8
0
 10
-68.14895700
 20
165.84508798
  0
VERTEX
  8
0
 10
-66.58353800
 20
169.61802598
  0
VERTEX
  8
0
 10
-65.31631100
 20
172.28432498
  0
VERTEX
  8
0
 10
-64.25158900
 20
175.67379598
  0
VERTEX
  8
0
 10
-63.28445200
 20
178.79726198
  0
VERTEX
  8
0
 10
-62.66329900
 20
181.44773598
  0
VERTEX
  8
0
 10
-62.49359800
 20
182.31203698
  0
VERTEX
  8
0
 10
-58.89199300
 20
182.31203698
  0
SEQEND
  0
POLYLINE
  8
Standard-Ebene
 66
   1
 39
0.000000
 70
    1
  0
VERTEX
  8
0
 10
-116.22232600
 20
118.04557098
  0
VERTEX
  8
0
 10
-116.06496800
 20
122.04243398
  0
VERTEX
  8
0
 10
-80.84185100
 20
120.65568398
  0
VERTEX
  8
0
 10
-80.99920900
 20
116.65881998
  0
VERTEX
  8
0
 10
-116.22232600
 20
118.04557098
  0
SEQEND
  0
POLYLINE
  8
Standard-Ebene
 66
   1
 39
0.000000
 70
    1
  0
VERTEX
  8
0
 10
-132.28595300
 20
62.23612998
  0
VERTEX
  8
0
 10
-133.41592300
 20
66.07316698
  0
VERTEX
  8
0
 10
-99.60131400
 20
76.03124198
  0
VERTEX
  8
0
 10
-98.47134400
 20
72.19420598
  0
VERTEX
  8
0
 10
-132.28595300
 20
62.23612998
  0
SEQEND
  0
POLYLINE
  8
Standard-Ebene
 66
   1
 39
0.000000
 70
    1
  0
VERTEX
  8
0
 10
-123.36596200
 20
200.49306298
  0
VERTEX
  8
0
 10
-121.69453600
 20
204.12707198
  0
VERTEX
  8
0
 10
-89.66914900
 20
189.39731798
  0
VERTEX
  8
0
 10
-91.34057500
 20
185.76330898
  0
VERTEX
  8
0
 10
-123.36596200
 20
200.49306298
  0
SEQEND
  0
POLYLINE
  8
Standard-Ebene
 66
   1
 39
0.000000
 70
    1
  0
VERTEX
  8
0
 10
-36.55526700
 20
190.92067598
  0
VERTEX
  8
0
 10
-1.83137600
 20
189.56347398
  0
VERTEX
  8
0
 10
-1.67515400
 20
193.56038198
  0
VERTEX
  8
0
 10
-36.39904600
 20
194.91758398
  0
VERTEX
  8
0
 10
-36.55526700
 20
190.92067598
  0
SEQEND
  0
POLYLINE
  8
Standard-Ebene
 66
   1
 39
0.000000
 70
    1
  0
VERTEX
  8
0
 10
70.04404900
 20
208.35986298
 42
0.41421356
  0
VERTEX
  8
0
 10
74.03579900
 20
204.35170998
  0
VERTEX
  8
0
 10
98.03550900
 20
204.30250198
 42
0.41421356
  0
VERTEX
  8
0
 10
102.04366159
 20
208.29425277
  0
VERTEX
  8
0
 10
102.07099900
 20
221.62742498
 42
0.41421356
  0
VERTEX
  8
0
 10
98.07924921
 20
225.63557757
  0
VERTEX
  8
0
 10
74.07953921
 20
225.68478457
 42
0.41421356
  0
VERTEX
  8
0
 10
70.07138641
 20
221.69303420
  0
VERTEX
  8
0
 10
70.04404900
 20
208.35986298
  0
SEQEND
  0
POLYLINE
  8
Standard-Ebene
 66
   1
 39
0.000000
 70
    1
  0
VERTEX
  8
0
 10
79.38683700
 20
213.00733698
  0
VERTEX
  8
0
 10
79.39503900
 20
217.00728798
  0
VERTEX
  8
0
 10
92.72821100
 20
216.97995098
  0
VERTEX
  8
0
 10
92.72000900
 20
212.97999898
  0
VERTEX
  8
0
 10
79.38683700
 20
213.00733698
  0
SEQEND
  0
POLYLINE
  8
Standard-Ebene
 66
   1
 39
0.000000
 70
    1
  0
VERTEX
  8
0
 10
-49.78507800
 20
134.32828998
  0
VERTEX
  8
0
 10
-45.81600600
 20
134.82442398
  0
VERTEX
  8
0
 10
-47.46978600
 20
148.05466398
  0
VERTEX
  8
0
 10
-51.43885800
 20
147.55852998
  0
VERTEX
  8
0
 10
-49.78507800
 20
134.32828998
  0
SEQEND
  0
POLYLINE
  8
Standard-Ebene
 66
   1
 39
0.000000
 70
    1
  0
VERTEX
  8
0
 10
8.97478400
 20
94.44837298
  0
VERTEX
  8
0
 10
49.62056700
 20
93.15803098
  0
VERTEX
  8
0
 10
49.74748600
 20
97.15597698
  0
VERTEX
  8
0
 10
9.10170200
 20
98.44631898
  0
VERTEX
  8
0
 10
8.97478400
 20
94.44837298
  0
SEQEND
  0
POLYLINE
  8
Standard-Ebene
 66
   1
 39
0.000000
 70
    0
  0
VERTEX
  8
0
 10
25.53637900
 20
72.85263098
  0
VERTEX
  8
0
 10
24.79465500
 20
72.80152898
  0
VERTEX
  8
0
 10
22.11840000
 20
72.70943698
  0
VERTEX
  8
0
 10
19.45439500
 20
72.70498398
  0
VERTEX
  8
0
 10
16.81089000
 20
72.78321098
  0
VERTEX
  8
0
 10
14.19617100
 20
72.93919098
  0
VERTEX
  8
0
 10
12.56094300
 20
73.13052698
  0
VERTEX
  8
0
 10
10.92571500
 20
73.32186198
  0
VERTEX
  8
0
 10
9.51288500
 20
73.48717498
 42
-0.03634159
  0
VERTEX
  8
0
 10
8.94254700
 20
73.59634798
  0
VERTEX
  8
0
 10
6.60386537
 20
74.22295051
 42
-0.08812730
  0
VERTEX
  8
0
 10
5.33653800
 20
74.81584298
  0
VERTEX
  8
0
 10
4.37582200
 20
75.49215398
  0
VERTEX
  8
0
 10
-7.27963900
 20
96.57176998
  0
VERTEX
  8
0
 10
-17.89405700
 20
90.70278498
  0
VERTEX
  8
0
 10
-24.68913700
 20
92.65903098
  0
VERTEX
  8
0
 10
-34.86009400
 20
111.05383198
 42
-0.41421356
  0
VERTEX
  8
0
 10
-34.33843400
 20
112.86583498
  0
VERTEX
  8
0
 10
-25.18251124
 20
117.92837972
 42
-0.41421356
  0
VERTEX
  8
0
 10
-23.37050827
 20
117.40671922
  0
VERTEX
  8
0
 10
-17.02819800
 20
105.93626298
  0
VERTEX
  8
0
 10
-13.52770300
 20
107.87177698
  0
VERTEX
  8
0
 10
-30.84435800
 20
139.19000898
 42
-0.15154973
  0
VERTEX
  8
0
 10
-31.00463900
 20
139.96369198
  0
VERTEX
  8
0
 10
-30.90759031
 20
140.96589526
 42
-0.20674511
  0
VERTEX
  8
0
 10
-30.39666386
 20
141.89170028
  0
VERTEX
  8
0
 10
-29.37849886
 20
142.67990028
 42
-0.14360522
  0
VERTEX
  8
0
 10
-28.67982671
 20
142.95371528
  0
VERTEX
  8
0
 10
-25.52062600
 20
143.23324298
  0
VERTEX
  8
0
 10
-21.54562100
 20
143.27177798
  0
VERTEX
  8
0
 10
-18.08284100
 20
142.85158398
  0
VERTEX
  8
0
 10
-15.31686400
 20
142.67370998
  0
VERTEX
  8
0
 10
-12.60299900
 20
142.33813398
  0
VERTEX
  8
0
 10
-9.93713300
 20
141.85340698
  0
VERTEX
  8
0
 10
-7.31499500
 20
141.22799498
  0
VERTEX
  8
0
 10
-4.73243800
 20
140.47044298
  0
VERTEX
  8
0
 10
-2.18522400
 20
139.58922098
  0
VERTEX
  8
0
 10
0.33082200
 20
138.59283998
  0
VERTEX
  8
0
 10
2.81991500
 20
137.48983698
  0
VERTEX
  8
0
 10
5.28622500
 20
136.28868998
  0
VERTEX
  8
0
 10
7.73396100
 20
134.99790398
  0
VERTEX
  8
0
 10
10.16733600
 20
133.62601998
  0
VERTEX
  8
0
 10
11.87085600
 20
132.41923598
  0
VERTEX
  8
0
 10
15.61686400
 20
129.74926298
  0
VERTEX
  8
0
 10
19.34969400
 20
126.96665998
  0
VERTEX
  8
0
 10
21.01367700
 20
125.42198398
  0
VERTEX
  8
0
 10
23.39128200
 20
123.68332398
  0
VERTEX
  8
0
 10
25.72870900
 20
121.73688498
  0
VERTEX
  8
0
 10
28.11880600
 20
119.75255198
  0
VERTEX
  8
0
 10
30.65435900
 20
117.90028398
  0
VERTEX
  8
0
 10
31.81613900
 20
117.12511498
  0
VERTEX
  8
0
 10
34.67707900
 20
116.05045498
  0
VERTEX
  8
0
 10
38.13189700
 20
115.11090398
  0
VERTEX
  8
0
 10
42.36487200
 20
115.11696198
  0
VERTEX
  8
0
 10
42.31861900
 20
115.51934898
  0
VERTEX
  8
0
 10
42.24175400
 20
115.65489598
  0
VERTEX
  8
0
 10
42.17800200
 20
115.77385598
  0
VERTEX
  8
0
 10
41.18597900
 20
117.26290898
  0
VERTEX
  8
0
 10
40.16588800
 20
118.89591798
  0
VERTEX
  8
0
 10
39.35577900
 20
120.37701698
  0
VERTEX
  8
0
 10
38.19021200
 20
123.79962798
  0
VERTEX
  8
0
 10
37.43023500
 20
126.51864598
 42
-0.14522637
  0
VERTEX
  8
0
 10
37.44228529
 20
127.27708567
  0
VERTEX
  8
0
 10
37.72558300
 20
130.17467698
 42
-0.06791663
  0
VERTEX
  8
0
 10
37.97542645
 20
131.22709320
  0
VERTEX
  8
0
 10
39.00071000
 20
133.88065298
  0
VERTEX
  8
0
 10
40.29388600
 20
136.13313098
 42
0.08057349
  0
VERTEX
  8
0
 10
40.74553600
 20
137.33170598
  0
VERTEX
  8
0
 10
41.13529400
 20
139.25871898
 42
0.04832649
  0
VERTEX
  8
0
 10
41.21460177
 20
140.02604627
  0
VERTEX
  8
0
 10
41.23080500
 20
142.55294598
  0
VERTEX
  8
0
 10
40.52321600
 20
145.34899398
  0
VERTEX
  8
0
 10
39.27600700
 20
148.21702898
  0
VERTEX
  8
0
 10
38.96810200
 20
149.05493598
  0
VERTEX
  8
0
 10
36.88263306
 20
153.18985642
 42
0.11964185
  0
VERTEX
  8
0
 10
36.63795230
 20
153.47725961
  0
VERTEX
  8
0
 10
34.42629600
 20
155.08091098
  0
VERTEX
  8
0
 10
32.82388346
 20
156.71571399
 42
-0.09067667
  0
VERTEX
  8
0
 10
32.01787800
 20
157.90777898
  0
VERTEX
  8
0
 10
31.67139400
 20
158.69702398
 42
-0.14328719
  0
VERTEX
  8
0
 10
31.38232000
 20
160.92479698
  0
VERTEX
  8
0
 10
31.55192600
 20
162.00601298
 42
-0.09139611
  0
VERTEX
  8
0
 10
32.03265863
 20
163.37422497
  0
VERTEX
  8
0
 10
32.58981000
 20
164.34692498
  0
VERTEX
  8
0
 10
34.50118100
 20
162.86027998
  0
VERTEX
  8
0
 10
37.08511500
 20
160.25403798
  0
VERTEX
  8
0
 10
38.50371600
 20
157.93433498
  0
VERTEX
  8
0
 10
40.80375800
 20
158.67574298
  0
VERTEX
  8
0
 10
39.18155600
 20
162.58684298
  0
VERTEX
  8
0
 10
37.84261800
 20
165.26421398
  0
VERTEX
  8
0
 10
36.24648000
 20
168.28226798
 42
-0.26812394
  0
VERTEX
  8
0
 10
36.29643557
 20
169.61540532
 42
-0.26812394
  0
VERTEX
  8
0
 10
37.47635004
 20
170.23794241
  0
VERTEX
  8
0
 10
38.65227800
 20
170.19272698
  0
VERTEX
  8
0
 10
41.55890800
 20
170.00120298
  0
VERTEX
  8
0
 10
44.51497600
 20
169.70484398
  0
VERTEX
  8
0
 10
47.44342200
 20
169.28343698
  0
VERTEX
  8
0
 10
49.17590721
 20
168.93576689
 42
-0.13653716
  0
VERTEX
  8
0
 10
51.08849869
 20
167.96557603
  0
VERTEX
  8
0
 10
52.70508600
 20
166.48699898
  0
VERTEX
  8
0
 10
54.93833900
 20
163.66470698
  0
VERTEX
  8
0
 10
57.26403400
 20
160.86167298
  0
VERTEX
  8
0
 10
58.77688900
 20
158.98706498
  0
VERTEX
  8
0
 10
60.84949100
 20
156.46563198
  0
VERTEX
  8
0
 10
62.47972600
 20
154.26367998
  0
VERTEX
  8
0
 10
64.25610300
 20
152.04490498
  0
VERTEX
  8
0
 10
65.98058200
 20
149.83216798
  0
VERTEX
  8
0
 10
67.14158100
 20
148.13643698
  0
VERTEX
  8
0
 10
67.89748200
 20
147.17594898
  0
VERTEX
  8
0
 10
69.26638700
 20
145.28674798
  0
VERTEX
  8
0
 10
70.20049200
 20
143.92202598
  0
VERTEX
  8
0
 10
71.99121800
 20
141.58100498
  0
VERTEX
  8
0
 10
73.79251100
 20
139.06662698
  0
VERTEX
  8
0
 10
75.55214100
 20
136.43209198
  0
VERTEX
  8
0
 10
77.21787500
 20
133.73060098
  0
VERTEX
  8
0
 10
78.73748300
 20
131.01535698
  0
VERTEX
  8
0
 10
79.77793800
 20
129.08187498
  0
VERTEX
  8
0
 10
81.09820800
 20
125.49189998
  0
VERTEX
  8
0
 10
81.79856900
 20
123.35014498
  0
VERTEX
  8
0
 10
82.37607400
 20
121.08995198
  0
VERTEX
  8
0
 10
82.81164700
 20
118.38781598
  0
VERTEX
  8
0
 10
82.35245800
 20
117.21984198
  0
VERTEX
  8
0
 10
69.12702200
 20
123.73942298
  0
VERTEX
  8
0
 10
67.35842600
 20
120.15170098
  0
VERTEX
  8
0
 10
81.69723900
 20
113.08327198
  0
VERTEX
  8
0
 10
80.82892900
 20
110.70510298
  0
VERTEX
  8
0
 10
78.58123900
 20
105.99400298
  0
VERTEX
  8
0
 10
77.34934600
 20
103.53957898
  0
VERTEX
  8
0
 10
76.00299800
 20
101.23135898
  0
VERTEX
  8
0
 10
74.34038600
 20
98.98270898
  0
VERTEX
  8
0
 10
72.86836100
 20
96.75685198
  0
VERTEX
  8
0
 10
71.18951200
 20
94.71233098
  0
VERTEX
  8
0
 10
69.38468800
 20
92.72334698
  0
VERTEX
  8
0
 10
67.46471700
 20
90.79830998
  0
VERTEX
  8
0
 10
65.44043800
 20
88.94572598
  0
VERTEX
  8
0
 10
63.32275700
 20
87.17409698
  0
VERTEX
  8
0
 10
61.12251100
 20
85.49189698
  0
VERTEX
  8
0
 10
58.85053200
 20
83.90756898
  0
VERTEX
  8
0
 10
56.51772900
 20
82.42964398
  0
VERTEX
  8
0
 10
54.13493500
 20
81.06656598
  0
VERTEX
  8
0
 10
51.71298600
 20
79.82680898
  0
VERTEX
  8
0
 10
49.26278400
 20
78.71883998
  0
VERTEX
  8
0
 10
46.79517300
 20
77.75119998
  0
VERTEX
  8
0
 10
45.91977900
 20
77.40133598
  0
VERTEX
  8
0
 10
44.24545200
 20
76.77655798
  0
VERTEX
  8
0
 10
43.17646600
 20
76.31402998
  0
VERTEX
  8
0
 10
40.64607100
 20
75.47044598
  0
VERTEX
  8
0
 10
38.07002500
 20
74.74901498
  0
VERTEX
  8
0
 10
35.45664600
 20
74.14480598
  0
VERTEX
  8
0
 10
32.81412200
 20
73.65290098
  0
VERTEX
  8
0
 10
30.15076900
 20
73.26833698
  0
VERTEX
  8
0
 10
27.47487300
 20
72.98618698
  0
VERTEX
  8
0
 10
25.87366500
 20
72.87586898
  0
VERTEX
  8
0
 10
25.87366500
 20
71.23022598
  0
SEQEND
  0
POLYLINE
  8
Standard-Ebene
 66
   1
 39
0.000000
 70
    0
  0
VERTEX
  8
0
 10
-11.52905400
 20
157.17682698
  0
VERTEX
  8
0
 10
-12.22613000
 20
157.08998298
  0
VERTEX
  8
0
 10
-14.97899900
 20
156.89653098
  0
VERTEX
  8
0
 10
-18.63939485
 20
156.89959138
 42
-0.05673763
  0
VERTEX
  8
0
 10
-19.53838200
 20
157.00269498
  0
VERTEX
  8
0
 10
-22.38839900
 20
157.66262798
  0
VERTEX
  8
0
 10
-25.15990797
 20
158.78269793
 42
-0.07631892
  0
VERTEX
  8
0
 10
-26.20341662
 20
159.40312738
  0
VERTEX
  8
0
 10
-27.79803100
 20
160.71588098
  0
VERTEX
  8
0
 10
-31.19934200
 20
163.21968798
  0
VERTEX
  8
0
 10
-33.00474000
 20
164.49668798
  0
VERTEX
  8
0
 10
-34.81150100
 20
166.19029298
  0
VERTEX
  8
0
 10
-36.55945300
 20
167.95683798
  0
VERTEX
  8
0
 10
-38.24124300
 20
169.79321498
  0
VERTEX
  8
0
 10
-39.84944200
 20
171.69630998
  0
VERTEX
  8
0
 10
-41.37667000
 20
173.66313598
  0
VERTEX
  8
0
 10
-42.81553000
 20
175.69056498
  0
VERTEX
  8
0
 10
-44.15863600
 20
177.77550198
  0
VERTEX
  8
0
 10
-45.39859600
 20
179.91492898
  0
VERTEX
  8
0
 10
-46.52801400
 20
182.10571798
  0
VERTEX
  8
0
 10
-47.53952800
 20
184.34483598
  0
VERTEX
  8
0
 10
-48.42567800
 20
186.62918298
  0
VERTEX
  8
0
 10
-49.17915400
 20
188.95567098
  0
VERTEX
  8
0
 10
-49.79248900
 20
191.32127198
  0
VERTEX
  8
0
 10
-50.25836000
 20
193.72286598
  0
VERTEX
  8
0
 10
-50.56931900
 20
196.15738398
  0
VERTEX
  8
0
 10
-50.71802600
 20
198.62174998
  0
VERTEX
  8
0
 10
-50.48049300
 20
201.20650798
  0
VERTEX
  8
0
 10
-50.04986200
 20
203.85096598
  0
VERTEX
  8
0
 10
-49.36867600
 20
206.22472398
  0
VERTEX
  8
0
 10
-47.78011600
 20
209.50239098
  0
VERTEX
  8
0
 10
-46.33919500
 20
212.89056098
  0
VERTEX
  8
0
 10
-44.70973800
 20
216.06393898
  0
VERTEX
  8
0
 10
-43.32567900
 20
217.99615698
 42
-0.06735249
  0
VERTEX
  8
0
 10
-42.58967705
 20
218.77661959
  0
VERTEX
  8
0
 10
-40.66460200
 20
220.33401198
 42
-0.05225909
  0
VERTEX
  8
0
 10
-39.96518882
 20
220.78804279
  0
VERTEX
  8
0
 10
-37.73417500
 20
221.92514198
 42
-0.06716945
  0
VERTEX
  8
0
 10
-36.72456000
 20
222.27912898
  0
VERTEX
  8
0
 10
-34.31214200
 20
222.90172198
  0
VERTEX
  8
0
 10
-31.80992800
 20
223.48435798
 42
-0.02976845
  0
VERTEX
  8
0
 10
-31.34085900
 20
223.56451598
  0
VERTEX
  8
0
 10
-28.83715500
 20
223.84036298
 42
-0.02739466
  0
VERTEX
  8
0
 10
-28.39983500
 20
223.86442198
  0
VERTEX
  8
0
 10
-25.51891400
 20
223.86494498
  0
VERTEX
  8
0
 10
-22.35874200
 20
223.65138898
  0
VERTEX
  8
0
 10
-19.22044900
 20
223.33505598
  0
VERTEX
  8
0
 10
-16.18570500
 20
223.02719798
  0
VERTEX
  8
0
 10
-13.60774300
 20
222.59265098
  0
VERTEX
  8
0
 10
-10.99211100
 20
222.10401498
  0
VERTEX
  8
0
 10
-8.34749600
 20
221.56871098
  0
VERTEX
  8
0
 10
-5.68236300
 20
220.99406498
  0
VERTEX
  8
0
 10
-3.00535500
 20
220.38747998
  0
VERTEX
  8
0
 10
-0.32502600
 20
219.75631998
  0
VERTEX
  8
0
 10
2.35007000
 20
219.10794998
  0
VERTEX
  8
0
 10
3.80611500
 20
218.82745498
  0
VERTEX
  8
0
 10
6.37911300
 20
218.25518698
  0
VERTEX
  8
0
 10
7.75176400
 20
217.94198898
  0
VERTEX
  8
0
 10
10.92228300
 20
217.26857798
  0
VERTEX
  8
0
 10
14.20978400
 20
216.59026198
  0
VERTEX
  8
0
 10
17.57248900
 20
215.96175798
  0
VERTEX
  8
0
 10
20.96864700
 20
215.43771798
  0
VERTEX
  8
0
 10
23.94142700
 20
214.89424898
  0
VERTEX
  8
0
 10
27.24446900
 20
214.47163198
  0
VERTEX
  8
0
 10
30.68635200
 20
214.20740498
  0
VERTEX
  8
0
 10
34.07565400
 20
214.13910298
  0
VERTEX
  8
0
 10
37.22095500
 20
214.30426398
  0
VERTEX
  8
0
 10
39.17301500
 20
214.20760198
  0
VERTEX
  8
0
 10
42.80154300
 20
214.33528798
  0
VERTEX
  8
0
 10
45.85573798
 20
214.51359102
 42
-0.07721963
  0
VERTEX
  8
0
 10
47.07828226
 20
214.39608730
  0
VERTEX
  8
0
 10
47.49830500
 20
214.28885898
 42
-0.09251369
  0
VERTEX
  8
0
 10
48.82960300
 20
213.67110398
  0
VERTEX
  8
0
 10
48.83915444
 20
213.66430027
 42
-0.07949731
  0
VERTEX
  8
0
 10
49.73983200
 20
212.77752898
  0
VERTEX
  8
0
 10
50.06008300
 20
212.34243798
 42
-0.07407507
  0
VERTEX
  8
0
 10
50.61131900
 20
211.30055298
  0
VERTEX
  8
0
 10
51.30047900
 20
209.34459498
  0
VERTEX
  8
0
 10
52.51328600
 20
206.79391098
  0
VERTEX
  8
0
 10
53.92468100
 20
204.28901998
  0
VERTEX
  8
0
 10
55.00564700
 20
202.86269198
  0
VERTEX
  8
0
 10
57.28693900
 20
200.14429198
  0
VERTEX
  8
0
 10
59.30391900
 20
198.21024198
 42
0.10149725
  0
VERTEX
  8
0
 10
60.66397600
 20
197.35355198
  0
VERTEX
  8
0
 10
62.04102200
 20
196.75289998
  0
VERTEX
  8
0
 10
64.81692700
 20
195.25763498
  0
VERTEX
  8
0
 10
67.77627300
 20
193.41727598
  0
VERTEX
  8
0
 10
69.82236300
 20
191.82844698
 42
0.18586517
  0
VERTEX
  8
0
 10
72.57459794
 20
190.99898000
  0
VERTEX
  8
0
 10
72.69652500
 20
191.00811898
  0
VERTEX
  8
0
 10
74.93006600
 20
191.37914098
  0
VERTEX
  8
0
 10
78.11583100
 20
191.97149798
  0
VERTEX
  8
0
 10
81.87784900
 20
192.70339898
  0
VERTEX
  8
0
 10
85.83999600
 20
193.49299298
  0
VERTEX
  8
0
 10
89.62625100
 20
194.25843498
  0
VERTEX
  8
0
 10
92.86057100
 20
194.91794298
  0
VERTEX
  8
0
 10
95.16689200
 20
195.38968798
  0
VERTEX
  8
0
 10
96.16915000
 20
195.59184598
  0
VERTEX
  8
0
 10
98.94762900
 20
196.11149798
  0
VERTEX
  8
0
 10
101.82720500
 20
196.61189598
  0
VERTEX
  8
0
 10
104.75515300
 20
197.13472698
  0
VERTEX
  8
0
 10
107.67874300
 20
197.72167998
  0
VERTEX
  8
0
 10
109.71970000
 20
198.21492698
 42
0.11921258
  0
VERTEX
  8
0
 10
111.39264000
 20
199.07407398
  0
VERTEX
  8
0
 10
112.17972300
 20
199.75297598
  0
VERTEX
  8
0
 10
114.46254300
 20
202.27575598
  0
VERTEX
  8
0
 10
116.86071100
 20
205.20236798
  0
VERTEX
  8
0
 10
118.76640100
 20
207.75915098
  0
VERTEX
  8
0
 10
119.57178600
 20
209.17243998
  0
VERTEX
  8
0
 10
120.40979700
 20
210.34184598
  0
VERTEX
  8
0
 10
121.25827500
 20
211.62767098
  0
VERTEX
  8
0
 10
122.20424500
 20
212.76723198
  0
VERTEX
  8
0
 10
123.33683300
 20
214.57616098
  0
VERTEX
  8
0
 10
124.59264000
 20
216.15269698
  0
VERTEX
  8
0
 10
126.50131200
 20
217.08699198
  0
VERTEX
  8
0
 10
134.22266100
 20
197.30551998
  0
VERTEX
  8
0
 10
132.31385300
 20
196.55563298
  0
VERTEX
  8
0
 10
129.92978000
 20
196.26099098
  0
VERTEX
  8
0
 10
127.92364900
 20
195.88195598
  0
VERTEX
  8
0
 10
127.02469600
 20
195.52493198
 42
0.13120672
  0
VERTEX
  8
0
 10
125.36810226
 20
194.29416148
  0
VERTEX
  8
0
 10
125.55146300
 20
194.52517698
 42
0.10565294
  0
VERTEX
  8
0
 10
124.80872500
 20
193.02746198
  0
VERTEX
  8
0
 10
124.69438800
 20
192.57940098
 42
0.04722330
  0
VERTEX
  8
0
 10
124.57765195
 20
191.83460993
  0
VERTEX
  8
0
 10
124.48725400
 20
190.35682798
  0
VERTEX
  8
0
 10
124.40731000
 20
188.74022098
 42
-0.03698816
  0
VERTEX
  8
0
 10
124.33459300
 20
188.15371498
  0
VERTEX
  8
0
 10
124.16247630
 20
187.29268650
 42
-0.08381803
  0
VERTEX
  8
0
 10
123.68769055
 20
186.04847815
  0
VERTEX
  8
0
 10
123.58790955
 20
185.87887415
 42
-0.11558526
  0
VERTEX
  8
0
 10
122.32809425
 20
184.55851069
  0
VERTEX
  8
0
 10
122.38541525
 20
184.59596069
 42
-0.14656688
  0
VERTEX
  8
0
 10
120.18400900
 20
183.94466298
  0
VERTEX
  8
0
 10
118.26638300
 20
183.95120498
  0
VERTEX
  8
0
 10
115.16907200
 20
184.66801398
  0
VERTEX
  8
0
 10
112.12857800
 20
185.48152398
  0
VERTEX
  8
0
 10
109.25539200
 20
185.78207098
  0
VERTEX
  8
0
 10
106.16950200
 20
185.91305598
  0
VERTEX
  8
0
 10
102.93111100
 20
185.63776498
  0
VERTEX
  8
0
 10
99.68182700
 20
185.08102298
  0
VERTEX
  8
0
 10
96.56325800
 20
184.36765798
  0
VERTEX
  8
0
 10
93.71701300
 20
183.62249798
  0
VERTEX
  8
0
 10
91.07346400
 20
183.06073198
  0
VERTEX
  8
0
 10
88.37557500
 20
182.32766298
  0
VERTEX
  8
0
 10
85.65129300
 20
181.44460798
  0
VERTEX
  8
0
 10
82.92841600
 20
180.43289798
  0
VERTEX
  8
0
 10
80.23488000
 20
179.31388398
  0
VERTEX
  8
0
 10
77.59849400
 20
178.10886398
  0
VERTEX
  8
0
 10
75.04722500
 20
176.83919998
  0
VERTEX
  8
0
 10
72.60885200
 20
175.52618098
  0
VERTEX
  8
0
 10
70.73923721
 20
174.43980864
 42
-0.06163115
  0
VERTEX
  8
0
 10
69.83568400
 20
174.05429898
  0
VERTEX
  8
0
 10
68.23151700
 20
173.59272098
 42
-0.06183295
  0
VERTEX
  8
0
 10
67.25803703
 20
173.43895579
  0
VERTEX
  8
0
 10
64.86025900
 20
173.35943698
  0
VERTEX
  8
0
 10
61.84643900
 20
173.80398298
  0
VERTEX
  8
0
 10
58.93025100
 20
174.68980798
  0
VERTEX
  8
0
 10
56.32904700
 20
175.91775798
  0
VERTEX
  8
0
 10
54.26017900
 20
177.38850098
  0
VERTEX
  8
0
 10
51.82883100
 20
180.01070098
  0
VERTEX
  8
0
 10
49.75753300
 20
181.87583098
  0
VERTEX
  8
0
 10
47.76221500
 20
183.08705098
  0
VERTEX
  8
0
 10
45.55882200
 20
183.74749098
  0
VERTEX
  8
0
 10
42.86329600
 20
183.96028098
  0
VERTEX
  8
0
 10
39.39156800
 20
183.82858098
  0
VERTEX
  8
0
 10
37.98224600
 20
183.74108098
  0
VERTEX
  8
0
 10
37.56115093
 20
183.65194707
 42
0.08745175
  0
VERTEX
  8
0
 10
36.27319062
 20
183.13295523
  0
VERTEX
  8
0
 10
36.50486000
 20
183.27739798
 42
0.09327765
  0
VERTEX
  8
0
 10
35.41578300
 20
182.27590298
  0
VERTEX
  8
0
 10
34.21682100
 20
180.66976698
  0
VERTEX
  8
0
 10
32.58693500
 20
178.45194398
  0
VERTEX
  8
0
 10
30.96671700
 20
176.22989998
  0
VERTEX
  8
0
 10
30.41569200
 20
175.70234698
  0
VERTEX
  8
0
 10
29.75151900
 20
174.84974398
  0
VERTEX
  8
0
 10
28.99298600
 20
174.08443298
  0
VERTEX
  8
0
 10
26.76462600
 20
172.04786198
  0
VERTEX
  8
0
 10
24.44997600
 20
170.17822498
  0
VERTEX
  8
0
 10
22.05550500
 20
168.46225198
  0
VERTEX
  8
0
 10
19.58765500
 20
166.88673298
  0
VERTEX
  8
0
 10
17.05287600
 20
165.43835398
  0
VERTEX
  8
0
 10
14.45762200
 20
164.10387298
  0
VERTEX
  8
0
 10
11.80840100
 20
162.87010798
  0
VERTEX
  8
0
 10
10.65121600
 20
162.45588898
  0
VERTEX
  8
0
 10
9.53189300
 20
162.11052198
  0
VERTEX
  8
0
 10
8.83145216
 20
161.89011857
 42
-0.02758039
  0
VERTEX
  8
0
 10
8.41747623
 20
161.73827120
  0
VERTEX
  8
0
 10
5.87584800
 20
160.96201898
  0
VERTEX
  8
0
 10
3.23871400
 20
160.22191698
  0
VERTEX
  8
0
 10
0.65418300
 20
159.47035898
  0
VERTEX
  8
0
 10
-1.66994900
 20
158.95853398
  0
VERTEX
  8
0
 10
-4.10040200
 20
158.41338698
  0
VERTEX
  8
0
 10
-6.71668200
 20
157.89151198
  0
VERTEX
  8
0
 10
-9.44864100
 20
157.43601098
  0
VERTEX
  8
0
 10
-10.86025700
 20
157.26014798
  0
VERTEX
  8
0
 10
-10.86025700
 20
150.98620098
  0
SEQEND
  0
POLYLINE
  8
Standard-Ebene
 66
   1
 39
0.000000
 70
    0
  0
VERTEX
  8
0
 10
-46.64700900
 20
122.12098298
  0
VERTEX
  8
0
 10
-46.64700900
 20
125.31467598
  0
VERTEX
  8
0
 10
-53.25801600
 20
124.48829998
 42
-0.41421356
  0
VERTEX
  8
0
 10
-57.72322200
 20
127.96123798
  0
VERTEX
  8
0
 10
-60.70002600
 20
151.77566898
 42
-0.41421356
  0
VERTEX
  8
0
 10
-57.22708800
 20
156.24087398
  0
VERTEX
  8
0
 10
-43.99684900
 20
157.89465398
 42
-0.41421356
  0
VERTEX
  8
0
 10
-39.53164300
 20
154.42171598
  0
VERTEX
  8
0
 10
-36.55483918
 20
130.60728594
 42
-0.41421356
  0
VERTEX
  8
0
 10
-40.02777700
 20
126.14207998
  0
VERTEX
  8
0
 10
-45.91292600
 20
125.40643598
  0
SEQEND
  0
POLYLINE
  8
Standard-Ebene
 66
   1
 39
0.000000
 70
    0
  0
VERTEX
  8
0
 10
124.43588700
 20
57.93778798
  0
VERTEX
  8
0
 10
125.72608300
 20
57.93778798
  0
VERTEX
  8
0
 10
125.30088700
 20
56.53739798
  0
VERTEX
  8
0
 10
124.74015200
 20
53.71652198
  0
VERTEX
  8
0
 10
124.55077700
 20
50.72172498
  0
VERTEX
  8
0
 10
124.67159400
 20
47.65521998
  0
VERTEX
  8
0
 10
125.04123000
 20
44.61927698
  0
VERTEX
  8
0
 10
125.59844900
 20
41.71614598
  0
VERTEX
  8
0
 10
126.28198500
 20
39.04800598
  0
VERTEX
  8
0
 10
127.67435300
 20
35.88656198
  0
VERTEX
  8
0
 10
128.88145992
 20
34.20316253
 42
0.08292877
  0
VERTEX
  8
0
 10
129.81529214
 20
33.27337065
  0
VERTEX
  8
0
 10
130.79057014
 20
32.58041665
 42
0.10702252
  0
VERTEX
  8
0
 10
132.34688800
 20
31.91411198
  0
VERTEX
  8
0
 10
135.19388900
 20
31.36278398
  0
VERTEX
  8
0
 10
135.07490400
 20
51.78318298
  0
VERTEX
  8
0
 10
139.07479600
 20
51.80648898
  0
VERTEX
  8
0
 10
139.19223400
 20
31.65165098
  0
VERTEX
  8
0
 10
141.46928400
 20
32.14856198
  0
VERTEX
  8
0
 10
142.56808950
 20
32.65360639
 42
0.07997577
  0
VERTEX
  8
0
 10
143.62428771
 20
33.36147217
  0
VERTEX
  8
0
 10
144.45456500
 20
34.13504498
  0
VERTEX
  8
0
 10
145.30282500
 20
35.23853898
 42
0.08884360
  0
VERTEX
  8
0
 10
145.95177000
 20
36.49072198
  0
VERTEX
  8
0
 10
146.31608900
 20
37.66463998
  0
VERTEX
  8
0
 10
147.02619100
 20
40.40461298
  0
VERTEX
  8
0
 10
147.36717100
 20
43.53422198
  0
VERTEX
  8
0
 10
147.42523300
 20
46.81702898
  0
VERTEX
  8
0
 10
147.28658000
 20
50.01659598
  0
VERTEX
  8
0
 10
147.03741600
 20
52.89648698
  0
VERTEX
  8
0
 10
146.85726700
 20
53.88259798
  0
VERTEX
  8
0
 10
146.85113100
 20
55.32762998
  0
VERTEX
  8
0
 10
146.75333200
 20
56.42901098
  0
VERTEX
  8
0
 10
146.60264400
 20
58.52135198
  0
VERTEX
  8
0
 10
146.45195600
 20
60.61369298
  0
VERTEX
  8
0
 10
146.32844100
 20
62.72579698
  0
VERTEX
  8
0
 10
146.23785000
 20
65.48636298
  0
VERTEX
  8
0
 10
146.20014400
 20
68.55261298
  0
VERTEX
  8
0
 10
146.02394200
 20
71.63380398
  0
VERTEX
  8
0
 10
145.51786700
 20
74.43919198
  0
VERTEX
  8
0
 10
145.19111624
 20
75.15127500
 42
0.20145743
  0
VERTEX
  8
0
 10
142.90993539
 20
77.24678508
  0
VERTEX
  8
0
 10
142.88529939
 20
77.25565008
 42
0.10272300
  0
VERTEX
  8
0
 10
141.27497700
 20
77.48369598
  0
VERTEX
  8
0
 10
140.64172900
 20
77.44308298
 42
0.09108389
  0
VERTEX
  8
0
 10
139.23980500
 20
77.09150498
  0
VERTEX
  8
0
 10
138.34972100
 20
76.68611198
 42
0.06187746
  0
VERTEX
  8
0
 10
137.50942100
 20
76.16978798
  0
VERTEX
  8
0
 10
136.29561000
 20
75.19906798
 42
0.03705400
  0
VERTEX
  8
0
 10
135.86187200
 20
74.79609198
  0
VERTEX
  8
0
 10
134.40034300
 20
73.22117198
  0
VERTEX
  8
0
 10
132.90013400
 20
71.32715398
  0
VERTEX
  8
0
 10
131.55606800
 20
69.55616598
  0
VERTEX
  8
0
 10
131.21874900
 20
69.02770798
  0
VERTEX
  8
0
 10
130.88470100
 20
68.52011698
  0
VERTEX
  8
0
 10
130.53830600
 20
67.98505798
  0
VERTEX
  8
0
 10
128.75512000
 20
65.24484998
  0
VERTEX
  8
0
 10
127.26232500
 20
62.14345698
  0
VERTEX
  8
0
 10
126.11448500
 20
59.21699898
  0
VERTEX
  8
0
 10
125.78830900
 20
58.14273098
  0
SEQEND
  0
POLYLINE
  8
Standard-Ebene
 66
   1
 39
0.000000
 70
    0
  0
VERTEX
  8
0
 10
21.91344900
 20
53.58322498
  0
VERTEX
  8
0
 10
24.39227900
 20
52.70003998
  0
VERTEX
  8
0
 10
24.79495000
 20
53.41316598
  0
VERTEX
  8
0
 10
26.12518900
 20
55.45845198
  0
VERTEX
  8
0
 10
27.60953300
 20
57.43267098
  0
VERTEX
  8
0
 10
29.26991300
 20
59.34111398
  0
VERTEX
  8
0
 10
31.12822700
 20
61.18897898
  0
VERTEX
  8
0
 10
33.20637700
 20
62.98156998
  0
VERTEX
  8
0
 10
35.52625200
 20
64.72415898
  0
VERTEX
  8
0
 10
37.60366000
 20
65.96128998
  0
VERTEX
  8
0
 10
40.00386800
 20
67.29497398
  0
VERTEX
  8
0
 10
42.61442000
 20
68.52524698
  0
VERTEX
  8
0
 10
45.32290800
 20
69.45216898
  0
VERTEX
  8
0
 10
47.49122560
 20
69.79309954
 42
-0.06622131
  0
VERTEX
  8
0
 10
48.54583355
 20
69.81810508
  0
VERTEX
  8
0
 10
49.19356655
 20
69.74752108
 42
-0.16977607
  0
VERTEX
  8
0
 10
51.57684400
 20
68.61125498
  0
VERTEX
  8
0
 10
51.62541700
 20
68.56308498
 42
-0.20103282
  0
VERTEX
  8
0
 10
52.80875100
 20
65.70696798
  0
VERTEX
  8
0
 10
52.80891200
 20
65.74716198
 42
-0.08935114
  0
VERTEX
  8
0
 10
52.55190100
 20
64.35236198
  0
VERTEX
  8
0
 10
51.68106200
 20
62.04192598
 42
-0.03865251
  0
VERTEX
  8
0
 10
51.41931700
 20
61.48263198
  0
VERTEX
  8
0
 10
50.17239300
 20
59.27926598
  0
VERTEX
  8
0
 10
48.74027700
 20
56.89152898
  0
VERTEX
  8
0
 10
47.34541800
 20
54.54441998
  0
VERTEX
  8
0
 10
46.05768700
 20
52.19348098
  0
VERTEX
  8
0
 10
44.94701100
 20
49.79419598
  0
VERTEX
  8
0
 10
44.08323800
 20
47.30204498
  0
VERTEX
  8
0
 10
43.53630500
 20
44.67254298
  0
VERTEX
  8
0
 10
43.37607500
 20
41.86119998
  0
VERTEX
  8
0
 10
42.97916300
 20
38.13743298
  0
VERTEX
  8
0
 10
42.82332900
 20
34.35453498
  0
VERTEX
  8
0
 10
42.31138800
 20
30.77000698
  0
VERTEX
  8
0
 10
41.86152200
 20
27.83371098
  0
VERTEX
  8
0
 10
41.20316100
 20
25.10062098
  0
VERTEX
  8
0
 10
40.31321900
 20
22.60280198
  0
VERTEX
  8
0
 10
39.16864200
 20
20.37230898
  0
VERTEX
  8
0
 10
37.74635500
 20
18.44123998
  0
VERTEX
  8
0
 10
36.02330400
 20
16.84164798
  0
VERTEX
  8
0
 10
33.97643400
 20
15.60558798
  0
VERTEX
  8
0
 10
31.58265900
 20
14.76512698
  0
VERTEX
  8
0
 10
29.54509200
 20
14.46081598
 42
-0.09102079
  0
VERTEX
  8
0
 10
28.10154000
 20
14.50888598
  0
VERTEX
  8
0
 10
24.43212900
 20
15.30953598
  0
VERTEX
  8
0
 10
31.37658600
 20
32.02911298
  0
VERTEX
  8
0
 10
27.68095000
 20
33.55945698
  0
VERTEX
  8
0
 10
20.82044500
 20
16.99199198
  0
VERTEX
  8
0
 10
18.83020660
 20
18.65452142
 42
-0.05452570
  0
VERTEX
  8
0
 10
18.22724304
 20
19.28143112
  0
VERTEX
  8
0
 10
17.04796900
 20
20.81039998
  0
VERTEX
  8
0
 10
16.18189500
 20
22.78787698
  0
VERTEX
  8
0
 10
15.80312500
 20
24.86506398
  0
VERTEX
  8
0
 10
15.81854800
 20
27.03963598
  0
VERTEX
  8
0
 10
16.13501500
 20
29.30917098
  0
VERTEX
  8
0
 10
16.65938100
 20
31.67135598
  0
VERTEX
  8
0
 10
17.29852900
 20
34.12375898
  0
VERTEX
  8
0
 10
17.95936000
 20
36.66408598
  0
VERTEX
  8
0
 10
18.82390000
 20
39.35424398
  0
VERTEX
  8
0
 10
19.68926800
 20
41.93648198
  0
VERTEX
  8
0
 10
20.57735400
 20
44.41607398
  0
VERTEX
  8
0
 10
21.51003300
 20
46.79825998
  0
VERTEX
  8
0
 10
22.50928400
 20
49.08835198
  0
VERTEX
  8
0
 10
23.59697000
 20
51.29155898
  0
VERTEX
  8
0
 10
24.17407100
 20
52.31359598
  0
SEQEND
  0
POLYLINE
  8
Standard-Ebene
 66
   1
 39
0.000000
 70
    0
  0
VERTEX
  8
0
 10
85.08550000
 20
165.08916298
  0
VERTEX
  8
0
 10
88.87589900
 20
163.19823298
  0
VERTEX
  8
0
 10
88.33650300
 20
162.07675398
  0
VERTEX
  8
0
 10
87.40859400
 20
159.40325998
  0
VERTEX
  8
0
 10
86.87307200
 20
156.93259898
  0
VERTEX
  8
0
 10
86.58674176
 20
154.78264321
 42
0.05981035
  0
VERTEX
  8
0
 10
86.54108095
 20
154.14858858
  0
VERTEX
  8
0
 10
86.63845100
 20
152.10403998
  0
VERTEX
  8
0
 10
86.70731200
 20
149.98965698
 42
0.09270635
  0
VERTEX
  8
0
 10
86.91882100
 20
149.03231098
  0
VERTEX
  8
0
 10
87.14107600
 20
148.51001798
  0
VERTEX
  8
0
 10
87.08978971
 20
148.61846770
 42
0.15361459
  0
VERTEX
  8
0
 10
88.17692313
 20
147.44348241
  0
VERTEX
  8
0
 10
88.96074756
 20
146.99535120
 42
0.16552293
  0
VERTEX
  8
0
 10
89.80431251
 20
146.83198185
  0
VERTEX
  8
0
 10
90.22618851
 20
146.89004685
 42
0.16624524
  0
VERTEX
  8
0
 10
90.99688154
 20
147.27790491
  0
VERTEX
  8
0
 10
92.48997200
 20
148.80216698
  0
VERTEX
  8
0
 10
94.08824400
 20
150.40098898
  0
VERTEX
  8
0
 10
95.85980000
 20
151.70130298
  0
VERTEX
  8
0
 10
97.28283067
 20
152.64834271
 42
0.10671972
  0
VERTEX
  8
0
 10
98.06711669
 20
153.45560758
  0
VERTEX
  8
0
 10
98.92676600
 20
154.83188098
 42
0.07063079
  0
VERTEX
  8
0
 10
99.23059257
 20
155.51719983
  0
VERTEX
  8
0
 10
99.78754200
 20
157.48159398
  0
VERTEX
  8
0
 10
99.93360400
 20
159.15318898
  0
VERTEX
  8
0
 10
103.36446400
 20
158.13660698
  0
VERTEX
  8
0
 10
106.09052600
 20
157.62724198
  0
VERTEX
  8
0
 10
108.88522500
 20
157.48971698
  0
VERTEX
  8
0
 10
109.54274400
 20
157.53747598
  0
VERTEX
  8
0
 10
110.20199100
 20
157.53943698
  0
VERTEX
  8
0
 10
112.97836200
 20
157.88732298
  0
VERTEX
  8
0
 10
115.65825000
 20
158.60081298
  0
VERTEX
  8
0
 10
119.00267900
 20
159.87322498
  0
VERTEX
  8
0
 10
119.27438200
 20
158.21740398
  0
VERTEX
  8
0
 10
119.97788234
 20
156.30060330
 42
0.07063080
  0
VERTEX
  8
0
 10
120.33252475
 20
155.64014838
  0
VERTEX
  8
0
 10
121.29351200
 20
154.33262098
 42
0.10671972
  0
VERTEX
  8
0
 10
122.13644200
 20
153.58679898
  0
VERTEX
  8
0
 10
123.62683800
 20
152.74976798
  0
VERTEX
  8
0
 10
125.49140800
 20
151.58675198
  0
VERTEX
  8
0
 10
127.20569700
 20
150.11300998
  0
VERTEX
  8
0
 10
128.80948303
 20
148.70568335
 42
0.16624524
  0
VERTEX
  8
0
 10
129.60723038
 20
148.37704858
  0
VERTEX
  8
0
 10
130.03228400
 20
148.35096398
 42
0.16552293
  0
VERTEX
  8
0
 10
130.86112700
 20
148.57748298
  0
VERTEX
  8
0
 10
131.60892500
 20
149.08344698
 42
0.15361459
  0
VERTEX
  8
0
 10
132.60435600
 20
150.33706798
  0
VERTEX
  8
0
 10
132.56139400
 20
150.22505898
  0
VERTEX
  8
0
 10
132.74362900
 20
150.76262598
 42
0.09270635
  0
VERTEX
  8
0
 10
132.88234200
 20
151.73319598
  0
VERTEX
  8
0
 10
132.79155800
 20
153.84675098
  0
VERTEX
  8
0
 10
132.73447000
 20
155.89282098
 42
0.05981034
  0
VERTEX
  8
0
 10
132.64112400
 20
156.52162698
  0
VERTEX
  8
0
 10
132.18347200
 20
158.72929198
  0
VERTEX
  8
0
 10
131.47316600
 20
161.06710998
  0
VERTEX
  8
0
 10
130.34628800
 20
163.66301598
  0
VERTEX
  8
0
 10
128.85101700
 20
166.25176098
  0
VERTEX
  8
0
 10
127.14371600
 20
168.70597798
  0
VERTEX
  8
0
 10
125.38076400
 20
170.89834498
  0
VERTEX
  8
0
 10
123.71848400
 20
172.70158798
  0
VERTEX
  8
0
 10
122.74616000
 20
173.56077398
  0
VERTEX
  8
0
 10
121.44324500
 20
174.64014198
  0
VERTEX
  8
0
 10
119.52921700
 20
175.74987698
  0
VERTEX
  8
0
 10
119.85470000
 20
167.12992698
  0
VERTEX
  8
0
 10
109.16541500
 20
167.53046698
  0
VERTEX
  8
0
 10
98.53677200
 20
166.32497598
  0
VERTEX
  8
0
 10
98.21128800
 20
174.94492598
  0
VERTEX
  8
0
 10
96.38639700
 20
173.69401098
  0
VERTEX
  8
0
 10
95.16858800
 20
172.51946298
  0
VERTEX
  8
0
 10
94.26382500
 20
171.58939898
  0
VERTEX
  8
0
 10
92.74226200
 20
169.66593598
  0
VERTEX
  8
0
 10
91.14966000
 20
167.34686598
  0
VERTEX
  8
0
 10
89.63229600
 20
164.77088698
  0
VERTEX
  8
0
 10
89.11833700
 20
163.70229598
  0
SEQEND
  0
POLYLINE
  8
Standard-Ebene
 66
   1
 39
0.000000
 70
    1
  0
VERTEX
  8
0
 10
9.34691600
 20
147.70304198
  0
VERTEX
  8
0
 10
11.35104100
 20
151.16471298
  0
VERTEX
  8
0
 10
22.88994300
 20
144.48429598
  0
VERTEX
  8
0
 10
20.88581800
 20
141.02262498
  0
VERTEX
  8
0
 10
9.34691600
 20
147.70304198
  0
SEQEND
  0
POLYLINE
  8
Standard-Ebene
 66
   1
 39
0.000000
 70
    0
  0
VERTEX
  8
0
 10
30.26698500
 20
138.59858698
  0
VERTEX
  8
0
 10
26.62490252
 20
132.30771793
 42
-0.41421356
  0
VERTEX
  8
0
 10
21.15910700
 20
130.85017198
  0
VERTEX
  8
0
 10
3.85078895
 20
140.87077746
 42
-0.41421356
  0
VERTEX
  8
0
 10
2.39324348
 20
146.33657303
  0
VERTEX
  8
0
 10
9.07366048
 20
157.87547503
 42
-0.41421356
  0
VERTEX
  8
0
 10
14.53945600
 20
159.33301998
  0
VERTEX
  8
0
 10
31.84777400
 20
149.31241498
 42
-0.41421356
  0
VERTEX
  8
0
 10
33.30531952
 20
143.84661993
  0
VERTEX
  8
0
 10
30.48203500
 20
138.97003598
  0
VERTEX
  8
0
 10
32.77800600
 20
137.64078898
  0
SEQEND
  0
POLYLINE
  8
Standard-Ebene
 66
   1
 39
0.000000
 70
    0
  0
VERTEX
  8
0
 10
-95.38141700
 20
27.35873798
  0
VERTEX
  8
0
 10
-95.01659900
 20
27.44118498
  0
VERTEX
  8
0
 10
-79.53075500
 20
28.06156998
  0
VERTEX
  8
0
 10
-79.45525800
 20
39.38623098
 42
-0.41748300
  0
VERTEX
  8
0
 10
-76.40187900
 20
42.36575598
  0
VERTEX
  8
0
 10
-71.43596600
 20
42.27727298
  0
VERTEX
  8
0
 10
-71.50263600
 20
30.27687298
  0
VERTEX
  8
0
 10
-67.50306200
 20
30.20560898
  0
VERTEX
  8
0
 10
-67.43639300
 20
42.20600798
  0
VERTEX
  8
0
 10
-62.33471900
 20
42.11510598
 42
-0.40575999
  0
VERTEX
  8
0
 10
-59.38834988
 20
39.14897763
  0
VERTEX
  8
0
 10
-59.22032100
 20
24.05549898
 42
-0.41421356
  0
VERTEX
  8
0
 10
-62.18674000
 20
21.02228898
  0
VERTEX
  8
0
 10
-69.85613500
 20
20.93690898
  0
VERTEX
  8
0
 10
-69.54874188
 20
-6.67513637
 42
-0.20276260
  0
VERTEX
  8
0
 10
-70.43503876
 20
-8.83762686
 42
-0.20276260
  0
VERTEX
  8
0
 10
-72.60397929
 20
-9.70802002
  0
VERTEX
  8
0
 10
-77.79859300
 20
-9.61203602
 42
-0.41095167
  0
VERTEX
  8
0
 10
-79.27183700
 20
-8.10227402
  0
VERTEX
  8
0
 10
-79.25464300
 20
-5.52320702
  0
VERTEX
  8
0
 10
-91.75491900
 20
-5.52290802
  0
VERTEX
  8
0
 10
-91.65166800
 20
9.96469298
  0
VERTEX
  8
0
 10
-95.65153900
 20
9.99135898
  0
VERTEX
  8
0
 10
-95.71978800
 20
-0.24602502
  0
VERTEX
  8
0
 10
-96.25558100
 20
-5.53961702
  0
VERTEX
  8
0
 10
-97.88904700
 20
-5.54568102
 42
-0.13423590
  0
VERTEX
  8
0
 10
-99.92614900
 20
-4.99686002
  0
VERTEX
  8
0
 10
-99.71010200
 20
-5.12345802
 42
-0.15782297
  0
VERTEX
  8
0
 10
-101.34887700
 20
-3.28372902
  0
VERTEX
  8
0
 10
-101.26363170
 20
-3.47740532
 42
-0.09048632
  0
VERTEX
  8
0
 10
-101.59680533
 20
-2.08058138
  0
VERTEX
  8
0
 10
-101.83622400
 20
19.42558798
  0
VERTEX
  8
0
 10
-101.50799900
 20
21.83039498
 42
-0.05358015
  0
VERTEX
  8
0
 10
-101.30255886
 20
22.66016045
  0
VERTEX
  8
0
 10
-100.95499086
 20
23.61302445
 42
-0.11550247
  0
VERTEX
  8
0
 10
-99.95594485
 20
25.13872350
  0
VERTEX
  8
0
 10
-99.26533300
 20
25.79651198
  0
VERTEX
  8
0
 10
-98.37160715
 20
26.40139343
 42
-0.09345341
  0
VERTEX
  8
0
 10
-97.01135407
 20
26.99038143
  0
VERTEX
  8
0
 10
-96.15890200
 20
27.18303098
  0
VERTEX
  8
0
 10
-97.13632900
 20
32.56232598
  0
SEQEND
  0
POLYLINE
  8
Standard-Ebene
 66
   1
 39
0.000000
 70
    0
  0
VERTEX
  8
0
 10
-55.61270600
 20
27.48980098
  0
VERTEX
  8
0
 10
-55.70821900
 20
26.36678798
  0
VERTEX
  8
0
 10
-55.78144900
 20
25.24131298
  0
VERTEX
  8
0
 10
-55.83089700
 20
24.04560898
  0
VERTEX
  8
0
 10
-55.84917900
 20
22.90455198
  0
VERTEX
  8
0
 10
-55.86471100
 20
21.61983598
  0
VERTEX
  8
0
 10
-55.83654300
 20
20.26141198
  0
VERTEX
  8
0
 10
-55.72372400
 20
18.89923698
  0
VERTEX
  8
0
 10
-55.48530600
 20
17.60326198
  0
VERTEX
  8
0
 10
-55.08033900
 20
16.44344198
  0
VERTEX
  8
0
 10
-54.68587411
 20
15.82919605
 42
0.08346484
  0
VERTEX
  8
0
 10
-54.15085900
 20
15.24020098
  0
VERTEX
  8
0
 10
-53.97566476
 20
15.10230018
 42
0.09683969
  0
VERTEX
  8
0
 10
-53.15609336
 20
14.68209720
  0
VERTEX
  8
0
 10
-52.84962400
 20
14.59374298
 42
0.08459684
  0
VERTEX
  8
0
 10
-52.04831600
 20
14.50370398
  0
VERTEX
  8
0
 10
-50.97597800
 20
14.56478298
  0
VERTEX
  8
0
 10
-50.70615800
 20
14.65442098
  0
VERTEX
  8
0
 10
-50.75098200
 20
14.63288998
 42
0.07128029
  0
VERTEX
  8
0
 10
-50.18529800
 20
15.01173598
  0
VERTEX
  8
0
 10
-49.26181800
 20
15.84222298
 42
0.06998685
  0
VERTEX
  8
0
 10
-48.83180400
 20
16.35418398
  0
VERTEX
  8
0
 10
-47.75011100
 20
18.08382698
 42
-0.03622657
  0
VERTEX
  8
0
 10
-47.54512800
 20
18.36420198
  0
VERTEX
  8
0
 10
-46.50661100
 20
19.58790798
  0
VERTEX
  8
0
 10
-45.39677000
 20
20.88283098
  0
VERTEX
  8
0
 10
-43.51423700
 20
23.05242998
  0
VERTEX
  8
0
 10
-42.40875800
 20
24.18557598
  0
VERTEX
  8
0
 10
-42.13354400
 20
24.47368998
  0
VERTEX
  8
0
 10
-41.85931400
 20
24.75288798
  0
VERTEX
  8
0
 10
-41.58557600
 20
25.02763698
  0
VERTEX
  8
0
 10
-40.09854900
 20
26.33425898
  0
VERTEX
  8
0
 10
-38.59222900
 20
27.55112998
  0
VERTEX
  8
0
 10
-37.06930100
 20
28.69801698
  0
VERTEX
  8
0
 10
-35.53244800
 20
29.79468798
  0
VERTEX
  8
0
 10
-33.98435600
 20
30.86091098
  0
VERTEX
  8
0
 10
-33.53827500
 20
31.24732298
  0
VERTEX
  8
0
 10
-33.07679400
 20
31.52839098
  0
VERTEX
  8
0
 10
-32.86060500
 20
31.66977198
  0
VERTEX
  8
0
 10
-31.67450000
 20
32.44470798
  0
VERTEX
  8
0
 10
-29.92318700
 20
33.64396798
  0
VERTEX
  8
0
 10
-29.02195600
 20
34.28811198
  0
VERTEX
  8
0
 10
-27.76763600
 20
35.26342798
  0
VERTEX
  8
0
 10
-26.70485200
 20
36.39822698
  0
VERTEX
  8
0
 10
-25.84825500
 20
37.66323798
  0
VERTEX
  8
0
 10
-25.21249900
 20
39.02918998
  0
VERTEX
  8
0
 10
-24.81221700
 20
40.46678698
  0
VERTEX
  8
0
 10
-24.75497300
 20
41.03093298
  0
VERTEX
  8
0
 10
-21.22778800
 20
40.62484198
  0
SEQEND
  0
POLYLINE
  8
Standard-Ebene
 66
   1
 39
0.000000
 70
    0
  0
VERTEX
  8
0
 10
-24.71768200
 20
41.39843798
  0
VERTEX
  8
0
 10
-24.66204500
 20
41.94673698
  0
VERTEX
  8
0
 10
-24.77663500
 20
43.43976798
  0
VERTEX
  8
0
 10
-25.17063900
 20
44.91660798
  0
VERTEX
  8
0
 10
-25.45243100
 20
45.50061298
  0
VERTEX
  8
0
 10
-25.77983700
 20
46.24291098
  0
VERTEX
  8
0
 10
-25.93092100
 20
46.66374798
  0
VERTEX
  8
0
 10
-26.46793300
 20
47.54864198
  0
VERTEX
  8
0
 10
-27.01484700
 20
48.42560498
  0
VERTEX
  8
0
 10
-27.56670100
 20
49.29861098
  0
VERTEX
  8
0
 10
-28.31218300
 20
50.20050898
  0
VERTEX
  8
0
 10
-28.94803800
 20
50.76115998
  0
VERTEX
  8
0
 10
-36.88333600
 20
36.95444898
  0
VERTEX
  8
0
 10
-40.35131300
 20
38.94764198
  0
VERTEX
  8
0
 10
-32.10073600
 20
53.30290798
  0
VERTEX
  8
0
 10
-33.09441353
 20
53.99306550
 42
0.09062554
  0
VERTEX
  8
0
 10
-33.88009390
 20
54.34988345
  0
VERTEX
  8
0
 10
-35.15920500
 20
54.67042898
  0
VERTEX
  8
0
 10
-36.79063800
 20
55.08120998
  0
VERTEX
  8
0
 10
-38.48311200
 20
55.23830798
  0
VERTEX
  8
0
 10
-40.20463000
 20
55.16443198
  0
VERTEX
  8
0
 10
-41.92324700
 20
54.88234198
  0
VERTEX
  8
0
 10
-43.60700500
 20
54.41473098
  0
VERTEX
  8
0
 10
-45.22396300
 20
53.78435798
  0
VERTEX
  8
0
 10
-45.44781000
 20
53.63479698
  0
VERTEX
  8
0
 10
-45.84425700
 20
53.39163398
  0
VERTEX
  8
0
 10
-46.15409200
 20
53.07580398
  0
VERTEX
  8
0
 10
-46.16002300
 20
53.07645898
  0
VERTEX
  8
0
 10
-46.17487100
 20
53.07809998
  0
VERTEX
  8
0
 10
-46.19416800
 20
53.08023098
  0
VERTEX
  8
0
 10
-47.22519000
 20
52.14245498
  0
VERTEX
  8
0
 10
-48.16587500
 20
51.06878798
  0
VERTEX
  8
0
 10
-49.02262100
 20
49.87733798
  0
VERTEX
  8
0
 10
-49.80186500
 20
48.58621698
  0
VERTEX
  8
0
 10
-50.51004400
 20
47.21352098
  0
VERTEX
  8
0
 10
-51.15353800
 20
45.77733398
  0
VERTEX
  8
0
 10
-51.73878200
 20
44.29579198
  0
VERTEX
  8
0
 10
-52.27221600
 20
42.78696598
  0
VERTEX
  8
0
 10
-52.76023700
 20
41.26896598
  0
VERTEX
  8
0
 10
-53.20928100
 20
39.75990398
  0
VERTEX
  8
0
 10
-53.62576600
 20
38.27789298
  0
VERTEX
  8
0
 10
-54.01609200
 20
36.84100098
  0
VERTEX
  8
0
 10
-54.38669600
 20
35.46734098
  0
VERTEX
  8
0
 10
-54.74338100
 20
33.54948798
  0
VERTEX
  8
0
 10
-55.06182500
 20
31.58177498
  0
VERTEX
  8
0
 10
-55.34310000
 20
29.57192698
  0
VERTEX
  8
0
 10
-55.58824200
 20
27.52766398
  0
SEQEND
  0
POLYLINE
  8
Standard-Ebene
 66
   1
 39
0.000000
 70
    1
  0
VERTEX
  8
0
 10
82.12844900
 20
58.69583298
  0
VERTEX
  8
0
 10
111.52928800
 20
77.22098598
  0
VERTEX
  8
0
 10
109.39694300
 20
80.60518198
  0
VERTEX
  8
0
 10
79.99610300
 20
62.08002898
  0
VERTEX
  8
0
 10
82.12844900
 20
58.69583298
  0
SEQEND
  0
POLYLINE
  8
Standard-Ebene
 66
   1
 39
0.000000
 70
    0
  0
VERTEX
  8
0
 10
58.22985600
 20
57.89264998
  0
VERTEX
  8
0
 10
57.39502000
 20
56.20991098
  0
VERTEX
  8
0
 10
56.59322600
 20
54.50972998
  0
VERTEX
  8
0
 10
55.78535700
 20
52.68612198
  0
VERTEX
  8
0
 10
55.05922600
 20
50.92817998
  0
VERTEX
  8
0
 10
54.24950800
 20
48.94582198
  0
VERTEX
  8
0
 10
53.46247100
 20
46.82246498
  0
VERTEX
  8
0
 10
52.80438200
 20
44.64152398
  0
VERTEX
  8
0
 10
52.38150900
 20
42.48641498
  0
VERTEX
  8
0
 10
52.30012100
 20
40.44055398
  0
VERTEX
  8
0
 10
52.53608100
 20
39.24698698
 42
0.08346484
  0
VERTEX
  8
0
 10
53.00539600
 20
38.00661998
  0
VERTEX
  8
0
 10
53.19269256
 20
37.68567998
 42
0.09683970
  0
VERTEX
  8
0
 10
54.20641100
 20
36.53299798
  0
VERTEX
  8
0
 10
54.62753687
 20
36.20859735
 42
0.08459684
  0
VERTEX
  8
0
 10
55.81484300
 20
35.57897898
  0
VERTEX
  8
0
 10
57.51477200
 20
35.01791498
  0
VERTEX
  8
0
 10
57.98792500
 20
34.99188998
  0
VERTEX
  8
0
 10
57.90526100
 20
34.98591998
 42
0.07128029
  0
VERTEX
  8
0
 10
59.01398500
 20
35.22736098
  0
VERTEX
  8
0
 10
60.95363500
 20
35.95023598
 42
0.06998686
  0
VERTEX
  8
0
 10
61.93341566
 20
36.48102792
  0
VERTEX
  8
0
 10
64.66821900
 20
38.50122598
 42
-0.03622657
  0
VERTEX
  8
0
 10
65.15748700
 20
38.81057298
  0
VERTEX
  8
0
 10
67.51595600
 20
40.07275598
  0
VERTEX
  8
0
 10
70.02855800
 20
41.40173998
  0
VERTEX
  8
0
 10
74.27404600
 20
43.61432098
  0
VERTEX
  8
0
 10
76.68095500
 20
44.69514898
  0
VERTEX
  8
0
 10
77.28384400
 20
44.97354798
  0
VERTEX
  8
0
 10
77.87975200
 20
45.23872398
  0
VERTEX
  8
0
 10
78.47217800
 20
45.49730398
  0
VERTEX
  8
0
 10
81.57673400
 20
46.61376698
  0
VERTEX
  8
0
 10
84.65631600
 20
47.57927898
  0
VERTEX
  8
0
 10
87.71885100
 20
48.42613098
  0
VERTEX
  8
0
 10
90.77226600
 20
49.18661198
  0
VERTEX
  8
0
 10
93.82448900
 20
49.89301198
  0
VERTEX
  8
0
 10
94.75240300
 20
50.21932498
  0
VERTEX
  8
0
 10
95.63977400
 20
50.37289198
  0
VERTEX
  8
0
 10
96.06141800
 20
50.45988598
  0
VERTEX
  8
0
 10
98.37427500
 20
50.93603198
  0
VERTEX
  8
0
 10
101.82293100
 20
51.72442098
  0
VERTEX
  8
0
 10
103.61413200
 20
52.17199198
  0
VERTEX
  8
0
 10
106.15529000
 20
52.91709598
  0
VERTEX
  8
0
 10
108.49701600
 20
54.02659698
  0
VERTEX
  8
0
 10
110.59869000
 20
55.46406898
  0
VERTEX
  8
0
 10
112.41969600
 20
57.19309198
  0
VERTEX
  8
0
 10
113.91942900
 20
59.17719498
  0
VERTEX
  8
0
 10
114.35317200
 20
60.01685398
  0
VERTEX
  8
0
 10
119.57346800
 20
57.23027598
  0
SEQEND
  0
POLYLINE
  8
Standard-Ebene
 66
   1
 39
0.000000
 70
    0
  0
VERTEX
  8
0
 10
114.63572800
 20
60.56383798
  0
VERTEX
  8
0
 10
115.05728600
 20
61.37991098
  0
VERTEX
  8
0
 10
115.79265000
 20
63.76481598
  0
VERTEX
  8
0
 10
116.08490200
 20
66.29548798
  0
VERTEX
  8
0
 10
116.00513900
 20
67.37326698
  0
VERTEX
  8
0
 10
115.95145600
 20
68.72435998
  0
VERTEX
  8
0
 10
115.97456300
 20
69.46922698
  0
VERTEX
  8
0
 10
115.68310300
 20
71.16958598
  0
VERTEX
  8
0
 10
115.37143900
 20
72.86370098
  0
VERTEX
  8
0
 10
115.04969800
 20
74.55470298
  0
VERTEX
  8
0
 10
114.44541800
 20
76.40890898
  0
VERTEX
  8
0
 10
113.42114100
 20
78.41302198
  0
VERTEX
  8
0
 10
111.42184000
 20
81.90504298
 42
0.04953183
  0
VERTEX
  8
0
 10
110.24461900
 20
83.87190398
  0
VERTEX
  8
0
 10
109.35017901
 20
85.21343490
 42
0.09062554
  0
VERTEX
  8
0
 10
108.35024469
 20
86.24711753
  0
VERTEX
  8
0
 10
106.56310200
 20
87.52630898
  0
VERTEX
  8
0
 10
104.28489200
 20
89.16085598
  0
VERTEX
  8
0
 10
101.75690800
 20
90.43941498
  0
VERTEX
  8
0
 10
99.04264900
 20
91.37762798
  0
VERTEX
  8
0
 10
96.20555900
 20
91.99124598
  0
VERTEX
  8
0
 10
93.30906300
 20
92.29591298
  0
VERTEX
  8
0
 10
90.41660500
 20
92.30737798
  0
VERTEX
  8
0
 10
89.97808600
 20
92.21238398
  0
VERTEX
  8
0
 10
89.21472600
 20
92.07781498
  0
VERTEX
  8
0
 10
88.54121200
 20
91.77761698
  0
VERTEX
  8
0
 10
88.53241600
 20
91.78225998
  0
VERTEX
  8
0
 10
88.51039900
 20
91.79388298
  0
VERTEX
  8
0
 10
88.48178400
 20
91.80898798
  0
VERTEX
  8
0
 10
86.30979000
 20
90.98553498
  0
VERTEX
  8
0
 10
84.19475300
 20
89.89614798
  0
VERTEX
  8
0
 10
82.13783100
 20
88.57281698
  0
VERTEX
  8
0
 10
80.14012000
 20
87.04756098
  0
VERTEX
  8
0
 10
78.20270300
 20
85.35236898
  0
VERTEX
  8
0
 10
76.32675000
 20
83.51918398
  0
VERTEX
  8
0
 10
74.51337300
 20
81.58005598
  0
VERTEX
  8
0
 10
72.76363900
 20
79.56694498
  0
VERTEX
  8
0
 10
71.07870400
 20
77.51183798
  0
VERTEX
  8
0
 10
69.45966500
 20
75.44675598
  0
VERTEX
  8
0
 10
67.90765000
 20
73.40370098
  0
VERTEX
  8
0
 10
66.42378300
 20
71.41460398
  0
VERTEX
  8
0
 10
65.00916200
 20
69.51148298
  0
VERTEX
  8
0
 10
63.28333200
 20
66.75611898
  0
VERTEX
  8
0
 10
61.58630300
 20
63.90006598
  0
VERTEX
  8
0
 10
59.92113300
 20
60.95595698
  0
VERTEX
  8
0
 10
58.29094100
 20
57.93639198
  0
SEQEND
  0
POLYLINE
  8
Standard-Ebene
 66
   1
 39
0.000000
 70
    1
  0
VERTEX
  8
0
 10
-77.48849900
 20
-146.20050733
 42
-0.41421356
  0
VERTEX
  8
0
 10
-77.43760800
 20
-146.25139833
 42
-0.41421356
  0
VERTEX
  8
0
 10
-77.48849900
 20
-146.30228933
 42
-0.41421356
  0
VERTEX
  8
0
 10
-77.53939000
 20
-146.25139833
 42
-0.41421356
  0
VERTEX
  8
0
 10
-77.48849900
 20
-146.20050733
  0
SEQEND
  0
POLYLINE
  8
Standard-Ebene
 66
   1
 39
0.000000
 70
    1
  0
VERTEX
  8
0
 10
-133.55323400
 20
-219.65928733
 42
-0.41421356
  0
VERTEX
  8
0
 10
-133.50234300
 20
-219.71017833
 42
-0.41421356
  0
VERTEX
  8
0
 10
-133.55323400
 20
-219.76106933
 42
-0.41421356
  0
VERTEX
  8
0
 10
-133.60412500
 20
-219.71017833
 42
-0.41421356
  0
VERTEX
  8
0
 10
-133.55323400
 20
-219.65928733
  0
SEQEND
  0
POLYLINE
  8
Standard-Ebene
 66
   1
 39
0.000000
 70
    1
  0
VERTEX
  8
0
 10
-150.00000000
 20
-272.08742633
  0
VERTEX
  8
0
 10
-150.00000000
 20
-27.08742633
  0
VERTEX
  8
0
 10
150.00000000
 20
-27.08742633
  0
VERTEX
  8
0
 10
150.00000000
 20
-272.08742633
  0
VERTEX
  8
0
 10
-150.00000000
 20
-272.08742633
  0
SEQEND
  0
POLYLINE
  8
Standard-Ebene
 66
   1
 39
0.000000
 70
    0
  0
VERTEX
  8
0
 10
107.70461000
 20
-105.39979933
  0
VERTEX
  8
0
 10
107.84812300
 20
-106.66594333
  0
VERTEX
  8
0
 10
108.25985600
 20
-109.51457333
  0
VERTEX
  8
0
 10
108.94518900
 20
-112.88147633
  0
VERTEX
  8
0
 10
109.67271200
 20
-116.20769733
  0
VERTEX
  8
0
 10
110.45121600
 20
-119.49799733
  0
VERTEX
  8
0
 10
111.28944100
 20
-122.75705733
  0
VERTEX
  8
0
 10
112.04572800
 20
-125.63965533
  0
VERTEX
  8
0
 10
113.18968900
 20
-128.55413133
  0
VERTEX
  8
0
 10
114.32470700
 20
-131.40950233
  0
VERTEX
  8
0
 10
115.05408500
 20
-134.11484233
  0
VERTEX
  8
0
 10
116.01898900
 20
-136.83945933
  0
VERTEX
  8
0
 10
116.94035100
 20
-139.58812333
  0
VERTEX
  8
0
 10
117.79170300
 20
-142.35871133
  0
VERTEX
  8
0
 10
118.54662700
 20
-145.14900833
  0
VERTEX
  8
0
 10
119.17863300
 20
-147.95682233
  0
VERTEX
  8
0
 10
119.66123100
 20
-150.77995833
  0
VERTEX
  8
0
 10
119.96799700
 20
-153.61623533
  0
VERTEX
  8
0
 10
119.95466600
 20
-155.91365233
  0
VERTEX
  8
0
 10
119.84566700
 20
-158.80832933
  0
VERTEX
  8
0
 10
119.58006000
 20
-160.19831433
  0
VERTEX
  8
0
 10
119.19856600
 20
-161.63771933
  0
VERTEX
  8
0
 10
118.95967900
 20
-163.04119033
  0
VERTEX
  8
0
 10
118.81705731
 20
-163.98192192
 42
-0.05758507
  0
VERTEX
  8
0
 10
118.65641716
 20
-164.57267487
  0
VERTEX
  8
0
 10
117.69700084
 20
-166.97092879
 42
0.04883521
  0
VERTEX
  8
0
 10
117.55191300
 20
-167.46992833
  0
VERTEX
  8
0
 10
117.29694400
 20
-168.82965833
 42
0.09604030
  0
VERTEX
  8
0
 10
117.30316800
 20
-169.84469633
  0
VERTEX
  8
0
 10
117.35614000
 20
-170.10923933
 42
0.13469492
  0
VERTEX
  8
0
 10
117.98943000
 20
-171.37028233
  0
VERTEX
  8
0
 10
118.07374502
 20
-171.46389664
 42
0.09568636
  0
VERTEX
  8
0
 10
118.88083181
 20
-172.07341192
  0
VERTEX
  8
0
 10
119.88163400
 20
-172.56432033
  0
VERTEX
  8
0
 10
121.81340000
 20
-173.14647233
  0
VERTEX
  8
0
 10
124.13781200
 20
-173.75975833
  0
VERTEX
  8
0
 10
126.06264600
 20
-174.35091233
 42
-0.13780676
  0
VERTEX
  8
0
 10
127.27566000
 20
-175.13160933
  0
VERTEX
  8
0
 10
128.74219700
 20
-176.78678233
 42
-0.06024249
  0
VERTEX
  8
0
 10
129.10619500
 20
-177.31350233
  0
VERTEX
  8
0
 10
130.20510400
 20
-179.40200133
 42
-0.05926596
  0
VERTEX
  8
0
 10
130.43053700
 20
-179.99023533
  0
VERTEX
  8
0
 10
131.00255600
 20
-182.25329433
 42
-0.05064623
  0
VERTEX
  8
0
 10
131.08114600
 20
-182.78637133
  0
VERTEX
  8
0
 10
131.20419100
 20
-185.50877933
  0
VERTEX
  8
0
 10
130.90505700
 20
-188.22013833
 42
-0.06510147
  0
VERTEX
  8
0
 10
130.74075700
 20
-188.89181333
  0
VERTEX
  8
0
 10
129.74039600
 20
-191.47158033
  0
VERTEX
  8
0
 10
127.91604800
 20
-195.38927333
 42
-0.07525127
  0
VERTEX
  8
0
 10
127.47462600
 20
-196.05424933
  0
VERTEX
  8
0
 10
125.85879800
 20
-197.83727133
  0
VERTEX
  8
0
 10
124.76464900
 20
-198.88445133
  0
VERTEX
  8
0
 10
123.31442500
 20
-200.15045333
  0
VERTEX
  8
0
 10
122.58737200
 20
-200.78373233
  0
VERTEX
  8
0
 10
119.39009900
 20
-202.45099733
  0
VERTEX
  8
0
 10
116.33268600
 20
-203.67894933
  0
VERTEX
  8
0
 10
113.16435600
 20
-204.58721433
  0
VERTEX
  8
0
 10
109.63418400
 20
-205.29546433
  0
VERTEX
  8
0
 10
106.30848400
 20
-205.69399533
  0
VERTEX
  8
0
 10
103.18096200
 20
-205.85509733
  0
VERTEX
  8
0
 10
100.12604800
 20
-205.80452433
  0
VERTEX
  8
0
 10
97.01817300
 20
-205.56802933
  0
VERTEX
  8
0
 10
94.19323946
 20
-205.22706276
 42
0.08650300
  0
VERTEX
  8
0
 10
93.27866300
 20
-205.27508433
  0
VERTEX
  8
0
 10
92.77710100
 20
-205.38989733
 42
0.25867712
  0
VERTEX
  8
0
 10
90.85220100
 20
-207.11700833
  0
VERTEX
  8
0
 10
90.93498189
 20
-206.87786582
 42
0.11585763
  0
VERTEX
  8
0
 10
90.81013531
 20
-208.09089193
  0
VERTEX
  8
0
 10
91.02924500
 20
-209.79163333
  0
VERTEX
  8
0
 10
91.35418100
 20
-212.10095933
  0
VERTEX
  8
0
 10
89.54334000
 20
-211.56610933
  0
VERTEX
  8
0
 10
86.28910400
 20
-210.56393233
  0
VERTEX
  8
0
 10
84.42870500
 20
-209.87095733
  0
VERTEX
  8
0
 10
81.09799300
 20
-209.01152133
  0
VERTEX
  8
0
 10
78.20480200
 20
-208.42635933
  0
VERTEX
  8
0
 10
75.59897600
 20
-208.14201833
  0
VERTEX
  8
0
 10
73.13040400
 20
-208.18498633
  0
VERTEX
  8
0
 10
70.64895700
 20
-208.58185033
  0
VERTEX
  8
0
 10
68.00452500
 20
-209.35909733
  0
VERTEX
  8
0
 10
65.04695100
 20
-210.54327633
  0
VERTEX
  8
0
 10
64.17124400
 20
-211.09404433
  0
VERTEX
  8
0
 10
62.48346233
 20
-212.25621164
 42
0.03492401
  0
VERTEX
  8
0
 10
62.19248600
 20
-212.48808533
  0
VERTEX
  8
0
 10
61.05306300
 20
-213.53404633
  0
VERTEX
  8
0
 10
59.96882900
 20
-214.53117933
  0
VERTEX
  8
0
 10
58.75613100
 20
-215.60943433
 42
0.05241355
  0
VERTEX
  8
0
 10
58.38048274
 20
-216.02142926
  0
VERTEX
  8
0
 10
56.79585000
 20
-218.17413833
  0
VERTEX
  8
0
 10
55.29488300
 20
-220.52281633
  0
VERTEX
  8
0
 10
54.02613500
 20
-222.86926233
  0
VERTEX
  8
0
 10
52.97191900
 20
-225.24103933
  0
VERTEX
  8
0
 10
52.11455600
 20
-227.66564233
  0
VERTEX
  8
0
 10
51.43635700
 20
-230.17063333
  0
VERTEX
  8
0
 10
50.91971200
 20
-232.78351733
  0
VERTEX
  8
0
 10
50.54689800
 20
-235.53185233
  0
VERTEX
  8
0
 10
50.42121700
 20
-238.53228133
  0
VERTEX
  8
0
 10
50.69940300
 20
-241.54409933
  0
VERTEX
  8
0
 10
51.30003300
 20
-244.51503533
  0
VERTEX
  8
0
 10
52.25678100
 20
-247.36570133
  0
VERTEX
  8
0
 10
53.60326000
 20
-250.01666333
  0
VERTEX
  8
0
 10
55.13948200
 20
-252.07542433
 42
0.04870564
  0
VERTEX
  8
0
 10
55.66277400
 20
-252.65038033
  0
VERTEX
  8
0
 10
57.59984900
 20
-254.40167233
  0
VERTEX
  8
0
 10
58.56031925
 20
-255.31647665
 42
0.04580553
  0
VERTEX
  8
0
 10
59.13378999
 20
-255.77034803
  0
VERTEX
  8
0
 10
60.45707100
 20
-256.63345933
  0
VERTEX
  8
0
 10
61.37006100
 20
-257.18779333
 42
0.09323313
  0
VERTEX
  8
0
 10
62.24682602
 20
-257.56364457
  0
VERTEX
  8
0
 10
62.57711200
 20
-257.58661433
 42
0.26153308
  0
VERTEX
  8
0
 10
64.65594000
 20
-256.00670233
  0
VERTEX
  8
0
 10
64.89968800
 20
-255.44483933
 42
0.06984310
  0
VERTEX
  8
0
 10
65.09733300
 20
-254.73030133
  0
VERTEX
  8
0
 10
65.43003400
 20
-252.19337033
  0
VERTEX
  8
0
 10
65.57090711
 20
-250.58092355
 42
-0.10338097
  0
VERTEX
  8
0
 10
65.88621500
 20
-249.53641933
  0
VERTEX
  8
0
 10
66.11441244
 20
-249.11791618
 42
-0.20127675
  0
VERTEX
  8
0
 10
67.72611957
 20
-247.82959498
  0
VERTEX
  8
0
 10
67.45309786
 20
-247.90724631
 42
-0.09280597
  0
VERTEX
  8
0
 10
68.91907000
 20
-247.77196833
  0
VERTEX
  8
0
 10
70.01769600
 20
-247.87450733
  0
VERTEX
  8
0
 10
70.99171600
 20
-247.83843633
 42
0.12547746
  0
VERTEX
  8
0
 10
72.88755900
 20
-247.27956833
  0
VERTEX
  8
0
 10
72.94889600
 20
-247.24310733
 42
0.14685507
  0
VERTEX
  8
0
 10
74.50463623
 20
-245.54902359
  0
VERTEX
  8
0
 10
75.27801200
 20
-243.95302333
  0
VERTEX
  8
0
 10
76.98049300
 20
-241.61010333
  0
VERTEX
  8
0
 10
79.06942900
 20
-239.55005033
  0
VERTEX
  8
0
 10
81.52577500
 20
-237.72210833
  0
VERTEX
  8
0
 10
84.33048000
 20
-236.07551733
  0
VERTEX
  8
0
 10
85.43513300
 20
-235.42037333
  0
VERTEX
  8
0
 10
87.61936800
 20
-234.26236433
  0
VERTEX
  8
0
 10
89.20580300
 20
-233.71326833
  0
VERTEX
  8
0
 10
91.56266600
 20
-232.69238133
  0
VERTEX
  8
0
 10
93.97496200
 20
-231.69069433
  0
VERTEX
  8
0
 10
96.43401100
 20
-230.70987833
  0
VERTEX
  8
0
 10
98.93110400
 20
-229.75159833
  0
VERTEX
  8
0
 10
101.45755400
 20
-228.81759233
  0
VERTEX
  8
0
 10
104.00471400
 20
-227.90953533
  0
VERTEX
  8
0
 10
106.56387100
 20
-227.02912633
  0
VERTEX
  8
0
 10
109.12634100
 20
-226.17806933
  0
VERTEX
  8
0
 10
110.48968800
 20
-225.64089933
  0
VERTEX
  8
0
 10
113.15617600
 20
-224.57892633
  0
VERTEX
  8
0
 10
115.00760400
 20
-223.71697033
  0
VERTEX
  8
0
 10
116.94732600
 20
-222.79755033
  0
VERTEX
  8
0
 10
120.13675000
 20
-221.21038733
  0
VERTEX
  8
0
 10
123.62217700
 20
-219.38798133
  0
VERTEX
  8
0
 10
126.44990900
 20
-217.76283033
  0
VERTEX
  8
0
 10
127.66624600
 20
-216.76743233
  0
VERTEX
  8
0
 10
128.39481900
 20
-216.25689633
  0
VERTEX
  8
0
 10
129.56811600
 20
-215.27772033
  0
VERTEX
  8
0
 10
130.36290500
 20
-214.77863433
  0
VERTEX
  8
0
 10
132.41918800
 20
-213.13953933
  0
VERTEX
  8
0
 10
134.22041100
 20
-211.31687933
  0
VERTEX
  8
0
 10
135.77785700
 20
-209.32467833
  0
VERTEX
  8
0
 10
137.10291800
 20
-207.17690733
  0
VERTEX
  8
0
 10
138.20683500
 20
-204.88764833
  0
VERTEX
  8
0
 10
139.10102800
 20
-202.47091433
  0
VERTEX
  8
0
 10
139.79674600
 20
-199.94072033
  0
VERTEX
  8
0
 10
140.30537800
 20
-197.31107133
  0
VERTEX
  8
0
 10
140.56124200
 20
-195.22382233
 42
-0.07857074
  0
VERTEX
  8
0
 10
140.90507500
 20
-194.02265833
  0
VERTEX
  8
0
 10
141.03804300
 20
-193.73697133
  0
VERTEX
  8
0
 10
141.66301000
 20
-192.80312833
  0
VERTEX
  8
0
 10
141.82058223
 20
-192.47594534
 42
0.11931170
  0
VERTEX
  8
0
 10
142.21537133
 20
-190.63564007
  0
VERTEX
  8
0
 10
142.19650000
 20
-189.91494833
  0
VERTEX
  8
0
 10
141.92976300
 20
-188.11972433
  0
VERTEX
  8
0
 10
141.70518500
 20
-186.25598933
  0
VERTEX
  8
0
 10
141.40112400
 20
-185.26192833
  0
VERTEX
  8
0
 10
140.63223700
 20
-182.73262533
  0
VERTEX
  8
0
 10
139.56385000
 20
-179.33887233
  0
VERTEX
  8
0
 10
138.36132500
 20
-175.75143533
  0
VERTEX
  8
0
 10
137.18996100
 20
-172.64106733
  0
VERTEX
  8
0
 10
136.21508100
 20
-170.67855933
  0
VERTEX
  8
0
 10
135.30265200
 20
-168.34481433
  0
VERTEX
  8
0
 10
133.81112600
 20
-165.76697433
  0
VERTEX
  8
0
 10
133.17421500
 20
-164.39776333
 42
-0.15097929
  0
VERTEX
  8
0
 10
132.85470200
 20
-162.05766733
  0
VERTEX
  8
0
 10
132.96213900
 20
-161.40843133
  0
VERTEX
  8
0
 10
133.43147400
 20
-159.44621233
  0
VERTEX
  8
0
 10
134.38630900
 20
-157.34116433
  0
VERTEX
  8
0
 10
136.93729000
 20
-158.11799433
 42
0.41421356
  0
VERTEX
  8
0
 10
138.60119500
 20
-157.23091833
  0
VERTEX
  8
0
 10
141.70851200
 20
-147.02699333
 42
0.41421356
  0
VERTEX
  8
0
 10
140.82143600
 20
-145.36308833
  0
VERTEX
  8
0
 10
138.27045500
 20
-144.58625833
  0
VERTEX
  8
0
 10
138.44904200
 20
-141.56607133
  0
VERTEX
  8
0
 10
138.61469900
 20
-138.94262233
  0
VERTEX
  8
0
 10
138.75367200
 20
-136.47369633
  0
VERTEX
  8
0
 10
138.42815200
 20
-133.74765533
  0
VERTEX
  8
0
 10
137.76971600
 20
-131.06252633
  0
VERTEX
  8
0
 10
136.86351300
 20
-127.84413733
  0
VERTEX
  8
0
 10
139.30406400
 20
-126.76957833
 42
0.41421356
  0
VERTEX
  8
0
 10
139.98706080
 20
-125.01202289
  0
VERTEX
  8
0
 10
135.68882500
 20
-115.24981633
 42
0.41421356
  0
VERTEX
  8
0
 10
133.93127000
 20
-114.56682033
  0
VERTEX
  8
0
 10
131.49071800
 20
-115.64137933
  0
VERTEX
  8
0
 10
130.11140403
 20
-113.15006859
 42
-0.04201130
  0
VERTEX
  8
0
 10
129.83677900
 20
-112.53785233
  0
VERTEX
  8
0
 10
129.10168100
 20
-110.44442333
  0
VERTEX
  8
0
 10
128.54011600
 20
-107.63368433
  0
VERTEX
  8
0
 10
128.25420100
 20
-104.60917633
  0
VERTEX
  8
0
 10
128.23450100
 20
-101.55680733
  0
VERTEX
  8
0
 10
128.47163900
 20
-98.66253233
  0
VERTEX
  8
0
 10
128.83679600
 20
-94.12123933
  0
VERTEX
  8
0
 10
131.50168600
 20
-94.21783533
 42
0.41421356
  0
VERTEX
  8
0
 10
132.88242894
 20
-92.93368838
  0
VERTEX
  8
0
 10
133.26881300
 20
-82.27412833
 42
0.41421356
  0
VERTEX
  8
0
 10
131.98466600
 20
-80.89338533
  0
VERTEX
  8
0
 10
129.31977700
 20
-80.79678933
  0
VERTEX
  8
0
 10
128.93851900
 20
-76.90303233
  0
VERTEX
  8
0
 10
128.84110200
 20
-73.16443433
  0
VERTEX
  8
0
 10
129.21883300
 20
-69.52423733
 42
-0.05423487
  0
VERTEX
  8
0
 10
129.40068200
 20
-68.67835933
  0
VERTEX
  8
0
 10
130.39349500
 20
-65.68369133
  0
VERTEX
  8
0
 10
131.88862500
 20
-62.74836733
  0
VERTEX
  8
0
 10
133.95101900
 20
-59.72308733
  0
VERTEX
  8
0
 10
136.08595068
 20
-61.03843614
 42
0.41421356
  0
VERTEX
  8
0
 10
138.14984181
 20
-60.54817765
  0
VERTEX
  8
0
 10
143.57006181
 20
-51.75066465
 42
0.41421356
  0
VERTEX
  8
0
 10
143.07980332
 20
-49.68677351
  0
VERTEX
  8
0
 10
140.95138000
 20
-48.37543433
  0
VERTEX
  8
0
 10
141.70474000
 20
-47.15266233
 42
0.22888471
  0
VERTEX
  8
0
 10
141.83782369
 20
-45.85452109
 42
0.22888471
  0
VERTEX
  8
0
 10
140.90364900
 20
-44.94336933
  0
VERTEX
  8
0
 10
124.88036800
 20
-39.58171333
  0
VERTEX
  8
0
 10
123.84512621
 20
-39.72042478
 42
0.05356914
  0
VERTEX
  8
0
 10
123.29255952
 20
-39.85935070
  0
VERTEX
  8
0
 10
120.69262600
 20
-40.81828333
 42
0.05272816
  0
VERTEX
  8
0
 10
120.18973658
 20
-41.06663017
  0
VERTEX
  8
0
 10
117.62239400
 20
-42.69080933
  0
VERTEX
  8
0
 10
115.24688600
 20
-44.86106333
 42
0.05187481
  0
VERTEX
  8
0
 10
114.88017200
 20
-45.27343333
  0
VERTEX
  8
0
 10
113.28601700
 20
-47.49135233
  0
VERTEX
  8
0
 10
110.23139100
 20
-51.52852633
  0
VERTEX
  8
0
 10
108.57670900
 20
-53.64825233
  0
VERTEX
  8
0
 10
108.49051300
 20
-53.75964833
  0
VERTEX
  8
0
 10
108.41421400
 20
-53.85758233
  0
VERTEX
  8
0
 10
108.35392000
 20
-53.95071233
  0
VERTEX
  8
0
 10
107.98697249
 20
-54.43918734
 42
-0.15300597
  0
VERTEX
  8
0
 10
106.69172890
 20
-55.36948631
  0
VERTEX
  8
0
 10
105.89445690
 20
-55.63299331
 42
-0.05071096
  0
VERTEX
  8
0
 10
105.36768700
 20
-55.74961333
  0
VERTEX
  8
0
 10
103.16691300
 20
-56.00725333
  0
VERTEX
  8
0
 10
100.43219600
 20
-56.19876733
  0
VERTEX
  8
0
 10
98.02396100
 20
-56.48851033
 42
0.04407404
  0
VERTEX
  8
0
 10
97.56485100
 20
-56.58532433
  0
VERTEX
  8
0
 10
96.16237818
 20
-57.01289891
 42
0.10929708
  0
VERTEX
  8
0
 10
95.15898200
 20
-57.57897533
  0
VERTEX
  8
0
 10
94.53432600
 20
-58.13954433
 42
0.08618300
  0
VERTEX
  8
0
 10
93.96948500
 20
-58.85620933
  0
VERTEX
  8
0
 10
93.76523100
 20
-59.23409533
 42
0.10613403
  0
VERTEX
  8
0
 10
93.45149500
 20
-60.30870833
  0
VERTEX
  8
0
 10
93.36197100
 20
-61.53996933
  0
VERTEX
  8
0
 10
93.40164400
 20
-62.92463733
  0
VERTEX
  8
0
 10
93.26271700
 20
-67.57825833
  0
VERTEX
  8
0
 10
109.40251300
 20
-65.66405133
  0
VERTEX
  8
0
 10
109.87361300
 20
-69.63617233
  0
VERTEX
  8
0
 10
93.67702000
 20
-71.55711633
  0
VERTEX
  8
0
 10
94.00586900
 20
-74.41035333
  0
VERTEX
  8
0
 10
94.15619500
 20
-75.12588133
  0
VERTEX
  8
0
 10
94.49488599
 20
-76.71240960
 42
0.12039042
  0
VERTEX
  8
0
 10
95.04541060
 20
-77.85222782
  0
VERTEX
  8
0
 10
95.26039800
 20
-78.11293633
 42
0.12753622
  0
VERTEX
  8
0
 10
96.34397900
 20
-78.89887533
  0
VERTEX
  8
0
 10
96.81424100
 20
-79.08333933
 42
0.07869822
  0
VERTEX
  8
0
 10
97.62899405
 20
-79.26274680
  0
VERTEX
  8
0
 10
98.99533100
 20
-79.34437033
  0
VERTEX
  8
0
 10
100.90701300
 20
-79.18799433
  0
VERTEX
  8
0
 10
102.78556900
 20
-78.98971133
  0
VERTEX
  8
0
 10
104.08678500
 20
-78.97503933
 42
-0.07222228
  0
VERTEX
  8
0
 10
104.84639100
 20
-79.07660353
  0
VERTEX
  8
0
 10
105.02436400
 20
-79.12722453
 42
-0.15068277
  0
VERTEX
  8
0
 10
106.34217414
 20
-79.98352551
  0
VERTEX
  8
0
 10
106.39826314
 20
-80.05073451
 42
-0.05792644
  0
VERTEX
  8
0
 10
106.73560207
 20
-80.56592754
  0
VERTEX
  8
0
 10
107.10487600
 20
-81.30381433
  0
VERTEX
  8
0
 10
107.32136000
 20
-82.78346533
  0
VERTEX
  8
0
 10
107.34393500
 20
-83.85072233
  0
VERTEX
  8
0
 10
107.19200800
 20
-86.80395633
  0
VERTEX
  8
0
 10
107.08942700
 20
-89.70707433
  0
VERTEX
  8
0
 10
107.04224100
 20
-92.57063433
  0
VERTEX
  8
0
 10
107.05649000
 20
-95.40526433
  0
VERTEX
  8
0
 10
107.13815300
 20
-98.22154333
  0
VERTEX
  8
0
 10
107.29332000
 20
-101.03000433
  0
VERTEX
  8
0
 10
107.52795800
 20
-103.84129633
  0
VERTEX
  8
0
 10
107.65307800
 20
-104.94516433
  0
VERTEX
  8
0
 10
102.66858400
 20
-104.85926733
  0
SEQEND
  0
POLYLINE
  8
Standard-Ebene
 66
   1
 39
0.000000
 70
    0
  0
VERTEX
  8
0
 10
-109.21364400
 20
-104.41502533
  0
VERTEX
  8
0
 10
-112.00871500
 20
-104.49521333
  0
VERTEX
  8
0
 10
-114.90336700
 20
-104.46276033
  0
VERTEX
  8
0
 10
-117.82115400
 20
-104.25155333
  0
VERTEX
  8
0
 10
-120.68549500
 20
-103.79550233
  0
VERTEX
  8
0
 10
-123.41997400
 20
-103.02853033
  0
VERTEX
  8
0
 10
-125.94801200
 20
-101.88451233
  0
VERTEX
  8
0
 10
-128.19319100
 20
-100.29740433
  0
VERTEX
  8
0
 10
-129.17875900
 20
-99.67899633
  0
VERTEX
  8
0
 10
-130.08625500
 20
-98.87606533
  0
VERTEX
  8
0
 10
-130.56981545
 20
-98.47464799
 42
-0.07926056
  0
VERTEX
  8
0
 10
-131.40057229
 20
-97.52699516
  0
VERTEX
  8
0
 10
-132.54717900
 20
-96.21427133
  0
VERTEX
  8
0
 10
-133.93337700
 20
-94.10452933
  0
VERTEX
  8
0
 10
-135.04509600
 20
-92.04518433
  0
VERTEX
  8
0
 10
-136.20538500
 20
-89.62712933
  0
VERTEX
  8
0
 10
-137.21595200
 20
-87.14108033
  0
VERTEX
  8
0
 10
-138.08879500
 20
-84.60173733
  0
VERTEX
  8
0
 10
-138.83612300
 20
-82.02367433
  0
VERTEX
  8
0
 10
-139.46996600
 20
-79.42155833
  0
VERTEX
  8
0
 10
-140.00243600
 20
-76.80992633
  0
VERTEX
  8
0
 10
-140.44562800
 20
-74.20348233
  0
VERTEX
  8
0
 10
-140.81161700
 20
-71.61679433
  0
VERTEX
  8
0
 10
-141.11257200
 20
-69.06450333
  0
VERTEX
  8
0
 10
-141.53721800
 20
-62.35800133
  0
VERTEX
  8
0
 10
-141.62769200
 20
-59.41908333
  0
VERTEX
  8
0
 10
-141.49192100
 20
-56.09738933
  0
VERTEX
  8
0
 10
-141.01977200
 20
-52.72854033
  0
VERTEX
  8
0
 10
-140.10111500
 20
-49.64815733
  0
VERTEX
  8
0
 10
-138.62581700
 20
-47.19186233
  0
VERTEX
  8
0
 10
-137.09828200
 20
-44.43545233
  0
VERTEX
  8
0
 10
-133.88059800
 20
-41.07823033
  0
VERTEX
  8
0
 10
-131.37027300
 20
-38.95538633
  0
VERTEX
  8
0
 10
-129.09765800
 20
-37.30859433
  0
VERTEX
  8
0
 10
-126.28665000
 20
-35.87011533
  0
VERTEX
  8
0
 10
-123.21739100
 20
-34.68192533
  0
VERTEX
  8
0
 10
-120.17002600
 20
-33.78600533
  0
VERTEX
  8
0
 10
-117.42470000
 20
-33.22433133
  0
VERTEX
  8
0
 10
-114.67054600
 20
-32.78188633
  0
VERTEX
  8
0
 10
-111.77047700
 20
-32.67178733
  0
VERTEX
  8
0
 10
-108.79060900
 20
-32.87286833
  0
VERTEX
  8
0
 10
-105.79712200
 20
-33.36400333
  0
VERTEX
  8
0
 10
-102.85609500
 20
-34.12409233
  0
VERTEX
  8
0
 10
-100.03364100
 20
-35.13197033
  0
VERTEX
  8
0
 10
-97.39590800
 20
-36.36650833
  0
VERTEX
  8
0
 10
-94.54287600
 20
-37.68716833
  0
VERTEX
  8
0
 10
-90.45717600
 20
-39.92480533
  0
VERTEX
  8
0
 10
-88.35853200
 20
-41.38298833
  0
VERTEX
  8
0
 10
-88.01740500
 20
-41.61076033
  0
VERTEX
  8
0
 10
-87.52809700
 20
-41.93392033
  0
VERTEX
  8
0
 10
-86.96202700
 20
-42.16990433
  0
VERTEX
  8
0
 10
-86.27825100
 20
-42.63036733
  0
VERTEX
  8
0
 10
-85.01904100
 20
-43.31625633
  0
VERTEX
  8
0
 10
-84.32818800
 20
-43.88848333
  0
VERTEX
  8
0
 10
-83.49685500
 20
-44.31590133
  0
VERTEX
  8
0
 10
-82.65938700
 20
-44.84019533
  0
VERTEX
  8
0
 10
-81.70921100
 20
-45.37233433
  0
VERTEX
  8
0
 10
-80.03985600
 20
-46.51890833
  0
VERTEX
  8
0
 10
-78.04541300
 20
-47.66281033
  0
VERTEX
  8
0
 10
-75.78852400
 20
-48.76915333
  0
VERTEX
  8
0
 10
-73.33179700
 20
-49.80305033
  0
VERTEX
  8
0
 10
-70.73783800
 20
-50.72961333
  0
VERTEX
  8
0
 10
-68.06925800
 20
-51.51392233
  0
VERTEX
  8
0
 10
-65.38869400
 20
-52.12115933
  0
VERTEX
  8
0
 10
-62.75869000
 20
-52.51636433
  0
VERTEX
  8
0
 10
-60.24195200
 20
-52.66469033
  0
VERTEX
  8
0
 10
-57.90102300
 20
-52.53121233
  0
VERTEX
  8
0
 10
-55.79853900
 20
-52.08111133
  0
VERTEX
  8
0
 10
-54.32980400
 20
-51.17902933
  0
VERTEX
  8
0
 10
-53.02540700
 20
-49.82005533
  0
VERTEX
  8
0
 10
-51.83743100
 20
-48.12983033
  0
VERTEX
  8
0
 10
-50.71801700
 20
-46.23410133
  0
VERTEX
  8
0
 10
-49.61928500
 20
-44.25844333
  0
VERTEX
  8
0
 10
-48.49337900
 20
-42.32860233
  0
VERTEX
  8
0
 10
-47.29241500
 20
-40.57018733
  0
VERTEX
  8
0
 10
-45.96850500
 20
-39.10890933
  0
VERTEX
  8
0
 10
-44.47383100
 20
-38.07041633
  0
VERTEX
  8
0
 10
-42.76047600
 20
-37.58034833
  0
VERTEX
  8
0
 10
-40.78058400
 20
-37.76441733
  0
VERTEX
  8
0
 10
-40.70927200
 20
-37.82723533
  0
VERTEX
  8
0
 10
-40.63796100
 20
-37.89005433
  0
VERTEX
  8
0
 10
-40.56664900
 20
-37.95287233
  0
VERTEX
  8
0
 10
-37.73143600
 20
-38.95277133
  0
VERTEX
  8
0
 10
-34.83354000
 20
-40.05626733
  0
VERTEX
  8
0
 10
-31.87892000
 20
-41.16926833
  0
VERTEX
  8
0
 10
-28.87356600
 20
-42.19768333
  0
VERTEX
  8
0
 10
-25.82340200
 20
-43.04745233
  0
VERTEX
  8
0
 10
-22.73438300
 20
-43.62448333
  0
VERTEX
  8
0
 10
-14.62491600
 20
-44.75273033
  0
VERTEX
  8
0
 10
-11.81774400
 20
-45.17896933
  0
VERTEX
  8
0
 10
-8.96587000
 20
-45.45461433
  0
VERTEX
  8
0
 10
-6.08605800
 20
-45.50686033
  0
VERTEX
  8
0
 10
-3.19507500
 20
-45.26283633
  0
VERTEX
  8
0
 10
-0.30971400
 20
-44.64980833
  0
VERTEX
  8
0
 10
2.37034000
 20
-43.53369933
  0
VERTEX
  8
0
 10
5.04254900
 20
-42.53029933
  0
VERTEX
  8
0
 10
7.96512900
 20
-42.40884233
  0
VERTEX
  8
0
 10
10.46567200
 20
-43.24304733
  0
VERTEX
  8
0
 10
13.28284500
 20
-43.99737733
  0
VERTEX
  8
0
 10
15.75448200
 20
-43.66631333
  0
VERTEX
  8
0
 10
15.90016700
 20
-41.25407733
  0
VERTEX
  8
0
 10
16.00667000
 20
-38.78452833
  0
VERTEX
  8
0
 10
16.48183300
 20
-36.62453533
  0
VERTEX
  8
0
 10
17.73349600
 20
-35.14096633
  0
VERTEX
  8
0
 10
19.63745800
 20
-34.79684833
 42
-0.10471790
  0
VERTEX
  8
0
 10
21.29401500
 20
-34.84634033
  0
VERTEX
  8
0
 10
24.82171100
 20
-35.70417933
  0
VERTEX
  8
0
 10
26.79795500
 20
-36.23366633
  0
VERTEX
  8
0
 10
29.07447200
 20
-36.60199933
  0
VERTEX
  8
0
 10
31.50643600
 20
-36.82582133
  0
VERTEX
  8
0
 10
32.67242200
 20
-37.04780733
 42
-0.16070664
  0
VERTEX
  8
0
 10
34.86387400
 20
-38.26448533
  0
VERTEX
  8
0
 10
34.50642433
 20
-37.87714504
 42
-0.25524642
  0
VERTEX
  8
0
 10
35.43814488
 20
-41.59632149
  0
VERTEX
  8
0
 10
35.34600300
 20
-41.95073233
  0
VERTEX
  8
0
 10
33.26826400
 20
-44.30804833
  0
VERTEX
  8
0
 10
31.47225500
 20
-46.41077833
  0
VERTEX
  8
0
 10
29.58956000
 20
-48.63588933
  0
VERTEX
  8
0
 10
27.60133200
 20
-50.84896333
  0
VERTEX
  8
0
 10
25.48882500
 20
-52.91561133
  0
VERTEX
  8
0
 10
23.23319400
 20
-54.70141533
  0
VERTEX
  8
0
 10
20.81569200
 20
-56.07195233
  0
VERTEX
  8
0
 10
20.81632100
 20
-56.08187833
  0
VERTEX
  8
0
 10
20.81789400
 20
-56.10672633
  0
VERTEX
  8
0
 10
20.81993900
 20
-56.13901733
  0
VERTEX
  8
0
 10
18.41200700
 20
-57.96325033
  0
VERTEX
  8
0
 10
15.90374600
 20
-59.64866433
  0
VERTEX
  8
0
 10
13.19532200
 20
-60.66499633
  0
VERTEX
  8
0
 10
10.18683700
 20
-60.48198833
  0
VERTEX
  8
0
 10
7.59059900
 20
-60.15002633
  0
VERTEX
  8
0
 10
4.98839100
 20
-59.81524433
  0
VERTEX
  8
0
 10
2.38427400
 20
-59.47421933
  0
VERTEX
  8
0
 10
-0.21769700
 20
-59.12349833
  0
VERTEX
  8
0
 10
-2.81356500
 20
-58.75963033
  0
VERTEX
  8
0
 10
-5.39920400
 20
-58.37919033
  0
VERTEX
  8
0
 10
-7.97065800
 20
-57.97872933
  0
VERTEX
  8
0
 10
-10.52386700
 20
-57.55482533
  0
VERTEX
  8
0
 10
-13.05477600
 20
-57.10399033
  0
VERTEX
  8
0
 10
-15.55942800
 20
-56.62280733
  0
VERTEX
  8
0
 10
-18.03369900
 20
-56.10781933
  0
VERTEX
  8
0
 10
-25.82740800
 20
-55.18420433
  0
VERTEX
  8
0
 10
-28.11214400
 20
-54.75730733
  0
VERTEX
  8
0
 10
-30.25433200
 20
-54.34161733
  0
VERTEX
  8
0
 10
-32.25646800
 20
-54.07583333
  0
VERTEX
  8
0
 10
-34.12121300
 20
-54.09869533
  0
VERTEX
  8
0
 10
-35.85110000
 20
-54.54887233
  0
VERTEX
  8
0
 10
-37.44872300
 20
-55.56509833
  0
VERTEX
  8
0
 10
-38.91664700
 20
-57.28604433
  0
VERTEX
  8
0
 10
-40.25746700
 20
-59.85048033
  0
VERTEX
  8
0
 10
-41.04725700
 20
-62.40537733
  0
VERTEX
  8
0
 10
-41.81333000
 20
-64.96318333
  0
VERTEX
  8
0
 10
-42.58645000
 20
-67.51019033
  0
VERTEX
  8
0
 10
-43.39741200
 20
-70.03272733
  0
VERTEX
  8
0
 10
-44.27694500
 20
-72.51711833
  0
VERTEX
  8
0
 10
-45.25584700
 20
-74.94965833
  0
VERTEX
  8
0
 10
-46.36484300
 20
-77.31670433
  0
VERTEX
  8
0
 10
-47.63469900
 20
-79.60455133
  0
VERTEX
  8
0
 10
-49.09624600
 20
-81.79949433
  0
VERTEX
  8
0
 10
-50.78017700
 20
-83.88785633
  0
VERTEX
  8
0
 10
-52.71729000
 20
-85.85596533
  0
VERTEX
  8
0
 10
-55.10870400
 20
-87.40668533
  0
VERTEX
  8
0
 10
-57.50493800
 20
-88.77867033
  0
VERTEX
  8
0
 10
-59.91375700
 20
-90.00772733
  0
VERTEX
  8
0
 10
-62.34288800
 20
-91.12973033
  0
VERTEX
  8
0
 10
-64.80009800
 20
-92.18048833
  0
VERTEX
  8
0
 10
-67.29311500
 20
-93.19583933
  0
VERTEX
  8
0
 10
-69.82970800
 20
-94.21156033
  0
VERTEX
  8
0
 10
-72.26061700
 20
-94.98912833
  0
VERTEX
  8
0
 10
-74.69028000
 20
-95.77308133
  0
VERTEX
  8
0
 10
-77.11963800
 20
-96.55812633
  0
VERTEX
  8
0
 10
-79.54977300
 20
-97.33887833
  0
VERTEX
  8
0
 10
-81.98168800
 20
-98.11011333
  0
VERTEX
  8
0
 10
-84.41643100
 20
-98.86647833
  0
VERTEX
  8
0
 10
-86.85497600
 20
-99.60268233
  0
VERTEX
  8
0
 10
-89.29843500
 20
-100.31337433
  0
VERTEX
  8
0
 10
-90.38558600
 20
-100.61516033
  0
VERTEX
  8
0
 10
-89.29753800
 20
-105.86652133
  0
SEQEND
  0
POLYLINE
  8
Standard-Ebene
 66
   1
 39
0.000000
 70
    0
  0
VERTEX
  8
0
 10
-109.14445600
 20
-104.44431133
  0
VERTEX
  8
0
 10
-106.62511200
 20
-104.12867633
  0
VERTEX
  8
0
 10
-104.11882600
 20
-103.74505333
  0
VERTEX
  8
0
 10
-101.62462200
 20
-103.29876633
  0
VERTEX
  8
0
 10
-99.14142100
 20
-102.79513433
  0
VERTEX
  8
0
 10
-96.66824800
 20
-102.23948233
  0
VERTEX
  8
0
 10
-94.20402700
 20
-101.63709533
  0
VERTEX
  8
0
 10
-91.74778100
 20
-100.99329733
  0
VERTEX
  8
0
 10
-91.30914900
 20
-100.87153633
  0
SEQEND
  0
POLYLINE
  8
Standard-Ebene
 66
   1
 39
0.000000
 70
    0
  0
VERTEX
  8
0
 10
16.36341400
 20
-37.33203733
  0
VERTEX
  8
0
 10
16.42959600
 20
-37.29417933
  0
SEQEND
  0
POLYLINE
  8
Standard-Ebene
 66
   1
 39
0.000000
 70
    1
  0
VERTEX
  8
0
 10
-132.91268300
 20
-68.29061433
  0
VERTEX
  8
0
 10
-98.42566200
 20
-72.56098133
  0
VERTEX
  8
0
 10
-97.93411900
 20
-68.59133833
  0
VERTEX
  8
0
 10
-132.42114000
 20
-64.32097133
  0
VERTEX
  8
0
 10
-132.91268300
 20
-68.29061433
  0
SEQEND
  0
POLYLINE
  8
Standard-Ebene
 66
   1
 39
0.000000
 70
    1
  0
VERTEX
  8
0
 10
44.02423000
 20
-59.96706033
  0
VERTEX
  8
0
 10
78.51525000
 20
-64.20501233
  0
VERTEX
  8
0
 10
79.00306100
 20
-60.23490833
  0
VERTEX
  8
0
 10
44.51204100
 20
-55.99695733
  0
VERTEX
  8
0
 10
44.02423000
 20
-59.96706033
  0
SEQEND
  0
POLYLINE
  8
Standard-Ebene
 66
   1
 39
0.000000
 70
    0
  0
VERTEX
  8
0
 10
127.33882100
 20
-226.49378233
  0
VERTEX
  8
0
 10
126.79340500
 20
-226.18725533
  0
SEQEND
  0
POLYLINE
  8
Standard-Ebene
 66
   1
 39
0.000000
 70
    0
  0
VERTEX
  8
0
 10
-35.27405385
 20
-100.01466780
 42
-0.19134073
  0
VERTEX
  8
0
 10
-35.94730600
 20
-97.13913333
  0
VERTEX
  8
0
 10
-35.29214000
 20
-92.74840633
  0
VERTEX
  8
0
 10
-34.11486800
 20
-88.75218033
  0
VERTEX
  8
0
 10
-16.22061100
 20
-86.80438233
  0
VERTEX
  8
0
 10
-16.65345100
 20
-82.82791033
  0
VERTEX
  8
0
 10
-33.23046000
 20
-84.63232533
  0
VERTEX
  8
0
 10
-32.76211900
 20
-80.50064533
  0
VERTEX
  8
0
 10
-32.35467300
 20
-77.43501233
  0
VERTEX
  8
0
 10
-31.85991200
 20
-74.34675733
  0
VERTEX
  8
0
 10
-31.40215909
 20
-72.02532743
 42
-0.08989673
  0
VERTEX
  8
0
 10
-30.88088909
 20
-70.69715438
  0
VERTEX
  8
0
 10
-30.25035309
 20
-69.67632338
 42
-0.09202480
  0
VERTEX
  8
0
 10
-29.26928900
 20
-68.59504433
  0
VERTEX
  8
0
 10
-28.35805500
 20
-67.90171633
 42
-0.07684197
  0
VERTEX
  8
0
 10
-27.28370500
 20
-67.31892233
  0
VERTEX
  8
0
 10
-25.32523200
 20
-66.61807333
 42
-0.05490235
  0
VERTEX
  8
0
 10
-24.47330324
 20
-66.41503731
  0
VERTEX
  8
0
 10
-22.71478700
 20
-66.19538233
  0
VERTEX
  8
0
 10
-20.48300400
 20
-66.14608333
  0
VERTEX
  8
0
 10
-18.22994400
 20
-66.31121133
  0
VERTEX
  8
0
 10
-15.97037800
 20
-66.68029833
  0
VERTEX
  8
0
 10
-13.71911500
 20
-67.24284333
  0
VERTEX
  8
0
 10
-11.49096100
 20
-67.98834533
  0
VERTEX
  8
0
 10
-9.30069000
 20
-68.90633733
  0
VERTEX
  8
0
 10
-7.16314300
 20
-69.98628533
  0
VERTEX
  8
0
 10
-5.09309300
 20
-71.21772133
  0
VERTEX
  8
0
 10
-3.10531400
 20
-72.59017633
  0
VERTEX
  8
0
 10
-1.21464700
 20
-74.09311833
  0
VERTEX
  8
0
 10
0.56413500
 20
-75.71607933
  0
VERTEX
  8
0
 10
2.21622500
 20
-77.44855733
  0
VERTEX
  8
0
 10
3.72681500
 20
-79.28005233
  0
VERTEX
  8
0
 10
5.08113200
 20
-81.20009633
  0
VERTEX
  8
0
 10
6.26433400
 20
-83.19815733
  0
VERTEX
  8
0
 10
7.26164800
 20
-85.26376433
  0
VERTEX
  8
0
 10
8.05830200
 20
-87.38645133
  0
VERTEX
  8
0
 10
8.63945400
 20
-89.55568433
  0
VERTEX
  8
0
 10
8.88549800
 20
-91.10211333
 42
-0.07067966
  0
VERTEX
  8
0
 10
8.90424136
 20
-92.22719876
  0
VERTEX
  8
0
 10
8.60269000
 20
-94.63742633
 42
-0.07108805
  0
VERTEX
  8
0
 10
8.30476009
 20
-95.72918397
  0
VERTEX
  8
0
 10
7.85435709
 20
-96.77018997
 42
-0.13444746
  0
VERTEX
  8
0
 10
6.53293939
 20
-98.41894328
  0
VERTEX
  8
0
 10
5.60762039
 20
-99.09059328
 42
-0.13115526
  0
VERTEX
  8
0
 10
3.68205794
 20
-99.83091832
  0
VERTEX
  8
0
 10
3.39666200
 20
-99.86135033
  0
VERTEX
  8
0
 10
2.07883800
 20
-99.83154833
  0
VERTEX
  8
0
 10
0.78132200
 20
-99.57670233
  0
VERTEX
  8
0
 10
-1.44244900
 20
-98.79751733
  0
VERTEX
  8
0
 10
-3.85461900
 20
-98.32052333
  0
VERTEX
  8
0
 10
-6.41731900
 20
-98.10472633
  0
VERTEX
  8
0
 10
-9.09250800
 20
-98.10919133
  0
VERTEX
  8
0
 10
-11.84225300
 20
-98.29288733
  0
VERTEX
  8
0
 10
-14.62864400
 20
-98.61491933
  0
VERTEX
  8
0
 10
-17.41368000
 20
-99.03425133
  0
VERTEX
  8
0
 10
-20.15942200
 20
-99.50995633
  0
VERTEX
  8
0
 10
-22.82786400
 20
-100.00106433
  0
VERTEX
  8
0
 10
-24.30995800
 20
-100.27128333
  0
VERTEX
  8
0
 10
-23.73745100
 20
-102.58033133
  0
SEQEND
  0
POLYLINE
  8
Standard-Ebene
 66
   1
 39
0.000000
 70
    1
  0
VERTEX
  8
0
 10
-38.20549300
 20
-125.05392133
  0
VERTEX
  8
0
 10
-35.60594800
 20
-122.01384833
  0
VERTEX
  8
0
 10
-4.69853900
 20
-148.44255933
  0
VERTEX
  8
0
 10
-7.29808500
 20
-151.48263233
  0
VERTEX
  8
0
 10
-38.20549300
 20
-125.05392133
  0
SEQEND
  0
POLYLINE
  8
Standard-Ebene
 66
   1
 39
0.000000
 70
    0
  0
VERTEX
  8
0
 10
-41.08155600
 20
-144.67964433
  0
VERTEX
  8
0
 10
-42.02769400
 20
-143.93397833
  0
VERTEX
  8
0
 10
-43.35145400
 20
-142.99090133
  0
VERTEX
  8
0
 10
-44.57419200
 20
-142.48285833
  0
VERTEX
  8
0
 10
-44.86093100
 20
-143.56881133
  0
VERTEX
  8
0
 10
-45.04322500
 20
-145.16906233
  0
VERTEX
  8
0
 10
-45.11288100
 20
-146.05580833
  0
VERTEX
  8
0
 10
-45.69628600
 20
-149.08448333
  0
VERTEX
  8
0
 10
-46.40033800
 20
-151.61192533
  0
VERTEX
  8
0
 10
-47.31822700
 20
-153.77120933
  0
VERTEX
  8
0
 10
-48.48015700
 20
-155.61688333
  0
VERTEX
  8
0
 10
-49.91637400
 20
-157.20333233
  0
VERTEX
  8
0
 10
-51.65703600
 20
-158.58510233
  0
VERTEX
  8
0
 10
-53.73233600
 20
-159.81661933
  0
VERTEX
  8
0
 10
-56.17250500
 20
-160.95241333
  0
VERTEX
  8
0
 10
-59.00768800
 20
-162.04690533
  0
VERTEX
  8
0
 10
-61.64777800
 20
-163.49802033
  0
VERTEX
  8
0
 10
-63.91482200
 20
-165.22327333
  0
VERTEX
  8
0
 10
-65.84027900
 20
-167.19899933
  0
VERTEX
  8
0
 10
-67.45560800
 20
-169.40148733
  0
VERTEX
  8
0
 10
-68.79225100
 20
-171.80699833
  0
VERTEX
  8
0
 10
-69.88171600
 20
-174.39182633
  0
VERTEX
  8
0
 10
-70.75543800
 20
-177.13228033
  0
VERTEX
  8
0
 10
-72.50363364
 20
-182.53994871
 42
-0.22992668
  0
VERTEX
  8
0
 10
-73.30995065
 20
-183.38039909
 42
-0.22992668
  0
VERTEX
  8
0
 10
-74.46906732
 20
-183.26659006
  0
VERTEX
  8
0
 10
-76.92306300
 20
-181.76247233
  0
VERTEX
  8
0
 10
-78.85470800
 20
-179.76913133
  0
VERTEX
  8
0
 10
-79.40273400
 20
-178.93272333
  0
VERTEX
  8
0
 10
-80.23805000
 20
-177.32056333
  0
VERTEX
  8
0
 10
-80.38338700
 20
-176.08923333
  0
VERTEX
  8
0
 10
-80.41601000
 20
-174.24970333
  0
VERTEX
  8
0
 10
-80.47443300
 20
-171.95887333
  0
VERTEX
  8
0
 10
-80.48903800
 20
-170.42213233
  0
VERTEX
  8
0
 10
-80.53154100
 20
-167.09530433
  0
VERTEX
  8
0
 10
-80.25264300
 20
-162.87197533
  0
VERTEX
  8
0
 10
-80.14140300
 20
-159.18762933
  0
VERTEX
  8
0
 10
-80.12186600
 20
-158.27987133
  0
VERTEX
  8
0
 10
-80.09151400
 20
-157.03624333
  0
VERTEX
  8
0
 10
-79.91842000
 20
-155.83186633
  0
VERTEX
  8
0
 10
-79.89567500
 20
-154.69085533
  0
VERTEX
  8
0
 10
-79.84453400
 20
-153.86105133
  0
VERTEX
  8
0
 10
-79.58384700
 20
-151.51316433
  0
VERTEX
  8
0
 10
-81.70899800
 20
-150.15044333
 42
-0.16452532
  0
VERTEX
  8
0
 10
-83.30956700
 20
-148.14865533
  0
VERTEX
  8
0
 10
-83.25703178
 20
-148.29331675
 42
-0.17411381
  0
VERTEX
  8
0
 10
-83.26670677
 20
-145.58950913
  0
VERTEX
  8
0
 10
-82.57164200
 20
-143.63202033
  0
VERTEX
  8
0
 10
-81.87564500
 20
-141.99376533
  0
VERTEX
  8
0
 10
-80.98193200
 20
-140.26996533
  0
VERTEX
  8
0
 10
-79.99013800
 20
-138.42386033
  0
VERTEX
  8
0
 10
-79.74456000
 20
-136.91576133
  0
VERTEX
  8
0
 10
-79.12455400
 20
-134.03321033
  0
VERTEX
  8
0
 10
-78.61959100
 20
-131.98663933
  0
VERTEX
  8
0
 10
-77.84123000
 20
-129.15923933
  0
VERTEX
  8
0
 10
-76.31202300
 20
-125.28775233
  0
VERTEX
  8
0
 10
-74.93348400
 20
-123.01610133
  0
VERTEX
  8
0
 10
-69.95326900
 20
-133.67510633
  0
VERTEX
  8
0
 10
-66.32935600
 20
-131.98190233
  0
VERTEX
  8
0
 10
-71.56626900
 20
-120.77349633
  0
VERTEX
  8
0
 10
-68.70370800
 20
-119.27015333
  0
VERTEX
  8
0
 10
-64.41647000
 20
-117.30011133
  0
VERTEX
  8
0
 10
-61.49785100
 20
-116.21380733
  0
VERTEX
  8
0
 10
-58.82324000
 20
-115.21938933
  0
VERTEX
  8
0
 10
-56.09844300
 20
-114.42022433
  0
VERTEX
  8
0
 10
-53.33474500
 20
-113.76592433
  0
VERTEX
  8
0
 10
-50.54343300
 20
-113.20610333
  0
VERTEX
  8
0
 10
-47.73579100
 20
-112.69037633
  0
VERTEX
  8
0
 10
-45.57375200
 20
-112.57177733
  0
VERTEX
  8
0
 10
-43.41171400
 20
-112.45317833
  0
VERTEX
  8
0
 10
-41.24967500
 20
-112.33457933
  0
VERTEX
  8
0
 10
-41.06433400
 20
-112.41773633
  0
VERTEX
  8
0
 10
-40.91394500
 20
-112.42507533
  0
VERTEX
  8
0
 10
-40.65147800
 20
-112.34040533
  0
VERTEX
  8
0
 10
-37.90115100
 20
-112.58171133
  0
VERTEX
  8
0
 10
-35.08416700
 20
-112.90999433
  0
VERTEX
  8
0
 10
-32.25269300
 20
-113.34553233
  0
VERTEX
  8
0
 10
-29.45895600
 20
-113.90872833
  0
VERTEX
  8
0
 10
-26.75514000
 20
-114.61993533
  0
VERTEX
  8
0
 10
-24.19347600
 20
-115.49950833
  0
VERTEX
  8
0
 10
-21.64695800
 20
-116.27323733
  0
VERTEX
  8
0
 10
-20.76340900
 20
-116.60148733
  0
VERTEX
  8
0
 10
-15.19828300
 20
-108.93568033
  0
SEQEND
  0
POLYLINE
  8
Standard-Ebene
 66
   1
 39
0.000000
 70
    0
  0
VERTEX
  8
0
 10
-20.16543500
 20
-116.82364333
  0
VERTEX
  8
0
 10
-19.20386500
 20
-117.18087933
  0
VERTEX
  8
0
 10
-16.79498900
 20
-118.22274833
  0
VERTEX
  8
0
 10
-14.42463300
 20
-119.38342233
  0
VERTEX
  8
0
 10
-12.09713200
 20
-120.64741333
  0
VERTEX
  8
0
 10
-9.81672800
 20
-121.99922133
  0
VERTEX
  8
0
 10
-7.58770300
 20
-123.42339833
  0
VERTEX
  8
0
 10
-5.41437100
 20
-124.90442933
  0
VERTEX
  8
0
 10
-3.30103600
 20
-126.42689333
  0
VERTEX
  8
0
 10
-1.25196400
 20
-127.97526933
  0
VERTEX
  8
0
 10
0.72854000
 20
-129.53413733
  0
SEQEND
  0
POLYLINE
  8
Standard-Ebene
 66
   1
 39
0.000000
 70
    0
  0
VERTEX
  8
0
 10
0.75995900
 20
-129.60238433
  0
VERTEX
  8
0
 10
3.37236300
 20
-131.77586033
  0
VERTEX
  8
0
 10
5.99246300
 20
-134.14118833
  0
VERTEX
  8
0
 10
8.30935500
 20
-136.68332233
  0
VERTEX
  8
0
 10
10.01213600
 20
-139.38721633
  0
VERTEX
  8
0
 10
-1.30940517
 20
-205.09681536
 42
-0.23975506
  0
VERTEX
  8
0
 10
-2.14460045
 20
-205.97120192
  0
VERTEX
  8
0
 10
-2.48130345
 20
-206.08943192
 42
-0.09012886
  0
VERTEX
  8
0
 10
-2.95218000
 20
-206.16441733
  0
VERTEX
  8
0
 10
-3.77749600
 20
-206.14637933
 42
-0.11313515
  0
VERTEX
  8
0
 10
-5.51044900
 20
-205.70911433
  0
VERTEX
  8
0
 10
-5.46243800
 20
-205.73365233
  0
VERTEX
  8
0
 10
-6.06784900
 20
-205.45508133
  0
VERTEX
  8
0
 10
-6.94681709
 20
-204.97337492
 42
-0.02146077
  0
VERTEX
  8
0
 10
-7.24043934
 20
-204.79566837
  0
VERTEX
  8
0
 10
-9.48088466
 20
-203.30474704
 42
-0.02670206
  0
VERTEX
  8
0
 10
-9.82861566
 20
-203.05706271
  0
VERTEX
  8
0
 10
-12.56781000
 20
-200.87657733
  0
VERTEX
  8
0
 10
-15.09214702
 20
-198.61186852
 42
-0.03009048
  0
VERTEX
  8
0
 10
-15.43022300
 20
-198.26970933
  0
VERTEX
  8
0
 10
-16.77030300
 20
-196.87422533
  0
VERTEX
  8
0
 10
-18.89051500
 20
-194.50713333
  0
VERTEX
  8
0
 10
-20.76592652
 20
-192.05892596
 42
-0.02025049
  0
VERTEX
  8
0
 10
-20.95230800
 20
-191.79405833
  0
VERTEX
  8
0
 10
-22.65237800
 20
-189.15737133
  0
VERTEX
  8
0
 10
-24.28977500
 20
-186.25087633
  0
VERTEX
  8
0
 10
-25.81224800
 20
-183.27321133
  0
VERTEX
  8
0
 10
-26.00199000
 20
-182.71603233
  0
VERTEX
  8
0
 10
-26.43038000
 20
-181.77614733
  0
VERTEX
  8
0
 10
-26.63411800
 20
-181.23642933
  0
VERTEX
  8
0
 10
-27.12647800
 20
-180.09377533
  0
VERTEX
  8
0
 10
-27.62329100
 20
-178.76570033
  0
VERTEX
  8
0
 10
-28.20982000
 20
-177.34659033
  0
VERTEX
  8
0
 10
-28.48145500
 20
-176.48770333
  0
VERTEX
  8
0
 10
-29.02999700
 20
-174.94755233
  0
VERTEX
  8
0
 10
-30.11992300
 20
-171.18391033
  0
VERTEX
  8
0
 10
-30.69093300
 20
-168.16164433
  0
VERTEX
  8
0
 10
-31.30962300
 20
-165.04371433
  0
VERTEX
  8
0
 10
-31.70438000
 20
-162.65712433
  0
VERTEX
  8
0
 10
-32.80038300
 20
-158.34000433
  0
VERTEX
  8
0
 10
-33.64581500
 20
-155.33378633
  0
VERTEX
  8
0
 10
-35.02622900
 20
-152.38636833
  0
VERTEX
  8
0
 10
-36.65432800
 20
-149.69255833
  0
VERTEX
  8
0
 10
-38.63581900
 20
-147.16762433
  0
VERTEX
  8
0
 10
-41.07635400
 20
-144.72687533
  0
SEQEND
  0
POLYLINE
  8
Standard-Ebene
 66
   1
 39
0.000000
 70
    1
  0
VERTEX
  8
0
 10
72.58734800
 20
-164.35230533
  0
VERTEX
  8
0
 10
80.35181000
 20
-124.43416633
  0
VERTEX
  8
0
 10
76.42543600
 20
-123.67044933
  0
VERTEX
  8
0
 10
68.66097400
 20
-163.58858833
  0
VERTEX
  8
0
 10
72.58734800
 20
-164.35230533
  0
SEQEND
  0
POLYLINE
  8
Standard-Ebene
 66
   1
 39
0.000000
 70
    1
  0
VERTEX
  8
0
 10
-101.00842200
 20
-255.52137933
  0
VERTEX
  8
0
 10
-63.53506500
 20
-239.72605833
  0
VERTEX
  8
0
 10
-65.08870300
 20
-236.04015433
  0
VERTEX
  8
0
 10
-102.56206000
 20
-251.83547533
  0
VERTEX
  8
0
 10
-101.00842200
 20
-255.52137933
  0
SEQEND
  0
POLYLINE
  8
Standard-Ebene
 66
   1
 39
0.000000
 70
    0
  0
VERTEX
  8
0
 10
-99.32342100
 20
-232.21971233
  0
VERTEX
  8
0
 10
-96.25696600
 20
-230.63531533
  0
VERTEX
  8
0
 10
-93.60231400
 20
-228.83131333
  0
VERTEX
  8
0
 10
-91.23308500
 20
-226.75909833
  0
VERTEX
  8
0
 10
-89.02283500
 20
-224.37003833
  0
VERTEX
  8
0
 10
-87.30444900
 20
-221.76250133
  0
VERTEX
  8
0
 10
-84.94925200
 20
-217.98205133
  0
VERTEX
  8
0
 10
-83.84841900
 20
-215.82802933
  0
VERTEX
  8
0
 10
-82.31214500
 20
-213.04520233
  0
VERTEX
  8
0
 10
-80.85035000
 20
-210.33904233
  0
VERTEX
  8
0
 10
-78.66901400
 20
-207.08409133
  0
VERTEX
  8
0
 10
-77.67868800
 20
-205.78323833
  0
VERTEX
  8
0
 10
-77.15906800
 20
-205.04739233
  0
VERTEX
  8
0
 10
-76.16930500
 20
-203.87340033
  0
VERTEX
  8
0
 10
-75.29266500
 20
-202.75890133
  0
VERTEX
  8
0
 10
-74.47657400
 20
-201.81971433
  0
VERTEX
  8
0
 10
-74.11856500
 20
-201.36735033
  0
VERTEX
  8
0
 10
-73.42499500
 20
-200.60193233
  0
VERTEX
  8
0
 10
-73.07501900
 20
-200.12868133
  0
VERTEX
  8
0
 10
-70.72023200
 20
-197.75394033
  0
VERTEX
  8
0
 10
-68.27756000
 20
-195.48190633
  0
VERTEX
  8
0
 10
-65.85710578
 20
-193.48597267
 42
-0.02025049
  0
VERTEX
  8
0
 10
-65.59909500
 20
-193.29020933
  0
VERTEX
  8
0
 10
-63.06881200
 20
-191.52709833
  0
VERTEX
  8
0
 10
-60.32992000
 20
-189.91561033
  0
VERTEX
  8
0
 10
-58.62936342
 20
-188.99295340
 42
-0.03009048
  0
VERTEX
  8
0
 10
-58.20335100
 20
-188.76961233
  0
VERTEX
  8
0
 10
-55.11050700
 20
-187.37838933
  0
VERTEX
  8
0
 10
-51.83852600
 20
-186.13265833
 42
-0.02670206
  0
VERTEX
  8
0
 10
-51.43200269
 20
-186.00226173
  0
VERTEX
  8
0
 10
-48.84461519
 20
-185.26208213
 42
-0.02146077
  0
VERTEX
  8
0
 10
-48.51089507
 20
-185.18192898
  0
VERTEX
  8
0
 10
-47.52715600
 20
-184.98987733
  0
VERTEX
  8
0
 10
-46.86574100
 20
-184.90830133
  0
VERTEX
  8
0
 10
-46.91893644
 20
-184.91710172
 42
-0.11313515
  0
VERTEX
  8
0
 10
-45.13503300
 20
-185.02671728
  0
VERTEX
  8
0
 10
-44.34321100
 20
-185.26014833
 42
-0.09012886
  0
VERTEX
  8
0
 10
-43.91734000
 20
-185.47458033
  0
VERTEX
  8
0
 10
-43.63243833
 20
-185.68947127
 42
-0.23975506
  0
VERTEX
  8
0
 10
-43.10220000
 20
-186.77618633
  0
VERTEX
  8
0
 10
-52.26879900
 20
-252.82088433
  0
VERTEX
  8
0
 10
-54.71224500
 20
-254.88002933
  0
VERTEX
  8
0
 10
-57.69168400
 20
-256.59857033
  0
VERTEX
  8
0
 10
-60.90632300
 20
-258.05658133
  0
VERTEX
  8
0
 10
-64.05537200
 20
-259.33413533
  0
SEQEND
  0
POLYLINE
  8
Standard-Ebene
 66
   1
 39
0.000000
 70
    0
  0
VERTEX
  8
0
 10
-64.10603000
 20
-259.38961933
  0
VERTEX
  8
0
 10
-66.46638400
 20
-260.27347233
  0
VERTEX
  8
0
 10
-68.88888200
 20
-261.12650733
  0
VERTEX
  8
0
 10
-71.36474000
 20
-261.93534033
  0
VERTEX
  8
0
 10
-73.88518000
 20
-262.68647733
  0
VERTEX
  8
0
 10
-76.44141900
 20
-263.36653333
  0
VERTEX
  8
0
 10
-79.02463500
 20
-263.96203533
  0
VERTEX
  8
0
 10
-81.62605600
 20
-264.45956533
  0
VERTEX
  8
0
 10
-84.23693700
 20
-264.84564433
  0
VERTEX
  8
0
 10
-86.84844200
 20
-265.10683033
  0
VERTEX
  8
0
 10
-89.45178800
 20
-265.22973833
  0
VERTEX
  8
0
 10
-92.11301100
 20
-265.19364933
  0
VERTEX
  8
0
 10
-94.82080600
 20
-265.25380833
  0
VERTEX
  8
0
 10
-97.61291400
 20
-265.11038333
  0
VERTEX
  8
0
 10
-100.44575100
 20
-264.79863333
  0
VERTEX
  8
0
 10
-103.27577800
 20
-264.35379233
  0
VERTEX
  8
0
 10
-106.05943100
 20
-263.81116133
  0
VERTEX
  8
0
 10
-108.75316200
 20
-263.20590233
  0
VERTEX
  8
0
 10
-108.97752400
 20
-263.04552833
  0
VERTEX
  8
0
 10
-109.12304000
 20
-263.00685433
  0
VERTEX
  8
0
 10
-109.32488000
 20
-263.02980233
  0
VERTEX
  8
0
 10
-111.34881300
 20
-262.26027433
  0
VERTEX
  8
0
 10
-113.37274600
 20
-261.49074533
  0
VERTEX
  8
0
 10
-115.39667800
 20
-260.72121733
  0
VERTEX
  8
0
 10
-117.91513500
 20
-259.37726833
  0
VERTEX
  8
0
 10
-120.40464500
 20
-257.99626533
  0
VERTEX
  8
0
 10
-122.83915300
 20
-256.53363033
  0
VERTEX
  8
0
 10
-125.19260800
 20
-254.94478333
  0
VERTEX
  8
0
 10
-127.43895600
 20
-253.18514433
  0
VERTEX
  8
0
 10
-129.88988800
 20
-251.26386033
  0
VERTEX
  8
0
 10
-133.37645300
 20
-248.08497133
  0
VERTEX
  8
0
 10
-135.64733400
 20
-245.78336433
  0
VERTEX
  8
0
 10
-127.25413800
 20
-236.69447633
  0
VERTEX
  8
0
 10
-130.19276600
 20
-233.98078033
  0
VERTEX
  8
0
 10
-138.17455400
 20
-242.62415933
  0
VERTEX
  8
0
 10
-138.79818200
 20
-240.04116633
  0
VERTEX
  8
0
 10
-139.07955400
 20
-235.88812933
  0
VERTEX
  8
0
 10
-138.96258600
 20
-232.95788033
  0
VERTEX
  8
0
 10
-138.82223800
 20
-230.85461133
  0
VERTEX
  8
0
 10
-138.53764500
 20
-227.91990233
  0
VERTEX
  8
0
 10
-138.31367300
 20
-226.40844433
  0
VERTEX
  8
0
 10
-138.69804200
 20
-224.34834133
  0
VERTEX
  8
0
 10
-139.02610000
 20
-222.43455333
  0
VERTEX
  8
0
 10
-139.19175600
 20
-220.66230933
  0
VERTEX
  8
0
 10
-139.25958400
 20
-218.58618833
 42
-0.17411381
  0
VERTEX
  8
0
 10
-138.42932116
 20
-216.01299319
  0
VERTEX
  8
0
 10
-138.52330416
 20
-216.13487119
 42
-0.16452532
  0
VERTEX
  8
0
 10
-136.39044612
 20
-214.71364073
  0
VERTEX
  8
0
 10
-133.95183800
 20
-214.06059633
  0
VERTEX
  8
0
 10
-133.48725000
 20
-211.74441633
  0
VERTEX
  8
0
 10
-133.28399600
 20
-210.93826633
  0
VERTEX
  8
0
 10
-132.95918500
 20
-209.84422733
  0
VERTEX
  8
0
 10
-132.75838100
 20
-208.64415933
  0
VERTEX
  8
0
 10
-132.40965700
 20
-207.45003933
  0
VERTEX
  8
0
 10
-132.15262000
 20
-206.57921233
  0
VERTEX
  8
0
 10
-131.13980900
 20
-203.03506333
  0
VERTEX
  8
0
 10
-130.12307100
 20
-198.92647033
  0
VERTEX
  8
0
 10
-129.07234300
 20
-195.76964233
  0
VERTEX
  8
0
 10
-128.59177700
 20
-194.30990233
  0
VERTEX
  8
0
 10
-127.84047400
 20
-192.14498633
  0
VERTEX
  8
0
 10
-127.25079500
 20
-190.40222633
  0
VERTEX
  8
0
 10
-126.73841200
 20
-189.27317333
  0
VERTEX
  8
0
 10
-125.45298800
 20
-187.99079433
  0
VERTEX
  8
0
 10
-124.67685500
 20
-187.36029633
  0
VERTEX
  8
0
 10
-122.23111900
 20
-186.04765033
  0
VERTEX
  8
0
 10
-119.43625807
 20
-185.35974342
 42
-0.22992668
  0
VERTEX
  8
0
 10
-118.29731572
 20
-185.60328864
 42
-0.22992668
  0
VERTEX
  8
0
 10
-117.78428644
 20
-186.64890085
  0
VERTEX
  8
0
 10
-117.76074700
 20
-192.33207833
  0
VERTEX
  8
0
 10
-117.76045500
 20
-195.20844333
  0
VERTEX
  8
0
 10
-117.50735000
 20
-198.00204433
  0
VERTEX
  8
0
 10
-116.96428700
 20
-200.69985533
  0
VERTEX
  8
0
 10
-116.09404700
 20
-203.28885533
  0
VERTEX
  8
0
 10
-114.85946500
 20
-205.75597633
  0
VERTEX
  8
0
 10
-113.22336500
 20
-208.08817833
  0
VERTEX
  8
0
 10
-111.14859100
 20
-210.27246733
  0
VERTEX
  8
0
 10
-108.77964200
 20
-212.17621633
  0
VERTEX
  8
0
 10
-106.79959600
 20
-213.99936433
  0
VERTEX
  8
0
 10
-105.19625800
 20
-215.80291933
  0
VERTEX
  8
0
 10
-103.95738200
 20
-217.64801533
  0
VERTEX
  8
0
 10
-103.07072900
 20
-219.59567733
  0
VERTEX
  8
0
 10
-102.52412700
 20
-221.70703233
  0
VERTEX
  8
0
 10
-102.30527500
 20
-224.04308233
  0
VERTEX
  8
0
 10
-102.40195800
 20
-226.66497233
  0
VERTEX
  8
0
 10
-102.76579500
 20
-229.72779033
  0
VERTEX
  8
0
 10
-102.96870000
 20
-230.59381633
  0
VERTEX
  8
0
 10
-103.28095000
 20
-232.17385833
  0
VERTEX
  8
0
 10
-103.33751400
 20
-233.29560433
  0
VERTEX
  8
0
 10
-102.01824000
 20
-233.18285033
  0
VERTEX
  8
0
 10
-100.47061200
 20
-232.68628233
  0
VERTEX
  8
0
 10
-99.34272000
 20
-232.26313333
  0
SEQEND
  0
POLYLINE
  8
Standard-Ebene
 66
   1
 39
0.000000
 70
    0
  0
VERTEX
  8
0
 10
103.17521000
 20
-247.42050633
  0
VERTEX
  8
0
 10
103.11611100
 20
-242.37289833
 42
-0.41421356
  0
VERTEX
  8
0
 10
107.06896700
 20
-238.32638233
  0
VERTEX
  8
0
 10
131.06708200
 20
-238.04540433
 42
-0.41421356
  0
VERTEX
  8
0
 10
135.11359786
 20
-241.99826056
  0
VERTEX
  8
0
 10
135.26969686
 20
-255.33054656
 42
-0.41421356
  0
VERTEX
  8
0
 10
131.31684076
 20
-259.37706219
  0
VERTEX
  8
0
 10
107.31872576
 20
-259.65804019
 42
-0.41421356
  0
VERTEX
  8
0
 10
103.27221000
 20
-255.70518433
  0
VERTEX
  8
0
 10
103.18340700
 20
-248.12055333
  0
VERTEX
  8
0
 10
98.42114900
 20
-248.38434933
  0
SEQEND
  0
POLYLINE
  8
Standard-Ebene
 66
   1
 39
0.000000
 70
    0
  0
VERTEX
  8
0
 10
28.46972200
 20
-66.80046333
  0
VERTEX
  8
0
 10
32.29392100
 20
-67.36720033
  0
VERTEX
  8
0
 10
32.45084700
 20
-66.24878133
  0
VERTEX
  8
0
 10
32.97408000
 20
-63.55237333
  0
VERTEX
  8
0
 10
33.64785600
 20
-60.87429533
  0
VERTEX
  8
0
 10
34.47725300
 20
-58.23650833
  0
VERTEX
  8
0
 10
35.46742800
 20
-55.66097233
  0
VERTEX
  8
0
 10
36.62351800
 20
-53.16961833
  0
VERTEX
  8
0
 10
37.95063500
 20
-50.78439033
  0
VERTEX
  8
0
 10
39.45388600
 20
-48.52723533
  0
VERTEX
  8
0
 10
40.85075000
 20
-46.30903033
  0
VERTEX
  8
0
 10
42.33931700
 20
-44.13399233
  0
VERTEX
  8
0
 10
43.93784800
 20
-42.03844533
  0
VERTEX
  8
0
 10
45.66449900
 20
-40.05873533
  0
VERTEX
  8
0
 10
47.53744200
 20
-38.23131033
  0
VERTEX
  8
0
 10
49.57487500
 20
-36.59245333
  0
VERTEX
  8
0
 10
51.79496900
 20
-35.17853633
  0
VERTEX
  8
0
 10
54.21591200
 20
-34.02596433
  0
VERTEX
  8
0
 10
56.85591700
 20
-33.17104933
  0
VERTEX
  8
0
 10
58.67808200
 20
-32.56355633
  0
VERTEX
  8
0
 10
60.96129600
 20
-31.93426933
  0
VERTEX
  8
0
 10
63.56566600
 20
-31.35653133
  0
VERTEX
  8
0
 10
66.35134000
 20
-30.90354833
  0
VERTEX
  8
0
 10
69.17845400
 20
-30.64864833
  0
VERTEX
  8
0
 10
71.90711200
 20
-30.66509833
  0
VERTEX
  8
0
 10
73.98153543
 20
-30.96585179
 42
-0.05238900
  0
VERTEX
  8
0
 10
74.79174636
 20
-31.17157699
  0
VERTEX
  8
0
 10
75.90503436
 20
-31.58218099
 42
-0.08003360
  0
VERTEX
  8
0
 10
77.01358053
 20
-32.20673107
  0
VERTEX
  8
0
 10
78.29090653
 20
-33.22452507
 42
-0.13238626
  0
VERTEX
  8
0
 10
79.52530400
 20
-34.90072133
  0
VERTEX
  8
0
 10
79.87181600
 20
-35.79010433
  0
VERTEX
  8
0
 10
80.62192000
 20
-38.98785333
  0
VERTEX
  8
0
 10
81.24687100
 20
-42.58583433
  0
VERTEX
  8
0
 10
81.71973700
 20
-45.96401633
  0
VERTEX
  8
0
 10
82.01366100
 20
-48.50244133
  0
VERTEX
  8
0
 10
82.10172600
 20
-49.58103033
  0
VERTEX
  8
0
 10
82.98809900
 20
-52.85215633
  0
VERTEX
  8
0
 10
83.65741100
 20
-56.37003433
  0
VERTEX
  8
0
 10
84.49643500
 20
-59.84215733
  0
VERTEX
  8
0
 10
84.95799900
 20
-61.77441433
  0
VERTEX
  8
0
 10
85.91363000
 20
-65.52573133
  0
VERTEX
  8
0
 10
87.21889900
 20
-69.88623833
 42
-0.01246652
  0
VERTEX
  8
0
 10
87.27130900
 20
-70.07866033
  0
VERTEX
  8
0
 10
87.89492400
 20
-72.61612933
  0
VERTEX
  8
0
 10
88.51487800
 20
-75.23607633
  0
VERTEX
  8
0
 10
88.78897342
 20
-77.33682613
 42
-0.05546389
  0
VERTEX
  8
0
 10
88.80571790
 20
-78.22135944
  0
VERTEX
  8
0
 10
88.69220290
 20
-79.45326944
 42
-0.08895112
  0
VERTEX
  8
0
 10
88.31649300
 20
-80.81439933
  0
VERTEX
  8
0
 10
87.94362900
 20
-81.59272133
 42
-0.10104565
  0
VERTEX
  8
0
 10
86.97744500
 20
-82.86852933
  0
VERTEX
  8
0
 10
86.07239500
 20
-83.66428233
 42
-0.08925400
  0
VERTEX
  8
0
 10
84.85955300
 20
-84.39656133
  0
VERTEX
  8
0
 10
84.64301900
 20
-84.47934133
  0
VERTEX
  8
0
 10
83.85072800
 20
-84.70280533
  0
VERTEX
  8
0
 10
83.57152582
 20
-84.75575515
 42
-0.04328863
  0
VERTEX
  8
0
 10
82.88372589
 20
-84.82538724
  0
VERTEX
  8
0
 10
82.40595600
 20
-84.83225333
  0
VERTEX
  8
0
 10
81.59131900
 20
-84.84730533
  0
VERTEX
  8
0
 10
80.79683100
 20
-84.86876833
  0
VERTEX
  8
0
 10
78.17479400
 20
-84.73490433
  0
VERTEX
  8
0
 10
74.27364200
 20
-84.09591633
  0
VERTEX
  8
0
 10
70.65537100
 20
-83.33187033
  0
VERTEX
  8
0
 10
68.88194500
 20
-82.82292333
  0
VERTEX
  8
0
 10
67.87649200
 20
-82.72093833
  0
VERTEX
  8
0
 10
66.33289800
 20
-82.34243933
  0
VERTEX
  8
0
 10
65.29657100
 20
-82.18076633
  0
VERTEX
  8
0
 10
62.30835000
 20
-81.76129933
  0
VERTEX
  8
0
 10
59.33457900
 20
-81.43895333
  0
VERTEX
  8
0
 10
56.37769300
 20
-81.23357633
  0
VERTEX
  8
0
 10
53.44001000
 20
-81.16515433
  0
VERTEX
  8
0
 10
50.52392200
 20
-81.25366933
  0
VERTEX
  8
0
 10
47.63183600
 20
-81.51898733
  0
VERTEX
  8
0
 10
44.76608500
 20
-81.98112233
  0
VERTEX
  8
0
 10
41.61418900
 20
-83.36341133
  0
VERTEX
  8
0
 10
38.49248100
 20
-84.75535533
  0
VERTEX
  8
0
 10
35.94085819
 20
-85.99041105
 42
-0.36245030
  0
VERTEX
  8
0
 10
34.28314871
 20
-85.57654831
  0
VERTEX
  8
0
 10
33.24278471
 20
-84.15173431
 42
-0.09042309
  0
VERTEX
  8
0
 10
33.03457800
 20
-83.72108433
  0
VERTEX
  8
0
 10
32.44006900
 20
-81.57280533
  0
VERTEX
  8
0
 10
32.04644600
 20
-79.33016833
  0
VERTEX
  8
0
 10
31.97117400
 20
-77.53231533
  0
VERTEX
  8
0
 10
31.76943700
 20
-74.05981833
  0
VERTEX
  8
0
 10
31.83548100
 20
-71.60885233
  0
VERTEX
  8
0
 10
32.07301700
 20
-68.94158933
  0
VERTEX
  8
0
 10
32.21271800
 20
-67.94593733
  0
SEQEND
  0
POLYLINE
  8
Standard-Ebene
 66
   1
 39
0.000000
 70
    0
  0
VERTEX
  8
0
 10
24.93531200
 20
-171.71762733
  0
VERTEX
  8
0
 10
24.25912000
 20
-173.14386333
  0
VERTEX
  8
0
 10
23.42728400
 20
-175.10529533
  0
VERTEX
  8
0
 10
22.89310900
 20
-176.65271733
  0
VERTEX
  8
0
 10
22.23959600
 20
-178.41899933
  0
VERTEX
  8
0
 10
21.49377600
 20
-180.60954333
  0
VERTEX
  8
0
 10
20.76955000
 20
-183.76048533
  0
VERTEX
  8
0
 10
20.03773200
 20
-187.10818033
  0
VERTEX
  8
0
 10
19.56964300
 20
-190.13157333
 42
0.03364923
  0
VERTEX
  8
0
 10
19.52327500
 20
-190.66734433
  0
VERTEX
  8
0
 10
19.49858929
 20
-191.96257194
 42
0.17138804
  0
VERTEX
  8
0
 10
20.33763800
 20
-194.49091733
  0
VERTEX
  8
0
 10
20.13889275
 20
-194.23478373
 42
0.24224991
  0
VERTEX
  8
0
 10
23.45818492
 20
-195.77945467
  0
VERTEX
  8
0
 10
24.06406600
 20
-195.75533533
  0
VERTEX
  8
0
 10
90.72997400
 20
-171.81917533
  0
VERTEX
  8
0
 10
94.00306200
 20
-176.24191933
  0
VERTEX
  8
0
 10
95.79200900
 20
-178.70976633
  0
VERTEX
  8
0
 10
97.87791700
 20
-180.97846033
  0
VERTEX
  8
0
 10
99.16513789
 20
-182.22407071
 42
0.15642469
  0
VERTEX
  8
0
 10
101.35566400
 20
-183.30564833
  0
VERTEX
  8
0
 10
103.84133045
 20
-183.67700492
 42
0.24652744
  0
VERTEX
  8
0
 10
105.01185274
 20
-183.26937307
 42
0.24652744
  0
VERTEX
  8
0
 10
105.34108736
 20
-182.07442926
  0
VERTEX
  8
0
 10
103.05986100
 20
-171.60612033
  0
VERTEX
  8
0
 10
102.43457800
 20
-168.99426233
  0
VERTEX
  8
0
 10
101.75660400
 20
-166.36707433
  0
VERTEX
  8
0
 10
101.02918500
 20
-163.70891533
  0
VERTEX
  8
0
 10
100.31432800
 20
-161.20915433
  0
VERTEX
  8
0
 10
99.69671200
 20
-159.68006133
  0
VERTEX
  8
0
 10
98.75008700
 20
-156.38884233
  0
VERTEX
  8
0
 10
100.99702100
 20
-157.23277133
  0
VERTEX
  8
0
 10
101.74906300
 20
-157.44419433
 42
0.12045827
  0
VERTEX
  8
0
 10
103.64769328
 20
-157.50933608
  0
VERTEX
  8
0
 10
103.40513300
 20
-157.55988733
 42
0.11861695
  0
VERTEX
  8
0
 10
105.09712000
 20
-156.76003233
  0
VERTEX
  8
0
 10
105.10657400
 20
-156.75242233
 42
0.15717624
  0
VERTEX
  8
0
 10
105.55575600
 20
-156.06871933
  0
VERTEX
  8
0
 10
105.74331700
 20
-155.38960633
 42
0.07387622
  0
VERTEX
  8
0
 10
105.88636339
 20
-154.22274975
  0
VERTEX
  8
0
 10
105.84385900
 20
-152.55641833
  0
VERTEX
  8
0
 10
105.38438200
 20
-149.89316733
  0
VERTEX
  8
0
 10
104.63908700
 20
-147.01841533
  0
VERTEX
  8
0
 10
103.72397600
 20
-144.12352733
  0
VERTEX
  8
0
 10
102.75505300
 20
-141.39986533
  0
VERTEX
  8
0
 10
101.84831900
 20
-139.03879633
  0
VERTEX
  8
0
 10
101.11977800
 20
-137.23168133
  0
VERTEX
  8
0
 10
100.68543200
 20
-136.16988733
  0
VERTEX
  8
0
 10
100.12233600
 20
-135.14727733
  0
VERTEX
  8
0
 10
99.19028500
 20
-133.00568133
  0
VERTEX
  8
0
 10
103.09351100
 20
-134.48871733
 42
0.04897155
  0
VERTEX
  8
0
 10
103.34495300
 20
-134.55701933
  0
VERTEX
  8
0
 10
104.53158231
 20
-134.75750685
 42
0.24694733
  0
VERTEX
  8
0
 10
105.71113600
 20
-134.37075833
  0
VERTEX
  8
0
 10
106.74684605
 20
-133.30213186
 42
0.24732984
  0
VERTEX
  8
0
 10
107.09613200
 20
-132.10917433
  0
VERTEX
  8
0
 10
106.91350300
 20
-131.20869333
  0
VERTEX
  8
0
 10
106.44160400
 20
-129.85300133
  0
VERTEX
  8
0
 10
105.87567300
 20
-128.61824833
  0
VERTEX
  8
0
 10
104.53672800
 20
-125.73630933
  0
VERTEX
  8
0
 10
103.29877100
 20
-123.82414933
  0
VERTEX
  8
0
 10
101.05113900
 20
-120.46261033
  0
VERTEX
  8
0
 10
98.83130600
 20
-117.26937233
  0
VERTEX
  8
0
 10
97.69505600
 20
-115.88436933
  0
VERTEX
  8
0
 10
99.55801800
 20
-115.47195633
 42
0.08097166
  0
VERTEX
  8
0
 10
99.95653200
 20
-115.31303833
  0
VERTEX
  8
0
 10
100.80008315
 20
-114.80619089
 42
0.16839294
  0
VERTEX
  8
0
 10
101.36008220
 20
-114.13604656
  0
VERTEX
  8
0
 10
101.73924420
 20
-113.13613056
 42
0.22103656
  0
VERTEX
  8
0
 10
101.65767821
 20
-112.01515670
  0
VERTEX
  8
0
 10
100.55441021
 20
-110.03214570
 42
0.07784774
  0
VERTEX
  8
0
 10
100.30037956
 20
-109.70691421
  0
VERTEX
  8
0
 10
97.78819100
 20
-107.35566233
  0
VERTEX
  8
0
 10
95.32875400
 20
-105.14309133
  0
VERTEX
  8
0
 10
93.07536100
 20
-103.33177833
  0
VERTEX
  8
0
 10
91.97479600
 20
-102.37630433
  0
VERTEX
  8
0
 10
91.40481400
 20
-102.01756233
  0
VERTEX
  8
0
 10
92.33074747
 20
-101.36373991
 42
0.06879700
  0
VERTEX
  8
0
 10
92.59740100
 20
-101.11422833
  0
VERTEX
  8
0
 10
93.03842300
 20
-100.57021233
 42
0.10245909
  0
VERTEX
  8
0
 10
93.28670362
 20
-100.08981152
  0
VERTEX
  8
0
 10
93.45926862
 20
-99.47302852
 42
0.21568696
  0
VERTEX
  8
0
 10
93.29277204
 20
-98.38652759
  0
VERTEX
  8
0
 10
92.56470504
 20
-97.26776659
 42
0.10099255
  0
VERTEX
  8
0
 10
92.19040115
 20
-96.88805476
  0
VERTEX
  8
0
 10
90.59583615
 20
-95.81747476
 42
0.06252471
  0
VERTEX
  8
0
 10
90.29914742
 20
-95.66811536
  0
VERTEX
  8
0
 10
87.98443800
 20
-94.84542433
  0
VERTEX
  8
0
 10
85.24296200
 20
-94.30841333
  0
VERTEX
  8
0
 10
82.47645000
 20
-94.01796733
  0
VERTEX
  8
0
 10
79.92898300
 20
-93.87894533
  0
VERTEX
  8
0
 10
77.55442800
 20
-93.78467033
  0
VERTEX
  8
0
 10
78.34010300
 20
-91.88987933
  0
VERTEX
  8
0
 10
78.54351406
 20
-91.18675661
 42
0.23824229
  0
VERTEX
  8
0
 10
78.32097661
 20
-90.00516276
  0
VERTEX
  8
0
 10
77.59906461
 20
-89.06322276
 42
0.15384463
  0
VERTEX
  8
0
 10
76.94282179
 20
-88.60301733
  0
VERTEX
  8
0
 10
75.80766379
 20
-88.24404033
 42
0.06938754
  0
VERTEX
  8
0
 10
75.44454236
 20
-88.18255586
  0
VERTEX
  8
0
 10
73.69113800
 20
-88.13138033
  0
VERTEX
  8
0
 10
71.25519700
 20
-87.99831033
  0
VERTEX
  8
0
 10
68.82246700
 20
-88.06733033
  0
VERTEX
  8
0
 10
66.51947300
 20
-88.58240633
  0
VERTEX
  8
0
 10
56.53707700
 20
-102.61334233
  0
VERTEX
  8
0
 10
53.27781900
 20
-100.29452333
  0
VERTEX
  8
0
 10
60.76590300
 20
-89.76951333
  0
VERTEX
  8
0
 10
54.42770900
 20
-90.00025933
  0
VERTEX
  8
0
 10
51.76345300
 20
-90.64270733
  0
VERTEX
  8
0
 10
49.13330000
 20
-91.43203933
  0
VERTEX
  8
0
 10
46.53502200
 20
-92.34686633
  0
VERTEX
  8
0
 10
43.96653000
 20
-93.36585333
  0
VERTEX
  8
0
 10
41.42562800
 20
-94.46760533
  0
VERTEX
  8
0
 10
38.91016300
 20
-95.63082833
  0
VERTEX
  8
0
 10
36.41800600
 20
-96.83412233
  0
VERTEX
  8
0
 10
33.94692800
 20
-98.05609833
  0
VERTEX
  8
0
 10
31.49487800
 20
-99.27545033
  0
VERTEX
  8
0
 10
29.05962500
 20
-100.47078833
  0
VERTEX
  8
0
 10
26.63901400
 20
-101.62078433
  0
VERTEX
  8
0
 10
24.23091700
 20
-102.70403833
  0
VERTEX
  8
0
 10
22.19172200
 20
-103.89715833
  0
VERTEX
  8
0
 10
20.21352900
 20
-104.93483333
  0
VERTEX
  8
0
 10
18.36932800
 20
-105.79554933
  0
VERTEX
  8
0
 10
15.07162300
 20
-107.66546833
  0
VERTEX
  8
0
 10
11.84362300
 20
-109.47662033
  0
VERTEX
  8
0
 10
8.87654400
 20
-111.27177633
  0
VERTEX
  8
0
 10
7.67823000
 20
-112.39544833
  0
VERTEX
  8
0
 10
6.84233700
 20
-113.46403033
  0
VERTEX
  8
0
 10
6.27874200
 20
-114.64301133
  0
VERTEX
  8
0
 10
4.98645600
 20
-118.19286433
  0
VERTEX
  8
0
 10
3.60807600
 20
-122.78499933
  0
VERTEX
  8
0
 10
3.30342090
 20
-123.61439907
 42
0.28095806
  0
VERTEX
  8
0
 10
3.57357726
 20
-124.97666930
 42
0.28095806
  0
VERTEX
  8
0
 10
4.90850700
 20
-125.35971833
  0
VERTEX
  8
0
 10
4.78330700
 20
-125.39414733
  0
VERTEX
  8
0
 10
7.29012900
 20
-124.54642033
  0
VERTEX
  8
0
 10
10.14695700
 20
-123.65221133
  0
VERTEX
  8
0
 10
14.26691400
 20
-122.67538533
  0
VERTEX
  8
0
 10
14.63151700
 20
-125.06430633
  0
VERTEX
  8
0
 10
12.11504700
 20
-126.09427233
  0
VERTEX
  8
0
 10
9.12962400
 20
-128.22886033
  0
VERTEX
  8
0
 10
7.16276200
 20
-130.05886833
  0
VERTEX
  8
0
 10
8.21222300
 20
-130.57079633
  0
VERTEX
  8
0
 10
8.22808000
 20
-130.58363333
 42
0.09139611
  0
VERTEX
  8
0
 10
9.50196600
 20
-131.27668533
  0
VERTEX
  8
0
 10
10.54222201
 20
-131.61677371
 42
0.14328719
  0
VERTEX
  8
0
 10
12.78756883
 20
-131.68715977
  0
VERTEX
  8
0
 10
13.62201583
 20
-131.47115477
 42
0.09067667
  0
VERTEX
  8
0
 10
14.92749404
 20
-130.86585186
  0
VERTEX
  8
0
 10
16.79720600
 20
-129.54506333
  0
VERTEX
  8
0
 10
18.52510800
 20
-127.82524433
 42
-0.08757220
  0
VERTEX
  8
0
 10
19.66611900
 20
-127.03056133
  0
VERTEX
  8
0
 10
20.80928500
 20
-126.50121333
  0
VERTEX
  8
0
 10
23.11895400
 20
-125.71529133
  0
VERTEX
  8
0
 10
25.76412900
 20
-125.06437333
  0
VERTEX
  8
0
 10
28.55456700
 20
-124.64354533
  0
VERTEX
  8
0
 10
31.29994400
 20
-124.54776633
  0
VERTEX
  8
0
 10
33.05230000
 20
-124.77419633
 42
-0.09463865
  0
VERTEX
  8
0
 10
34.47818400
 20
-125.24232133
  0
VERTEX
  8
0
 10
35.74097500
 20
-125.94194833
  0
VERTEX
  8
0
 10
37.36263800
 20
-127.16101033
  0
VERTEX
  8
0
 10
40.11988000
 20
-128.93945233
  0
VERTEX
  8
0
 10
42.24550400
 20
-129.97830933
 42
0.04897539
  0
VERTEX
  8
0
 10
42.97801600
 20
-130.25128833
  0
VERTEX
  8
0
 10
44.55950259
 20
-130.67004369
 42
0.05858815
  0
VERTEX
  8
0
 10
45.48432000
 20
-130.80207233
  0
VERTEX
  8
0
 10
47.58330300
 20
-130.85405533
  0
VERTEX
  8
0
 10
50.52189400
 20
-130.33713833
  0
VERTEX
  8
0
 10
54.04600700
 20
-129.23527233
  0
VERTEX
  8
0
 10
55.11581300
 20
-128.66917633
  0
VERTEX
  8
0
 10
56.43640200
 20
-128.14048933
  0
VERTEX
  8
0
 10
57.88469400
 20
-127.73789433
  0
VERTEX
  8
0
 10
57.83855700
 20
-129.47251633
  0
VERTEX
  8
0
 10
57.52191382
 20
-131.31699125
 42
-0.06474875
  0
VERTEX
  8
0
 10
57.29361200
 20
-132.34882933
  0
VERTEX
  8
0
 10
56.84763000
 20
-133.76970933
  0
VERTEX
  8
0
 10
55.63476500
 20
-136.62256933
  0
VERTEX
  8
0
 10
53.83481400
 20
-139.17009133
  0
VERTEX
  8
0
 10
51.76638500
 20
-141.50536133
  0
VERTEX
  8
0
 10
49.64260200
 20
-143.69339933
  0
VERTEX
  8
0
 10
47.67658700
 20
-145.79922433
  0
VERTEX
  8
0
 10
47.67948800
 20
-145.83145133
  0
VERTEX
  8
0
 10
47.68172000
 20
-145.85624833
  0
VERTEX
  8
0
 10
47.68261100
 20
-145.86615333
  0
VERTEX
  8
0
 10
45.32716400
 20
-147.83491433
  0
VERTEX
  8
0
 10
42.29424200
 20
-150.68932033
  0
VERTEX
  8
0
 10
40.79905800
 20
-152.22079033
  0
VERTEX
  8
0
 10
38.46163100
 20
-154.27206633
  0
VERTEX
  8
0
 10
36.15278000
 20
-156.37096733
  0
VERTEX
  8
0
 10
33.94637900
 20
-158.52865733
  0
VERTEX
  8
0
 10
31.91630200
 20
-160.75630033
  0
VERTEX
  8
0
 10
30.13642200
 20
-163.06505733
  0
VERTEX
  8
0
 10
29.59601800
 20
-163.79854933
  0
VERTEX
  8
0
 10
29.15188100
 20
-164.39814633
  0
VERTEX
  8
0
 10
28.70662600
 20
-165.00210533
  0
VERTEX
  8
0
 10
27.64143700
 20
-166.56866233
  0
VERTEX
  8
0
 10
25.87476600
 20
-169.73611133
  0
VERTEX
  8
0
 10
25.45746700
 20
-170.61628633
  0
VERTEX
  8
0
 10
16.88477900
 20
-166.61276133
  0
SEQEND
  0
POLYLINE
  8
Standard-Ebene
 66
   1
 39
0.000000
 70
    0
  0
VERTEX
  8
0
 10
16.11001200
 20
-202.03643233
  0
VERTEX
  8
0
 10
13.02122900
 20
-207.95223533
  0
VERTEX
  8
0
 10
13.44975800
 20
-208.16434833
  0
VERTEX
  8
0
 10
20.04186200
 20
-211.34720033
 42
-0.41565050
  0
VERTEX
  8
0
 10
21.27807568
 20
-214.91979762
  0
VERTEX
  8
0
 10
15.42762300
 20
-226.88663333
  0
VERTEX
  8
0
 10
26.23397100
 20
-232.10423933
  0
VERTEX
  8
0
 10
17.17608600
 20
-250.63173133
  0
VERTEX
  8
0
 10
20.76958800
 20
-252.38855433
  0
VERTEX
  8
0
 10
29.23898100
 20
-235.06479733
  0
VERTEX
  8
0
 10
33.21501200
 20
-237.80865733
 42
-0.41565050
  0
VERTEX
  8
0
 10
34.45122500
 20
-241.38125433
  0
VERTEX
  8
0
 10
22.96508600
 20
-264.59423533
 42
-0.41277809
  0
VERTEX
  8
0
 10
19.40996500
 20
-265.82440233
  0
VERTEX
  8
0
 10
1.38760800
 20
-257.12270633
  0
VERTEX
  8
0
 10
-2.12890216
 20
-264.31556897
 42
-0.41277809
  0
VERTEX
  8
0
 10
-3.90646305
 20
-264.93065228
  0
VERTEX
  8
0
 10
-9.30963705
 20
-262.32184928
 42
-0.41565050
  0
VERTEX
  8
0
 10
-9.92774384
 20
-260.53555068
  0
VERTEX
  8
0
 10
-2.46827100
 20
-245.27753833
  0
VERTEX
  8
0
 10
-4.26502200
 20
-244.39912633
  0
VERTEX
  8
0
 10
-6.06177300
 20
-243.52071533
  0
VERTEX
  8
0
 10
-13.52124600
 20
-258.77872733
 42
-0.41565050
  0
VERTEX
  8
0
 10
-15.31055400
 20
-259.38806733
  0
VERTEX
  8
0
 10
-20.68788419
 20
-256.72640124
 42
-0.41277808
  0
VERTEX
  8
0
 10
-21.29424400
 20
-254.94584633
  0
VERTEX
  8
0
 10
-17.77773300
 20
-247.75298433
  0
VERTEX
  8
0
 10
-35.71388637
 20
-238.87496415
 42
-0.41277808
  0
VERTEX
  8
0
 10
-36.92660568
 20
-235.31385303
  0
VERTEX
  8
0
 10
-25.66253168
 20
-211.99230703
 42
-0.41565050
  0
VERTEX
  8
0
 10
-22.08391563
 20
-210.77362650
  0
VERTEX
  8
0
 10
-17.47653900
 20
-212.22609833
  0
VERTEX
  8
0
 10
-25.94593200
 20
-229.54985633
  0
VERTEX
  8
0
 10
-22.35243000
 20
-231.30667933
  0
VERTEX
  8
0
 10
-13.29454500
 20
-212.77918733
  0
VERTEX
  8
0
 10
-2.53988500
 20
-218.10251833
  0
VERTEX
  8
0
 10
3.31056832
 20
-206.13568303
 42
-0.41565050
  0
VERTEX
  8
0
 10
6.88918437
 20
-204.91700250
  0
VERTEX
  8
0
 10
12.38211000
 20
-207.63588533
  0
SEQEND
  0
POLYLINE
  8
Standard-Ebene
 66
   1
 39
0.000000
 70
    0
  0
VERTEX
  8
0
 10
-24.55975600
 20
-100.31682633
  0
VERTEX
  8
0
 10
-25.38113800
 20
-100.46658233
  0
VERTEX
  8
0
 10
-27.78123500
 20
-100.86557733
  0
VERTEX
  8
0
 10
-29.99018900
 20
-101.15701633
  0
VERTEX
  8
0
 10
-32.08096565
 20
-101.23921555
 42
-0.06852831
  0
VERTEX
  8
0
 10
-33.16709451
 20
-101.13292897
  0
VERTEX
  8
0
 10
-33.27757551
 20
-101.10654797
 42
-0.18411571
  0
VERTEX
  8
0
 10
-35.63149285
 20
-99.50117480
  0
SEQEND
  0
POLYLINE
  8
Standard-Ebene
 66
   1
 39
0.000000
 70
    0
  0
VERTEX
  8
0
 10
-114.08659900
 20
-130.22190033
  0
VERTEX
  8
0
 10
-113.01158300
 20
-129.88333933
  0
VERTEX
  8
0
 10
-111.94276100
 20
-129.52323433
  0
VERTEX
  8
0
 10
-110.81802400
 20
-129.11443533
  0
VERTEX
  8
0
 10
-109.75567700
 20
-128.69758333
  0
VERTEX
  8
0
 10
-108.56150100
 20
-128.22357633
  0
VERTEX
  8
0
 10
-107.31576400
 20
-127.68113133
  0
VERTEX
  8
0
 10
-106.09873500
 20
-127.05896433
  0
VERTEX
  8
0
 10
-104.99068300
 20
-126.34579233
  0
VERTEX
  8
0
 10
-104.07187700
 20
-125.53033233
  0
VERTEX
  8
0
 10
-103.65369500
 20
-124.93198133
 42
0.08346484
  0
VERTEX
  8
0
 10
-103.31229695
 20
-124.21322954
  0
VERTEX
  8
0
 10
-103.25134795
 20
-123.99876554
 42
0.09683970
  0
VERTEX
  8
0
 10
-103.17424215
 20
-123.08098419
  0
VERTEX
  8
0
 10
-103.20902115
 20
-122.76393419
 42
0.08459684
  0
VERTEX
  8
0
 10
-103.43035200
 20
-121.98855433
  0
VERTEX
  8
0
 10
-103.89448300
 20
-121.01993733
  0
VERTEX
  8
0
 10
-104.07996200
 20
-120.80444733
  0
VERTEX
  8
0
 10
-104.04300800
 20
-120.83772233
 42
0.07128029
  0
VERTEX
  8
0
 10
-104.60845300
 20
-120.45851933
  0
VERTEX
  8
0
 10
-105.72764639
 20
-119.92006699
 42
0.06998685
  0
VERTEX
  8
0
 10
-106.36463907
 20
-119.71695168
  0
VERTEX
  8
0
 10
-108.37563089
 20
-119.37396998
 42
-0.03622657
  0
VERTEX
  8
0
 10
-108.71288021
 20
-119.29095688
  0
VERTEX
  8
0
 10
-110.23950300
 20
-118.79558133
  0
VERTEX
  8
0
 10
-111.85911000
 20
-118.26131033
  0
VERTEX
  8
0
 10
-114.58146100
 20
-117.34485333
  0
VERTEX
  8
0
 10
-116.04977700
 20
-116.75311833
  0
VERTEX
  8
0
 10
-116.42088300
 20
-116.60808833
  0
VERTEX
  8
0
 10
-116.78336600
 20
-116.46058033
  0
VERTEX
  8
0
 10
-117.14154900
 20
-116.31183433
  0
VERTEX
  8
0
 10
-118.91536000
 20
-115.43314033
  0
VERTEX
  8
0
 10
-120.61349200
 20
-114.50248233
  0
VERTEX
  8
0
 10
-122.25320700
 20
-113.52986033
  0
VERTEX
  8
0
 10
-123.85177000
 20
-112.52527033
  0
VERTEX
  8
0
 10
-125.42644200
 20
-111.49870933
  0
VERTEX
  8
0
 10
-125.95341900
 20
-111.23300733
  0
VERTEX
  8
0
 10
-126.38881400
 20
-110.91301533
  0
VERTEX
  8
0
 10
-126.60176400
 20
-110.76679933
  0
VERTEX
  8
0
 10
-127.76941000
 20
-109.96432233
  0
VERTEX
  8
0
 10
-129.54438500
 20
-108.80036933
  0
VERTEX
  8
0
 10
-130.48276700
 20
-108.21165933
  0
VERTEX
  8
0
 10
-131.86168200
 20
-107.42225933
  0
VERTEX
  8
0
 10
-133.31529800
 20
-106.87064233
  0
VERTEX
  8
0
 10
-134.81097000
 20
-106.55923333
  0
VERTEX
  8
0
 10
-136.31605400
 20
-106.49045633
  0
VERTEX
  8
0
 10
-137.79789300
 20
-106.66671333
  0
VERTEX
  8
0
 10
-138.34144900
 20
-106.82822133
  0
VERTEX
  8
0
 10
-139.30666800
 20
-103.41145433
  0
SEQEND
  0
POLYLINE
  8
Standard-Ebene
 66
   1
 39
0.000000
 70
    0
  0
VERTEX
  8
0
 10
-138.69554100
 20
-106.93343333
  0
VERTEX
  8
0
 10
-139.22382800
 20
-107.09040333
  0
VERTEX
  8
0
 10
-140.56121500
 20
-107.76395233
  0
VERTEX
  8
0
 10
-141.77741000
 20
-108.68978433
  0
VERTEX
  8
0
 10
-142.21045300
 20
-109.17242533
  0
VERTEX
  8
0
 10
-142.77256600
 20
-109.75742933
  0
VERTEX
  8
0
 10
-143.10437600
 20
-110.05714933
  0
VERTEX
  8
0
 10
-143.71870100
 20
-110.89023133
  0
VERTEX
  8
0
 10
-144.32192500
 20
-111.72945633
  0
VERTEX
  8
0
 10
-144.91961200
 20
-112.57174633
  0
VERTEX
  8
0
 10
-145.47041600
 20
-113.60411233
  0
VERTEX
  8
0
 10
-145.74726400
 20
-114.40535833
  0
VERTEX
  8
0
 10
-129.96051200
 20
-116.49645933
  0
VERTEX
  8
0
 10
-130.48575600
 20
-120.46178333
  0
VERTEX
  8
0
 10
-146.89973300
 20
-118.28760133
  0
VERTEX
  8
0
 10
-147.16034300
 20
-119.46903833
 42
0.09062554
  0
VERTEX
  8
0
 10
-147.19170500
 20
-120.33137733
  0
VERTEX
  8
0
 10
-147.00194500
 20
-121.63631633
  0
VERTEX
  8
0
 10
-146.76171500
 20
-123.30143033
  0
VERTEX
  8
0
 10
-146.26364100
 20
-124.92656833
  0
VERTEX
  8
0
 10
-145.54089400
 20
-126.49076633
  0
VERTEX
  8
0
 10
-144.62666500
 20
-127.97313033
  0
VERTEX
  8
0
 10
-143.55409300
 20
-129.35273033
  0
VERTEX
  8
0
 10
-142.35637300
 20
-130.60867033
  0
VERTEX
  8
0
 10
-142.13294600
 20
-130.75885933
  0
VERTEX
  8
0
 10
-141.75733200
 20
-131.03310833
  0
VERTEX
  8
0
 10
-141.34743100
 20
-131.19962433
  0
VERTEX
  8
0
 10
-141.34578300
 20
-131.20535933
  0
VERTEX
  8
0
 10
-141.34165500
 20
-131.21971633
  0
VERTEX
  8
0
 10
-141.33629200
 20
-131.23837433
  0
VERTEX
  8
0
 10
-140.07698300
 20
-131.83550933
  0
VERTEX
  8
0
 10
-138.72632400
 20
-132.29743333
  0
VERTEX
  8
0
 10
-137.29863400
 20
-132.63694433
  0
VERTEX
  8
0
 10
-135.80821800
 20
-132.86688133
  0
VERTEX
  8
0
 10
-134.26936400
 20
-133.00008033
  0
VERTEX
  8
0
 10
-132.69637500
 20
-133.04931433
  0
VERTEX
  8
0
 10
-131.10357900
 20
-133.02742933
  0
VERTEX
  8
0
 10
-129.50524300
 20
-132.94725233
  0
VERTEX
  8
0
 10
-127.91568400
 20
-132.82158333
  0
VERTEX
  8
0
 10
-126.34921000
 20
-132.66326233
  0
VERTEX
  8
0
 10
-124.82013300
 20
-132.48510933
  0
VERTEX
  8
0
 10
-123.34273100
 20
-132.29991233
  0
VERTEX
  8
0
 10
-121.93131200
 20
-132.12051133
  0
VERTEX
  8
0
 10
-120.02184400
 20
-131.72136733
  0
VERTEX
  8
0
 10
-118.08079600
 20
-131.26789733
  0
VERTEX
  8
0
 10
-116.11490500
 20
-130.76403333
  0
VERTEX
  8
0
 10
-114.13091900
 20
-130.21366533
  0
SEQEND
  0
POLYLINE
  8
Standard-Ebene
 66
   1
 39
0.000000
 70
    0
  0
VERTEX
  8
0
 10
-108.04034800
 20
-193.84769933
  0
VERTEX
  8
0
 10
-110.26809100
 20
-191.23763133
  0
VERTEX
  8
0
 10
-112.41284000
 20
-188.62217233
  0
VERTEX
  8
0
 10
-114.46396900
 20
-186.00878133
  0
VERTEX
  8
0
 10
-116.41080100
 20
-183.40486833
  0
VERTEX
  8
0
 10
-117.67513900
 20
-181.39875933
  0
VERTEX
  8
0
 10
-118.99466800
 20
-179.29704233
  0
VERTEX
  8
0
 10
-120.33992400
 20
-177.11229833
  0
VERTEX
  8
0
 10
-121.68153500
 20
-174.85709733
  0
VERTEX
  8
0
 10
-122.99006100
 20
-172.54404033
  0
VERTEX
  8
0
 10
-124.23603600
 20
-170.18570833
  0
VERTEX
  8
0
 10
-125.39004600
 20
-167.79472233
  0
VERTEX
  8
0
 10
-126.42266800
 20
-165.38361033
  0
VERTEX
  8
0
 10
-127.30441600
 20
-162.96497833
  0
VERTEX
  8
0
 10
-128.00592100
 20
-160.55144433
  0
VERTEX
  8
0
 10
-128.49774000
 20
-158.15556333
  0
VERTEX
  8
0
 10
-128.75040800
 20
-155.78991333
  0
VERTEX
  8
0
 10
-128.73450900
 20
-153.46711633
  0
VERTEX
  8
0
 10
-128.71009500
 20
-153.44588233
  0
VERTEX
  8
0
 10
-128.69131000
 20
-153.42954233
  0
VERTEX
  8
0
 10
-128.68380500
 20
-153.42301533
  0
VERTEX
  8
0
 10
-128.72070500
 20
-152.68655233
  0
VERTEX
  8
0
 10
-128.57071400
 20
-151.92607133
  0
VERTEX
  8
0
 10
-128.50104700
 20
-151.48282333
  0
VERTEX
  8
0
 10
-127.44648700
 20
-148.78943333
  0
VERTEX
  8
0
 10
-126.11702700
 20
-146.19809333
  0
VERTEX
  8
0
 10
-124.52087700
 20
-143.77365233
  0
VERTEX
  8
0
 10
-122.66633500
 20
-141.58091033
  0
VERTEX
  8
0
 10
-120.56160900
 20
-139.68471633
  0
VERTEX
  8
0
 10
-118.21502900
 20
-138.14993833
  0
VERTEX
  8
0
 10
-116.37707900
 20
-136.94488733
 42
-0.09062554
  0
VERTEX
  8
0
 10
-115.05219000
 20
-136.38539033
  0
VERTEX
  8
0
 10
-113.47827146
 20
-136.03537815
 42
-0.04953183
  0
VERTEX
  8
0
 10
-111.21911216
 20
-135.64731943
  0
VERTEX
  8
0
 10
-107.24089400
 20
-135.04300333
  0
VERTEX
  8
0
 10
-105.00218900
 20
-134.81102633
  0
VERTEX
  8
0
 10
-103.05486200
 20
-134.91664133
  0
VERTEX
  8
0
 10
-101.36170800
 20
-135.22685333
  0
VERTEX
  8
0
 10
-99.66928600
 20
-135.54758833
  0
VERTEX
  8
0
 10
-97.97833400
 20
-135.88941733
  0
VERTEX
  8
0
 10
-97.29200400
 20
-136.17978433
  0
VERTEX
  8
0
 10
-96.01259100
 20
-136.61731933
  0
VERTEX
  8
0
 10
-94.97866100
 20
-136.93189533
  0
VERTEX
  8
0
 10
-92.72401000
 20
-138.11775333
  0
VERTEX
  8
0
 10
-90.76521800
 20
-139.66425433
  0
VERTEX
  8
0
 10
-90.15628000
 20
-140.35191833
  0
SEQEND
  0
POLYLINE
  8
Standard-Ebene
 66
   1
 39
0.000000
 70
    0
  0
VERTEX
  8
0
 10
-108.02159900
 20
-193.92045333
  0
VERTEX
  8
0
 10
-106.75355100
 20
-195.30631633
  0
VERTEX
  8
0
 10
-105.45731100
 20
-196.66765933
  0
VERTEX
  8
0
 10
-104.04815600
 20
-198.07921133
  0
VERTEX
  8
0
 10
-102.67074200
 20
-199.39083433
  0
VERTEX
  8
0
 10
-101.11420200
 20
-200.86140233
  0
VERTEX
  8
0
 10
-99.41798000
 20
-202.36170433
  0
VERTEX
  8
0
 10
-97.62151900
 20
-203.76252933
  0
VERTEX
  8
0
 10
-95.76426000
 20
-204.93466733
  0
VERTEX
  8
0
 10
-93.88564800
 20
-205.74890733
  0
VERTEX
  8
0
 10
-92.68736292
 20
-205.95959970
 42
0.08346484
  0
VERTEX
  8
0
 10
-91.36121500
 20
-205.96955333
  0
VERTEX
  8
0
 10
-90.99431000
 20
-205.91070433
 42
0.09683969
  0
VERTEX
  8
0
 10
-89.55346684
 20
-205.38129775
  0
VERTEX
  8
0
 10
-89.09894684
 20
-205.10562675
 42
0.08459684
  0
VERTEX
  8
0
 10
-88.08327000
 20
-204.22556133
  0
VERTEX
  8
0
 10
-86.94652500
 20
-202.84268033
  0
VERTEX
  8
0
 10
-86.75149600
 20
-202.41080633
  0
VERTEX
  8
0
 10
-86.77576129
 20
-202.49005298
 42
0.07128029
  0
VERTEX
  8
0
 10
-86.60080100
 20
-201.36891533
  0
VERTEX
  8
0
 10
-86.57495287
 20
-199.29910273
 42
0.06998685
  0
VERTEX
  8
0
 10
-86.71637692
 20
-198.19379328
  0
VERTEX
  8
0
 10
-87.61345608
 20
-194.91422037
 42
-0.03622657
  0
VERTEX
  8
0
 10
-87.72538269
 20
-194.34628471
  0
VERTEX
  8
0
 10
-88.05134800
 20
-191.69124633
  0
VERTEX
  8
0
 10
-88.38398700
 20
-188.86835433
  0
VERTEX
  8
0
 10
-88.91528900
 20
-184.11047633
  0
VERTEX
  8
0
 10
-89.05464000
 20
-181.47571233
  0
VERTEX
  8
0
 10
-89.09669900
 20
-180.81298233
  0
VERTEX
  8
0
 10
-89.12894500
 20
-180.16153333
  0
VERTEX
  8
0
 10
-89.15629600
 20
-179.51571233
  0
VERTEX
  8
0
 10
-89.07710500
 20
-176.21745833
  0
VERTEX
  8
0
 10
-88.86614900
 20
-172.99697133
  0
VERTEX
  8
0
 10
-88.55068100
 20
-169.83520533
  0
VERTEX
  8
0
 10
-88.15795500
 20
-166.71311633
  0
VERTEX
  8
0
 10
-87.71522300
 20
-163.61165733
  0
VERTEX
  8
0
 10
-87.68466600
 20
-162.62851333
  0
VERTEX
  8
0
 10
-87.50763800
 20
-161.74552333
  0
VERTEX
  8
0
 10
-87.43660100
 20
-161.32090033
  0
VERTEX
  8
0
 10
-87.04596400
 20
-158.99207433
  0
VERTEX
  8
0
 10
-86.53662600
 20
-155.49130933
  0
VERTEX
  8
0
 10
-86.30760100
 20
-153.65929733
  0
VERTEX
  8
0
 10
-86.08540500
 20
-151.02049133
  0
VERTEX
  8
0
 10
-86.27502000
 20
-148.43617033
  0
VERTEX
  8
0
 10
-86.85713800
 20
-145.95736033
  0
VERTEX
  8
0
 10
-87.81244800
 20
-143.63508533
  0
VERTEX
  8
0
 10
-89.12159400
 20
-141.52037333
  0
VERTEX
  8
0
 10
-89.74813100
 20
-140.81283433
  0
VERTEX
  8
0
 10
-85.26538000
 20
-136.95000533
  0
SEQEND
  0
POLYLINE
  8
Standard-Ebene
 66
   1
 39
0.000000
 70
    1
  0
VERTEX
  8
0
 10
-104.07149100
 20
-172.10989933
  0
VERTEX
  8
0
 10
-100.14581600
 20
-171.34259133
  0
VERTEX
  8
0
 10
-106.81194900
 20
-137.23755733
  0
VERTEX
  8
0
 10
-110.73762300
 20
-138.00486533
  0
VERTEX
  8
0
 10
-104.07149100
 20
-172.10989933
  0
SEQEND
  0
ENDSEC
  0
EOF
