  0
SECTION
  2
HEADER
  9
$ACADVER
  1
AC1015
  9
$ACADMAINTVER
 70
     6
  9
$DWGCODEPAGE
  3
ANSI_1252
  9
$INSBASE
 10
0.0
 20
0.0
 30
0.0
  9
$EXTMIN
 10
0.0
 20
0.0
 30
0.0
  9
$EXTMAX
 10
594.0
 20
420.0
 30
0.0
  9
$LIMMIN
 10
0.0
 20
0.0
  9
$LIMMAX
 10
594.0
 20
420.0
  9
$ORTHOMODE
 70
     0
  9
$REGENMODE
 70
     1
  9
$FILLMODE
 70
     1
  9
$QTEXTMODE
 70
     0
  9
$MIRRTEXT
 70
     1
  9
$LTSCALE
 40
1.0
  9
$ATTMODE
 70
     1
  9
$TEXTSIZE
 40
2.5
  9
$TRACEWID
 40
1.0
  9
$TEXTSTYLE
  7
Standard
  9
$CLAYER
  8
0
  9
$CELTYPE
  6
ByLayer
  9
$CECOLOR
 62
   256
  9
$CELTSCALE
 40
1.0
  9
$DISPSILH
 70
     0
  9
$DIMSCALE
 40
1.0
  9
$DIMASZ
 40
2.5
  9
$DIMEXO
 40
0.625
  9
$DIMDLI
 40
3.75
  9
$DIMRND
 40
0.0
  9
$DIMDLE
 40
0.0
  9
$DIMEXE
 40
1.25
  9
$DIMTP
 40
0.0
  9
$DIMTM
 40
0.0
  9
$DIMTXT
 40
2.5
  9
$DIMCEN
 40
2.5
  9
$DIMTSZ
 40
0.0
  9
$DIMTOL
 70
     0
  9
$DIMLIM
 70
     0
  9
$DIMTIH
 70
     0
  9
$DIMTOH
 70
     0
  9
$DIMSE1
 70
     0
  9
$DIMSE2
 70
     0
  9
$DIMTAD
 70
     1
  9
$DIMZIN
 70
     8
  9
$DIMBLK
  1

  9
$DIMASO
 70
     1
  9
$DIMSHO
 70
     1
  9
$DIMPOST
  1

  9
$DIMAPOST
  1

  9
$DIMALT
 70
     0
  9
$DIMALTD
 70
     3
  9
$DIMALTF
 40
0.0393700787
  9
$DIMLFAC
 40
1.0
  9
$DIMTOFL
 70
     1
  9
$DIMTVP
 40
0.0
  9
$DIMTIX
 70
     0
  9
$DIMSOXD
 70
     0
  9
$DIMSAH
 70
     0
  9
$DIMBLK1
  1

  9
$DIMBLK2
  1

  9
$DIMSTYLE
  2
ISO-25
  9
$DIMCLRD
 70
     0
  9
$DIMCLRE
 70
     0
  9
$DIMCLRT
 70
     0
  9
$DIMTFAC
 40
1.0
  9
$DIMGAP
 40
0.625
  9
$DIMJUST
 70
     0
  9
$DIMSD1
 70
     0
  9
$DIMSD2
 70
     0
  9
$DIMTOLJ
 70
     0
  9
$DIMTZIN
 70
     8
  9
$DIMALTZ
 70
     0
  9
$DIMALTTZ
 70
     0
  9
$DIMUPT
 70
     0
  9
$DIMDEC
 70
     2
  9
$DIMTDEC
 70
     2
  9
$DIMALTU
 70
     2
  9
$DIMALTTD
 70
     3
  9
$DIMTXSTY
  7
Standard
  9
$DIMAUNIT
 70
     0
  9
$DIMADEC
 70
     0
  9
$DIMALTRND
 40
0.0
  9
$DIMAZIN
 70
     0
  9
$DIMDSEP
 70
    44
  9
$DIMATFIT
 70
     3
  9
$DIMFRAC
 70
     0
  9
$DIMLDRBLK
  1

  9
$DIMLUNIT
 70
     2
  9
$DIMLWD
 70
    -2
  9
$DIMLWE
 70
    -2
  9
$DIMTMOVE
 70
     0
  9
$LUNITS
 70
     2
  9
$LUPREC
 70
     4
  9
$SKETCHINC
 40
1.0
  9
$FILLETRAD
 40
10.0
  9
$AUNITS
 70
     0
  9
$AUPREC
 70
     0
  9
$MENU
  1
.
  9
$ELEVATION
 40
0.0
  9
$PELEVATION
 40
0.0
  9
$THICKNESS
 40
0.0
  9
$LIMCHECK
 70
     0
  9
$CHAMFERA
 40
10.0
  9
$CHAMFERB
 40
10.0
  9
$CHAMFERC
 40
20.0
  9
$CHAMFERD
 40
0.0
  9
$SKPOLY
 70
     0
  9
$TDCREATE
 40
2456006.638251678
  9
$TDUCREATE
 40
2456006.929918345
  9
$TDUPDATE
 40
2456006.638253484
  9
$TDUUPDATE
 40
2456006.92992015
  9
$TDINDWG
 40
0.0000000116
  9
$TDUSRTIMER
 40
0.0000000116
  9
$USRTIMER
 70
     1
  9
$ANGBASE
 50
0.0
  9
$ANGDIR
 70
     0
  9
$PDMODE
 70
     0
  9
$PDSIZE
 40
0.0
  9
$PLINEWID
 40
0.0
  9
$SPLFRAME
 70
     0
  9
$SPLINETYPE
 70
     6
  9
$SPLINESEGS
 70
     8
  9
$HANDSEED
  5
116
  9
$SURFTAB1
 70
     6
  9
$SURFTAB2
 70
     6
  9
$SURFTYPE
 70
     6
  9
$SURFU
 70
     6
  9
$SURFV
 70
     6
  9
$UCSBASE
  2

  9
$UCSNAME
  2

  9
$UCSORG
 10
0.0
 20
0.0
 30
0.0
  9
$UCSXDIR
 10
1.0
 20
0.0
 30
0.0
  9
$UCSYDIR
 10
0.0
 20
1.0
 30
0.0
  9
$UCSORTHOREF
  2

  9
$UCSORTHOVIEW
 70
     0
  9
$UCSORGTOP
 10
0.0
 20
0.0
 30
0.0
  9
$UCSORGBOTTOM
 10
0.0
 20
0.0
 30
0.0
  9
$UCSORGLEFT
 10
0.0
 20
0.0
 30
0.0
  9
$UCSORGRIGHT
 10
0.0
 20
0.0
 30
0.0
  9
$UCSORGFRONT
 10
0.0
 20
0.0
 30
0.0
  9
$UCSORGBACK
 10
0.0
 20
0.0
 30
0.0
  9
$PUCSBASE
  2

  9
$PUCSNAME
  2

  9
$PUCSORG
 10
0.0
 20
0.0
 30
0.0
  9
$PUCSXDIR
 10
1.0
 20
0.0
 30
0.0
  9
$PUCSYDIR
 10
0.0
 20
1.0
 30
0.0
  9
$PUCSORTHOREF
  2

  9
$PUCSORTHOVIEW
 70
     0
  9
$PUCSORGTOP
 10
0.0
 20
0.0
 30
0.0
  9
$PUCSORGBOTTOM
 10
0.0
 20
0.0
 30
0.0
  9
$PUCSORGLEFT
 10
0.0
 20
0.0
 30
0.0
  9
$PUCSORGRIGHT
 10
0.0
 20
0.0
 30
0.0
  9
$PUCSORGFRONT
 10
0.0
 20
0.0
 30
0.0
  9
$PUCSORGBACK
 10
0.0
 20
0.0
 30
0.0
  9
$USERI1
 70
     0
  9
$USERI2
 70
     0
  9
$USERI3
 70
     0
  9
$USERI4
 70
     0
  9
$USERI5
 70
     0
  9
$USERR1
 40
0.0
  9
$USERR2
 40
0.0
  9
$USERR3
 40
0.0
  9
$USERR4
 40
0.0
  9
$USERR5
 40
0.0
  9
$WORLDVIEW
 70
     1
  9
$SHADEDGE
 70
     3
  9
$SHADEDIF
 70
    70
  9
$TILEMODE
 70
     1
  9
$MAXACTVP
 70
    64
  9
$PINSBASE
 10
0.0
 20
0.0
 30
0.0
  9
$PLIMCHECK
 70
     0
  9
$PEXTMIN
 10
0.0
 20
0.0
 30
0.0
  9
$PEXTMAX
 10
594.0
 20
420.0
 30
0.0
  9
$PLIMMIN
 10
0.0
 20
0.0
  9
$PLIMMAX
 10
594.0
 20
420.0
  9
$UNITMODE
 70
     0
  9
$VISRETAIN
 70
     1
  9
$PLINEGEN
 70
     0
  9
$PSLTSCALE
 70
     1
  9
$TREEDEPTH
 70
  3020
  9
$CMLSTYLE
  2
Standard
  9
$CMLJUST
 70
     0
  9
$CMLSCALE
 40
20.0
  9
$PROXYGRAPHICS
 70
     1
  9
$MEASUREMENT
 70
     1
  9
$CELWEIGHT
370
    -1
  9
$ENDCAPS
280
     0
  9
$JOINSTYLE
280
     0
  9
$LWDISPLAY
290
     0
  9
$INSUNITS
 70
     4
  9
$HYPERLINKBASE
  1

  9
$STYLESHEET
  1

  9
$XEDIT
290
     1
  9
$CEPSNTYPE
380
     0
  9
$PSTYLEMODE
290
     1
  9
$FINGERPRINTGUID
  2
{1D9ABD45-0479-47EE-B40C-FD8648F04DBD}
  9
$VERSIONGUID
  2
{FAEB1C32-E019-11D5-929B-00C0DF256EC4}
  9
$EXTNAMES
290
     1
  9
$PSVPSCALE
 40
0.0
  9
$OLESTARTUP
290
     0
  0
ENDSEC
  0
SECTION
  2
CLASSES
  0
CLASS
  1
ACDBDICTIONARYWDFLT
  2
AcDbDictionaryWithDefault
  3
ObjectDBX Classes
 90
        0
280
     0
281
     0
  0
CLASS
  1
VISUALSTYLE
  2
AcDbVisualStyle
  3
ObjectDBX Classes
 90
     4095
280
     0
281
     0
  0
CLASS
  1
MATERIAL
  2
AcDbMaterial
  3
ObjectDBX Classes
 90
     1153
280
     0
281
     0
  0
CLASS
  1
DICTIONARYVAR
  2
AcDbDictionaryVar
  3
ObjectDBX Classes
 90
        0
280
     0
281
     0
  0
CLASS
  1
ACDBPLACEHOLDER
  2
AcDbPlaceHolder
  3
ObjectDBX Classes
 90
        0
280
     0
281
     0
  0
CLASS
  1
LAYOUT
  2
AcDbLayout
  3
ObjectDBX Classes
 90
        0
280
     0
281
     0
  0
ENDSEC
  0
SECTION
  2
TABLES
  0
TABLE
  2
VPORT
  5
8
330
0
100
AcDbSymbolTable
 70
     1
  0
VPORT
  5
29
330
8
100
AcDbSymbolTableRecord
100
AcDbViewportTableRecord
  2
*Active
 70
     0
 10
0.0
 20
0.0
 11
1.0
 21
1.0
 12
344.1869158879
 22
148.5
 13
0.0
 23
0.0
 14
10.0
 24
10.0
 15
10.0
 25
10.0
 16
0.0
 26
0.0
 36
1.0
 17
0.0
 27
0.0
 37
0.0
 40
297.0
 41
1.9729729729
 42
50.0
 43
0.0
 44
0.0
 50
0.0
 51
0.0
 71
     0
 72
   100
 73
     1
 74
     3
 75
     0
 76
     0
 77
     0
 78
     0
281
     0
 65
     1
110
0.0
120
0.0
130
0.0
111
1.0
121
0.0
131
0.0
112
0.0
122
1.0
132
0.0
 79
     0
146
0.0
  0
ENDTAB
  0
TABLE
  2
LTYPE
  5
5
330
0
100
AcDbSymbolTable
 70
     1
  0
LTYPE
  5
14
330
5
100
AcDbSymbolTableRecord
100
AcDbLinetypeTableRecord
  2
ByBlock
 70
     0
  3

 72
    65
 73
     0
 40
0.0
  0
LTYPE
  5
15
330
5
100
AcDbSymbolTableRecord
100
AcDbLinetypeTableRecord
  2
ByLayer
 70
     0
  3

 72
    65
 73
     0
 40
0.0
  0
LTYPE
  5
16
330
5
100
AcDbSymbolTableRecord
100
AcDbLinetypeTableRecord
  2
Continuous
 70
     0
  3
Solid line
 72
    65
 73
     0
 40
0.0
  0
ENDTAB
  0
TABLE
  2
LAYER
  5
2
330
0
100
AcDbSymbolTable
 70
     3
  0
LAYER
  5
10
330
2
100
AcDbSymbolTableRecord
100
AcDbLayerTableRecord
  2
0
 70
     0
 62
     7
  6
Continuous
370
    -3
390
F
  0
LAYER
  5
3F
330
2
100
AcDbSymbolTableRecord
100
AcDbLayerTableRecord
  2
Lizard1
 70
     0
 62
     7
  6
Continuous
370
    -3
390
F
  0
LAYER
  5
40
330
2
100
AcDbSymbolTableRecord
100
AcDbLayerTableRecord
  2
LizardEtch
 70
     0
 62
     7
  6
Continuous
370
    -3
390
F
  0
ENDTAB
  0
TABLE
  2
STYLE
  5
3
330
0
100
AcDbSymbolTable
 70
     1
  0
STYLE
  5
11
330
3
100
AcDbSymbolTableRecord
100
AcDbTextStyleTableRecord
  2
Standard
 70
     0
 40
0.0
 41
1.0
 50
0.0
 71
     0
 42
2.5
  3
txt
  4

  0
ENDTAB
  0
TABLE
  2
VIEW
  5
6
330
0
100
AcDbSymbolTable
 70
     0
  0
ENDTAB
  0
TABLE
  2
UCS
  5
7
330
0
100
AcDbSymbolTable
 70
     0
  0
ENDTAB
  0
TABLE
  2
APPID
  5
9
330
0
100
AcDbSymbolTable
 70
     1
  0
APPID
  5
12
330
9
100
AcDbSymbolTableRecord
100
AcDbRegAppTableRecord
  2
ACAD
 70
     0
  0
ENDTAB
  0
TABLE
  2
DIMSTYLE
  5
A
330
0
100
AcDbSymbolTable
 70
     1
100
AcDbDimStyleTable
  0
DIMSTYLE
105
27
330
A
100
AcDbSymbolTableRecord
100
AcDbDimStyleTableRecord
  2
ISO-25
 70
     0
 41
2.5
 42
0.625
 43
3.75
 44
1.25
 73
     0
 74
     0
 77
     1
 78
     8
140
2.5
141
2.5
143
0.0393700787
147
0.625
171
     3
172
     1
178
     0
271
     2
272
     2
274
     3
278
    44
283
     0
284
     8
340
11
  0
ENDTAB
  0
TABLE
  2
BLOCK_RECORD
  5
1
330
0
100
AcDbSymbolTable
 70
     2
  0
BLOCK_RECORD
  5
1F
330
1
100
AcDbSymbolTableRecord
100
AcDbBlockTableRecord
  2
*Model_Space
340
22
  0
BLOCK_RECORD
  5
1B
330
1
100
AcDbSymbolTableRecord
100
AcDbBlockTableRecord
  2
*Paper_Space
340
1E
  0
BLOCK_RECORD
  5
41
330
1
100
AcDbSymbolTableRecord
100
AcDbBlockTableRecord
  2
Final_Lizard
340
0
102
{BLKREFS
331
E8
102
}
  0
ENDTAB
  0
ENDSEC
  0
SECTION
  2
BLOCKS
  0
BLOCK
  5
20
330
1F
100
AcDbEntity
  8
0
100
AcDbBlockBegin
  2
*Model_Space
 70
     0
 10
0.0
 20
0.0
 30
0.0
  3
*Model_Space
  1

  0
ENDBLK
  5
21
330
1F
100
AcDbEntity
  8
0
100
AcDbBlockEnd
  0
BLOCK
  5
1C
330
1B
100
AcDbEntity
 67
     1
  8
0
100
AcDbBlockBegin
  2
*Paper_Space
 70
     0
 10
0.0
 20
0.0
 30
0.0
  3
*Paper_Space
  1

  0
ENDBLK
  5
1D
330
1B
100
AcDbEntity
 67
     1
  8
0
100
AcDbBlockEnd
  0
BLOCK
  5
E6
330
41
100
AcDbEntity
  8
0
100
AcDbBlockBegin
  2
Final_Lizard
 70
     0
 10
0.0
 20
0.0
 30
0.0
  3
Final_Lizard
  1

  0
LINE
  5
42
330
41
100
AcDbEntity
  8
Lizard1
  6
Continuous
 62
     7
100
AcDbLine
 10
0.0
 20
0.0
 30
0.0
 11
-9.0587310757
 21
-1.9690558702
 31
0.0
  0
ARC
  5
43
330
41
100
AcDbEntity
  8
Lizard1
  6
Continuous
 62
     7
100
AcDbCircle
 10
-9.3959249553
 20
-0.4177800928
 30
0.0
 40
1.5875
100
AcDbArc
 50
229.1077458066
 51
282.2633635324
  0
LINE
  5
44
330
41
100
AcDbEntity
  8
Lizard1
  6
Continuous
 62
     7
100
AcDbLine
 10
-10.435163771
 20
-1.6178379806
 30
0.0
 11
-11.5671769664
 21
-0.637525227
 31
0.0
  0
ARC
  5
45
330
41
100
AcDbEntity
  8
Lizard1
  6
Continuous
 62
     7
100
AcDbCircle
 10
-10.5279381507
 20
0.5625326608
 30
0.0
 40
1.5875
100
AcDbArc
 50
184.498194143
 51
229.107745807
  0
LINE
  5
46
330
41
100
AcDbEntity
  8
Lizard1
  6
Continuous
 62
     7
100
AcDbLine
 10
-12.1105483429
 20
0.4380287272
 30
0.0
 11
-12.5877634337
 21
6.5040657172
 31
0.0
  0
ARC
  5
47
330
41
100
AcDbEntity
  8
Lizard1
  6
Continuous
 62
     7
100
AcDbCircle
 10
-11.0051532414
 20
6.6285696508
 30
0.0
 40
1.5875
100
AcDbArc
 50
127.0569575099
 51
184.498194143
  0
LINE
  5
48
330
41
100
AcDbEntity
  8
Lizard1
  6
Continuous
 62
     7
100
AcDbLine
 10
-11.9617944671
 20
7.8954531559
 30
0.0
 11
-6.8055629186
 21
11.7889947867
 31
0.0
  0
ARC
  5
49
330
41
100
AcDbEntity
  8
Lizard1
  6
Continuous
 62
     7
100
AcDbCircle
 10
-7.7622041443
 20
13.0558782917
 30
0.0
 40
1.5875
100
AcDbArc
 50
307.0569575098
 51
73.5332307466
  0
LINE
  5
4A
330
41
100
AcDbEntity
  8
Lizard1
  6
Continuous
 62
     7
100
AcDbLine
 10
-7.3122126722
 20
14.5782658656
 30
0.0
 11
-9.3644263143
 21
15.1848647722
 31
0.0
  0
ARC
  5
4B
330
41
100
AcDbEntity
  8
Lizard1
  6
Continuous
 62
     7
100
AcDbCircle
 10
-8.9144348422
 20
16.7072523461
 30
0.0
 40
1.5875
100
AcDbArc
 50
243.3141297892
 51
253.5332307466
  0
LINE
  5
4C
330
41
100
AcDbEntity
  8
Lizard1
  6
Continuous
 62
     7
100
AcDbLine
 10
-9.6273789799
 20
15.2888494039
 30
0.0
 11
-11.0632659789
 21
16.0105817043
 31
0.0
  0
ARC
  5
4D
330
41
100
AcDbEntity
  8
Lizard1
  6
Continuous
 62
     7
100
AcDbCircle
 10
-11.7762101166
 20
14.5921787621
 30
0.0
 40
1.5875
100
AcDbArc
 50
63.3141297892
 51
202.0978341804
  0
LINE
  5
4E
330
41
100
AcDbEntity
  8
Lizard1
  6
Continuous
 62
     7
100
AcDbLine
 10
-13.2470968938
 20
13.9949783444
 30
0.0
 11
-13.0214089348
 21
13.4391156477
 31
0.0
  0
ARC
  5
4F
330
41
100
AcDbEntity
  8
Lizard1
  6
Continuous
 62
     7
100
AcDbCircle
 10
-14.4922957119
 20
12.84191523
 30
0.0
 40
1.5875
100
AcDbArc
 50
301.553434371
 51
22.0978341804
  0
LINE
  5
50
330
41
100
AcDbEntity
  8
Lizard1
  6
Continuous
 62
     7
100
AcDbLine
 10
-13.6615672577
 20
11.4891231228
 30
0.0
 11
-18.0720640808
 21
8.7807060729
 31
0.0
  0
ARC
  5
51
330
41
100
AcDbEntity
  8
Lizard1
  6
Continuous
 62
     7
100
AcDbCircle
 10
-18.7150731988
 20
6.7132307471
 30
0.0
 40
1.587499999941638
100
AcDbArc
 50
357.2632654987
 51
28.6255059284
  0
LINE
  5
52
330
41
100
AcDbEntity
  8
Lizard1
  6
Continuous
 62
     7
100
AcDbLine
 10
-17.1293837935
 20
6.6374325954
 30
0.0
 11
-17.1704991345
 21
5.7773039637
 31
0.0
  0
ARC
  5
53
330
41
100
AcDbEntity
  8
Lizard1
  6
Continuous
 62
     7
100
AcDbCircle
 10
-15.5848097291
 20
5.701505812
 30
0.0
 40
1.5875
100
AcDbArc
 50
177.2632654987
 51
189.399690489
  0
LINE
  5
54
330
41
100
AcDbEntity
  8
Lizard1
  6
Continuous
 62
     7
100
AcDbLine
 10
-17.1509944363
 20
5.4422343074
 30
0.0
 11
-16.6253661485
 21
2.2670647592
 31
0.0
  0
ARC
  5
55
330
41
100
AcDbEntity
  8
Lizard1
  6
Continuous
 62
     7
100
AcDbCircle
 10
-18.1915508556
 20
2.0077932546
 30
0.0
 40
1.5875
100
AcDbArc
 50
359.9456032646
 51
9.3996904891
  0
LINE
  5
56
330
41
100
AcDbEntity
  8
Lizard1
  6
Continuous
 62
     7
100
AcDbLine
 10
-16.6040515711
 20
2.0062860789
 30
0.0
 11
-16.6052006395
 21
0.7959791019
 31
0.0
  0
ARC
  5
57
330
41
100
AcDbEntity
  8
Lizard1
  6
Continuous
 62
     7
100
AcDbCircle
 10
-18.192699924
 20
0.7974862776
 30
0.0
 40
1.5875
100
AcDbArc
 50
322.0045688235
 51
359.9456032646
  0
LINE
  5
58
330
41
100
AcDbEntity
  8
Lizard1
  6
Continuous
 62
     7
100
AcDbLine
 10
-16.9416549208
 20
-0.179776558
 30
0.0
 11
-17.2601902143
 21
-0.5875501608
 31
0.0
  0
ARC
  5
59
330
41
100
AcDbEntity
  8
Lizard1
  6
Continuous
 62
     7
100
AcDbCircle
 10
-18.5112352175
 20
0.3897126748
 30
0.0
 40
1.5875
100
AcDbArc
 50
201.9716149684
 51
322.0045688236
  0
LINE
  5
5A
330
41
100
AcDbEntity
  8
Lizard1
  6
Continuous
 62
     7
100
AcDbLine
 10
-19.9834340217
 20
-0.2042460199
 30
0.0
 11
-22.3809381192
 21
5.7382592373
 31
0.0
  0
ARC
  5
5B
330
41
100
AcDbEntity
  8
Lizard1
  6
Continuous
 62
     7
100
AcDbCircle
 10
-23.8531369234
 20
5.1443005426
 30
0.0
 40
1.5875
100
AcDbArc
 50
21.9716149683
 51
54.602352777
  0
LINE
  5
5C
330
41
100
AcDbEntity
  8
Lizard1
  6
Continuous
 62
     7
100
AcDbLine
 10
-22.9335812001
 20
6.4383536798
 30
0.0
 11
-24.664521742
 21
7.6683621208
 31
0.0
  0
ARC
  5
5D
330
41
100
AcDbEntity
  8
Lizard1
  6
Continuous
 62
     7
100
AcDbCircle
 10
-25.5840774652
 20
6.3743089836
 30
0.0
 40
1.5875
100
AcDbArc
 50
54.602352777
 51
109.0646749851
  0
LINE
  5
5E
330
41
100
AcDbEntity
  8
Lizard1
  6
Continuous
 62
     7
100
AcDbLine
 10
-26.1026109089
 20
7.8747353623
 30
0.0
 11
-30.9003979069
 21
6.2166646637
 31
0.0
  0
ARC
  5
5F
330
41
100
AcDbEntity
  8
Lizard1
  6
Continuous
 62
     7
100
AcDbCircle
 10
-31.4189313505
 20
7.7170910424
 30
0.0
 40
1.5875
100
AcDbArc
 50
251.4468339851
 51
289.0646749851
  0
LINE
  5
60
330
41
100
AcDbEntity
  8
Lizard1
  6
Continuous
 62
     7
100
AcDbLine
 10
-31.9240492285
 20
6.2120953017
 30
0.0
 11
-33.6127767273
 21
6.7788786006
 31
0.0
  0
ARC
  5
61
330
41
100
AcDbEntity
  8
Lizard1
  6
Continuous
 62
     7
100
AcDbCircle
 10
-34.1178946053
 20
5.27388286
 30
0.0
 40
1.5875
100
AcDbArc
 50
71.4468339851
 51
123.9182053924
  0
LINE
  5
62
330
41
100
AcDbEntity
  8
Lizard1
  6
Continuous
 62
     7
100
AcDbLine
 10
-35.0037335948
 20
6.591245959
 30
0.0
 11
-36.9000871307
 21
5.3160744431
 31
0.0
  0
ARC
  5
63
330
41
100
AcDbEntity
  8
Lizard1
  6
Continuous
 62
     7
100
AcDbCircle
 10
-36.0142481412
 20
3.9987113441
 30
0.0
 40
1.5875
100
AcDbArc
 50
123.9182053924
 51
233.9605467137
  0
LINE
  5
64
330
41
100
AcDbEntity
  8
Lizard1
  6
Continuous
 62
     7
100
AcDbLine
 10
-36.9482413737
 20
2.7150396993
 30
0.0
 11
-33.2365435548
 21
0.0144264559
 31
0.0
  0
LINE
  5
65
330
41
100
AcDbEntity
  8
Lizard1
  6
Continuous
 62
     7
100
AcDbLine
 10
-16.6307779313
 20
-28.8053523464
 30
0.0
 11
-17.8431105097
 21
-21.6458793741
 31
0.0
  0
ARC
  5
66
330
41
100
AcDbEntity
  8
Lizard1
  6
Continuous
 62
     7
100
AcDbCircle
 10
-19.4083289209
 20
-21.9109219659
 30
0.0
 40
1.5875
100
AcDbArc
 50
9.6108792458
 51
34.4657100803
  0
LINE
  5
67
330
41
100
AcDbEntity
  8
Lizard1
  6
Continuous
 62
     7
100
AcDbLine
 10
-18.0994907028
 20
-21.0125352068
 30
0.0
 11
-19.2538701657
 21
-19.3307473309
 31
0.0
  0
ARC
  5
68
330
41
100
AcDbEntity
  8
Lizard1
  6
Continuous
 62
     7
100
AcDbCircle
 10
-17.9450319476
 20
-18.4323605718
 30
0.0
 40
1.5875
100
AcDbArc
 50
102.264564828
 51
214.4657100803
  0
LINE
  5
69
330
41
100
AcDbEntity
  8
Lizard1
  6
Continuous
 62
     7
100
AcDbLine
 10
-18.282258352
 20
-16.8810918646
 30
0.0
 11
-15.395760069
 21
-16.2536032593
 31
0.0
  0
ARC
  5
6A
330
41
100
AcDbEntity
  8
Lizard1
  6
Continuous
 62
     7
100
AcDbCircle
 10
-15.0585336646
 20
-17.8048719666
 30
0.0
 40
1.5875
100
AcDbArc
 50
23.5687286189
 51
102.264564828
  0
LINE
  5
6B
330
41
100
AcDbEntity
  8
Lizard1
  6
Continuous
 62
     7
100
AcDbLine
 10
-13.6034611699
 20
-17.1701119448
 30
0.0
 11
-13.2980772337
 21
-17.8701493615
 31
0.0
  0
ARC
  5
6C
330
41
100
AcDbEntity
  8
Lizard1
  6
Continuous
 62
     7
100
AcDbCircle
 10
-14.7531497283
 20
-18.5049093833
 30
0.0
 40
1.5875
100
AcDbArc
 50
17.201296143
 51
23.5687286189
  0
LINE
  5
6D
330
41
100
AcDbEntity
  8
Lizard1
  6
Continuous
 62
     7
100
AcDbLine
 10
-13.2366559484
 20
-18.0354385477
 30
0.0
 11
-11.3515839294
 21
-24.1246346692
 31
0.0
  0
ARC
  5
6E
330
41
100
AcDbEntity
  8
Lizard1
  6
Continuous
 62
     7
100
AcDbCircle
 10
-9.8350901495
 20
-23.6551638336
 30
0.0
 40
1.5875
100
AcDbArc
 50
197.201296143
 51
282.2696341893
  0
LINE
  5
6F
330
41
100
AcDbEntity
  8
Lizard1
  6
Continuous
 62
     7
100
AcDbLine
 10
-9.4977264947
 20
-25.206402698
 30
0.0
 11
-6.1140840439
 21
-24.4705276435
 31
0.0
  0
ARC
  5
70
330
41
100
AcDbEntity
  8
Lizard1
  6
Continuous
 62
     7
100
AcDbCircle
 10
-5.7767203891
 20
-26.0217665079
 30
0.0
 40
1.5875
100
AcDbArc
 50
92.4301017766
 51
102.2696341893
  0
LINE
  5
71
330
41
100
AcDbEntity
  8
Lizard1
  6
Continuous
 62
     7
100
AcDbLine
 10
-5.8440312815
 20
-24.4356941597
 30
0.0
 11
-2.0916065324
 21
-24.2764460276
 31
0.0
  0
ARC
  5
72
330
41
100
AcDbEntity
  8
Lizard1
  6
Continuous
 62
     7
100
AcDbCircle
 10
-2.1589174249
 20
-22.6903736794
 30
0.0
 40
1.5875
100
AcDbArc
 50
272.4301017766
 51
327.2606633682
  0
LINE
  5
73
330
41
100
AcDbEntity
  8
Lizard1
  6
Continuous
 62
     7
100
AcDbLine
 10
-0.8236081835
 20
-23.548922152
 30
0.0
 11
1.4315112654
 21
-20.0415117532
 31
0.0
  0
LINE
  5
74
330
41
100
AcDbEntity
  8
Lizard1
  6
Continuous
 62
     7
100
AcDbLine
 10
-17.3216136528
 20
7.4737744628
 30
0.0
 11
-18.0720640808
 21
8.7807060729
 31
0.0
  0
LINE
  5
75
330
41
100
AcDbEntity
  8
LizardEtch
  6
Continuous
 62
     7
100
AcDbLine
 10
-28.2643492685
 20
-17.7833333126
 30
0.0
 11
-26.2113338458
 21
-17.5826776758
 31
0.0
  0
LINE
  5
76
330
41
100
AcDbEntity
  8
LizardEtch
  6
Continuous
 62
     7
100
AcDbLine
 10
-26.2113338458
 20
-17.5826776758
 30
0.0
 11
-24.8642885303
 21
-18.593790039
 31
0.0
  0
LINE
  5
77
330
41
100
AcDbEntity
  8
LizardEtch
  6
Continuous
 62
     7
100
AcDbLine
 10
-24.8642885303
 20
-18.593790039
 30
0.0
 11
-23.8887534131
 21
-19.0393182941
 31
0.0
  0
LINE
  5
78
330
41
100
AcDbEntity
  8
LizardEtch
  6
Continuous
 62
     7
100
AcDbLine
 10
-20.5908395683
 20
-17.3829485315
 30
0.0
 11
-22.104977613
 21
-15.0877310884
 31
0.0
  0
LINE
  5
79
330
41
100
AcDbEntity
  8
LizardEtch
  6
Continuous
 62
     7
100
AcDbLine
 10
-27.384269617
 20
-34.8201378548
 30
0.0
 11
-26.1975442418
 21
-32.9331944505
 31
0.0
  0
LINE
  5
7A
330
41
100
AcDbEntity
  8
LizardEtch
  6
Continuous
 62
     7
100
AcDbLine
 10
-25.5935525548
 20
-36.5307873459
 30
0.0
 11
-24.5117898749
 21
-34.1600041415
 31
0.0
  0
LINE
  5
7B
330
41
100
AcDbEntity
  8
LizardEtch
  6
Continuous
 62
     7
100
AcDbLine
 10
-8.2445219052
 20
-19.13908833
 30
0.0
 11
-8.9526543804
 21
-20.4009800286
 31
0.0
  0
LINE
  5
7C
330
41
100
AcDbEntity
  8
LizardEtch
  6
Continuous
 62
     7
100
AcDbLine
 10
-8.9526543804
 20
-20.4009800286
 30
0.0
 11
-9.6158979364
 21
-21.7647707624
 31
0.0
  0
LINE
  5
7D
330
41
100
AcDbEntity
  8
LizardEtch
  6
Continuous
 62
     7
100
AcDbLine
 10
-2.2070603693
 20
-18.0701549805
 30
0.0
 11
-3.2294420122
 21
-19.5283292182
 31
0.0
  0
LINE
  5
7E
330
41
100
AcDbEntity
  8
LizardEtch
  6
Continuous
 62
     7
100
AcDbLine
 10
-3.2294420122
 20
-19.5283292182
 30
0.0
 11
-3.8805468655
 21
-20.1201378891
 31
0.0
  0
LINE
  5
7F
330
41
100
AcDbEntity
  8
LizardEtch
  6
Continuous
 62
     7
100
AcDbLine
 10
-0.6995737126
 20
-18.8868603399
 30
0.0
 11
-1.7475024284
 21
-20.84526637
 31
0.0
  0
LINE
  5
80
330
41
100
AcDbEntity
  8
LizardEtch
  6
Continuous
 62
     7
100
AcDbLine
 10
-9.0177633875
 20
-13.4206278656
 30
0.0
 11
-9.2495534069
 21
-12.014053286
 31
0.0
  0
LINE
  5
81
330
41
100
AcDbEntity
  8
LizardEtch
  6
Continuous
 62
     7
100
AcDbLine
 10
-9.2495534069
 20
-12.014053286
 30
0.0
 11
-9.8767268986
 21
-10.5388773977
 31
0.0
  0
LINE
  5
82
330
41
100
AcDbEntity
  8
LizardEtch
  6
Continuous
 62
     7
100
AcDbLine
 10
-14.1238933459
 20
-15.9771153498
 30
0.0
 11
-11.7081872148
 21
-16.5314338118
 31
0.0
  0
LINE
  5
83
330
41
100
AcDbEntity
  8
LizardEtch
  6
Continuous
 62
     7
100
AcDbLine
 10
-6.3744584499
 20
-9.2111595136
 30
0.0
 11
-4.7218297837
 21
-10.0875412781
 31
0.0
  0
LINE
  5
84
330
41
100
AcDbEntity
  8
LizardEtch
  6
Continuous
 62
     7
100
AcDbLine
 10
-4.7218297837
 20
-10.0875412781
 30
0.0
 11
-3.2800216445
 21
-11.2030535256
 31
0.0
  0
LINE
  5
85
330
41
100
AcDbEntity
  8
LizardEtch
  6
Continuous
 62
     7
100
AcDbLine
 10
-3.2800216445
 20
-11.2030535256
 30
0.0
 11
0.0151135549
 21
-11.154050563
 31
0.0
  0
LINE
  5
86
330
41
100
AcDbEntity
  8
LizardEtch
  6
Continuous
 62
     7
100
AcDbLine
 10
0.0151135549
 20
-11.154050563
 30
0.0
 11
0.502496634
 21
-11.3091065843
 31
0.0
  0
LINE
  5
87
330
41
100
AcDbEntity
  8
LizardEtch
  6
Continuous
 62
     7
100
AcDbLine
 10
0.502496634
 20
-11.3091065843
 30
0.0
 11
2.2360898546
 21
-9.4483042211
 31
0.0
  0
LINE
  5
88
330
41
100
AcDbEntity
  8
LizardEtch
  6
Continuous
 62
     7
100
AcDbLine
 10
2.2360898546
 20
-9.4483042211
 30
0.0
 11
4.8561193987
 21
-9.3740386997
 31
0.0
  0
LINE
  5
89
330
41
100
AcDbEntity
  8
LizardEtch
  6
Continuous
 62
     7
100
AcDbLine
 10
0.0217577425
 20
-3.5816455905
 30
0.0
 11
2.1953374531
 21
-6.1320708994
 31
0.0
  0
LINE
  5
8A
330
41
100
AcDbEntity
  8
LizardEtch
  6
Continuous
 62
     7
100
AcDbLine
 10
2.1953374531
 20
-6.1320708994
 30
0.0
 11
3.0713522722
 21
-6.5727251392
 31
0.0
  0
LINE
  5
8B
330
41
100
AcDbEntity
  8
LizardEtch
  6
Continuous
 62
     7
100
AcDbLine
 10
3.0713522722
 20
-6.5727251392
 30
0.0
 11
4.6198344269
 21
-7.0205275255
 31
0.0
  0
LINE
  5
8C
330
41
100
AcDbEntity
  8
LizardEtch
  6
Continuous
 62
     7
100
AcDbLine
 10
4.6198344269
 20
-7.0205275255
 30
0.0
 11
5.1749492912
 21
-7.395848854
 31
0.0
  0
LINE
  5
8D
330
41
100
AcDbEntity
  8
LizardEtch
  6
Continuous
 62
     7
100
AcDbLine
 10
0.0217577425
 20
-3.5816455905
 30
0.0
 11
-1.9891542816
 21
-3.4855212081
 31
0.0
  0
LINE
  5
8E
330
41
100
AcDbEntity
  8
LizardEtch
  6
Continuous
 62
     7
100
AcDbLine
 10
-1.9891542816
 20
-3.4855212081
 30
0.0
 11
-2.9944929026
 21
-3.142993872
 31
0.0
  0
LINE
  5
8F
330
41
100
AcDbEntity
  8
LizardEtch
  6
Continuous
 62
     7
100
AcDbLine
 10
-2.9944929026
 20
-3.142993872
 30
0.0
 11
-4.588149575
 21
-4.1631665278
 31
0.0
  0
LINE
  5
90
330
41
100
AcDbEntity
  8
LizardEtch
  6
Continuous
 62
     7
100
AcDbLine
 10
-4.588149575
 20
-4.1631665278
 30
0.0
 11
-5.6041009422
 21
-4.5631419954
 31
0.0
  0
LINE
  5
91
330
41
100
AcDbEntity
  8
LizardEtch
  6
Continuous
 62
     7
100
AcDbLine
 10
-5.6041009422
 20
-4.5631419954
 30
0.0
 11
-6.1643380204
 21
-5.0720393513
 31
0.0
  0
SPLINE
  5
92
330
41
100
AcDbEntity
  8
LizardEtch
  6
Continuous
 62
     7
100
AcDbSpline
210
0.0
220
0.0
230
1.0
 70
     8
 71
     3
 72
     8
 73
     4
 74
     0
 42
0.0000001094673663
 43
0.0000000001
 12
1.0
 22
0.0
 32
0.0
 13
1.0
 23
0.0
 33
0.0
 40
0.0
 40
0.0
 40
0.0
 40
0.0
 40
1.0
 40
1.0
 40
1.0
 40
1.0
 10
-2.684538659670807
 20
-3.249153284438762
 30
0.0
 10
-2.685429421052163
 20
-3.218916063582583
 30
0.0
 10
-2.685138061692442
 20
-3.188384928370397
 30
0.0
 10
-2.683678508624666
 20
-3.157851230873348
 30
0.0
  0
SPLINE
  5
93
330
41
100
AcDbEntity
  8
LizardEtch
  6
Continuous
 62
     7
100
AcDbSpline
210
0.0
220
0.0
230
1.0
 70
     8
 71
     3
 72
    14
 73
    10
 74
     0
 42
0.0000000020943674
 43
0.0000000001
 12
1.0
 22
0.0
 32
0.0
 13
1.0
 23
0.0
 33
0.0
 40
0.0
 40
0.0
 40
0.0
 40
0.0
 40
0.3333333333333333
 40
0.3333333333333333
 40
0.3333333333333333
 40
0.6666666666666666
 40
0.6666666666666666
 40
0.6666666666666666
 40
1.0
 40
1.0
 40
1.0
 40
1.0
 10
-2.683678508624666
 20
-3.157851230873348
 30
0.0
 10
-2.650866418667761
 20
-2.471425741364328
 30
0.0
 10
-2.017662408382989
 20
-1.943764549102525
 30
0.0
 10
-1.269237197239818
 20
-1.979540311701385
 30
0.0
 10
-0.5210450677570861
 20
-2.015304932672734
 30
0.0
 10
0.0590575045196147
 20
-2.600963861528726
 30
0.0
 10
0.0262454145624815
 20
-3.287389351038655
 30
0.0
 10
0.0221452960211082
 20
-3.373163402020509
 30
0.0
 10
0.0084669924033278
 20
-3.456493881389179
 30
0.0
 10
-0.0134685514666444
 20
-3.536626282283578
 30
0.0
  0
SPLINE
  5
95
330
41
100
AcDbEntity
  8
LizardEtch
  6
Continuous
 62
     7
100
AcDbSpline
210
0.0
220
0.0
230
1.0
 70
     8
 71
     3
 72
    14
 73
    10
 74
     0
 42
0.0000000021000708
 43
0.0000000001
 12
1.0
 22
0.0
 32
0.0
 13
1.0
 23
0.0
 33
0.0
 40
0.0
 40
0.0
 40
0.0
 40
0.0
 40
0.3333333333333333
 40
0.3333333333333333
 40
0.3333333333333333
 40
0.6666666666666666
 40
0.6666666666666666
 40
0.6666666666666666
 40
1.0
 40
1.0
 40
1.0
 40
1.0
 10
-0.0008042798758652
 20
-11.08630078355236
 30
0.0
 10
0.013313073865902
 20
-11.16728050950951
 30
0.0
 10
0.0190251145570528
 20
-11.25060341723565
 30
0.0
 10
0.0149639917083277
 20
-11.33556168240557
 30
0.0
 10
-0.0175305618942048
 20
-12.01534434459882
 30
0.0
 10
-0.6530227151871486
 20
-12.53711420787658
 30
0.0
 10
-1.405060692064467
 20
-12.50116575006814
 30
0.0
 10
-2.156399423960693
 20
-12.46525071713859
 30
0.0
 10
-2.739574731415701
 20
-11.88522685985845
 30
0.0
 10
-2.707080177813168
 20
-11.2054441976652
 30
0.0
  0
LINE
  5
97
330
41
100
AcDbEntity
  8
LizardEtch
  6
Continuous
 62
     7
100
AcDbLine
 10
-12.0430388289
 20
-0.4201067706
 30
0.0
 11
-11.7221172292
 21
-2.2272685307
 31
0.0
  0
LINE
  5
98
330
41
100
AcDbEntity
  8
LizardEtch
  6
Continuous
 62
     7
100
AcDbLine
 10
-11.7221172292
 20
-2.2272685307
 30
0.0
 11
-11.7767891903
 21
-3.3710002376
 31
0.0
  0
LINE
  5
99
330
41
100
AcDbEntity
  8
LizardEtch
  6
Continuous
 62
     7
100
AcDbLine
 10
-12.6559855908
 20
7.3712598542
 30
0.0
 11
-13.9365956535
 21
7.7464523363
 31
0.0
  0
LINE
  5
9A
330
41
100
AcDbEntity
  8
LizardEtch
  6
Continuous
 62
     7
100
AcDbLine
 10
-16.6057187343
 20
0.2502728331
 30
0.0
 11
-15.7798359005
 21
1.5050174087
 31
0.0
  0
LINE
  5
9B
330
41
100
AcDbEntity
  8
LizardEtch
  6
Continuous
 62
     7
100
AcDbLine
 10
-15.7798359005
 20
1.5050174087
 30
0.0
 11
-14.7164597539
 21
2.8995578914
 31
0.0
  0
LINE
  5
9C
330
41
100
AcDbEntity
  8
LizardEtch
  6
Continuous
 62
     7
100
AcDbLine
 10
-10.757218339
 20
15.8568255198
 30
0.0
 11
-10.6772881612
 21
14.4182628579
 31
0.0
  0
LINE
  5
9D
330
41
100
AcDbEntity
  8
LizardEtch
  6
Continuous
 62
     7
100
AcDbLine
 10
-10.6772881612
 20
14.4182628579
 30
0.0
 11
-10.5928195264
 21
13.1870495087
 31
0.0
  0
LINE
  5
9E
330
41
100
AcDbEntity
  8
LizardEtch
  6
Continuous
 62
     7
100
AcDbLine
 10
-10.5928195264
 20
13.1870495087
 30
0.0
 11
-10.2865958295
 21
12.5556699834
 31
0.0
  0
LINE
  5
9F
330
41
100
AcDbEntity
  8
LizardEtch
  6
Continuous
 62
     7
100
AcDbLine
 10
-8.0723248437
 20
14.8029042482
 30
0.0
 11
-8.2831806476
 21
13.8055220144
 31
0.0
  0
LINE
  5
A0
330
41
100
AcDbEntity
  8
LizardEtch
  6
Continuous
 62
     7
100
AcDbLine
 10
-8.2831806476
 20
13.8055220144
 30
0.0
 11
-8.0710809449
 21
13.1599526069
 31
0.0
  0
LINE
  5
A1
330
41
100
AcDbEntity
  8
LizardEtch
  6
Continuous
 62
     7
100
AcDbLine
 10
-8.0710809449
 20
13.1599526069
 30
0.0
 11
-8.286960167
 21
12.5535303249
 31
0.0
  0
LINE
  5
A2
330
41
100
AcDbEntity
  8
LizardEtch
  6
Continuous
 62
     7
100
AcDbLine
 10
-21.8717673317
 20
-6.4910699712
 30
0.0
 11
-22.0287823876
 21
-7.4971582413
 31
0.0
  0
LINE
  5
A3
330
41
100
AcDbEntity
  8
LizardEtch
  6
Continuous
 62
     7
100
AcDbLine
 10
-22.0287823876
 20
-7.4971582414
 30
0.0
 11
-22.2766780943
 21
-8.3823871855
 31
0.0
  0
LINE
  5
A4
330
41
100
AcDbEntity
  8
LizardEtch
  6
Continuous
 62
     7
100
AcDbLine
 10
-22.2766780943
 20
-8.3823871855
 30
0.0
 11
-22.4872093357
 21
-8.8769302705
 31
0.0
  0
LINE
  5
A5
330
41
100
AcDbEntity
  8
LizardEtch
  6
Continuous
 62
     7
100
AcDbLine
 10
-26.9683747722
 20
2.8002594459
 30
0.0
 11
-26.8358774049
 21
3.3667480179
 31
0.0
  0
LINE
  5
A6
330
41
100
AcDbEntity
  8
LizardEtch
  6
Continuous
 62
     7
100
AcDbLine
 10
-26.8358774049
 20
3.3667480179
 30
0.0
 11
-26.2568721577
 21
3.7502318365
 31
0.0
  0
LINE
  5
A7
330
41
100
AcDbEntity
  8
LizardEtch
  6
Continuous
 62
     7
100
AcDbLine
 10
-26.2568721577
 20
3.7502318365
 30
0.0
 11
-26.0614221286
 21
4.3202523829
 31
0.0
  0
LINE
  5
A8
330
41
100
AcDbEntity
  8
LizardEtch
  6
Continuous
 62
     7
100
AcDbLine
 10
-26.0614221286
 20
4.3202523829
 30
0.0
 11
-26.0435955263
 21
4.6931830393
 31
0.0
  0
LINE
  5
A9
330
41
100
AcDbEntity
  8
LizardEtch
  6
Continuous
 62
     7
100
AcDbLine
 10
-36.7983955214
 20
2.6059827647
 30
0.0
 11
-34.3823038175
 21
4.2320844319
 31
0.0
  0
LINE
  5
AA
330
41
100
AcDbEntity
  8
LizardEtch
  6
Continuous
 62
     7
100
AcDbLine
 10
-34.8644009816
 20
1.1988709783
 30
0.0
 11
-32.3571765798
 21
2.8083516283
 31
0.0
  0
LINE
  5
AB
330
41
100
AcDbEntity
  8
LizardEtch
  6
Continuous
 62
     7
100
AcDbLine
 10
-30.1513822286
 20
-10.8963576636
 30
0.0
 11
-28.9952062888
 21
-10.5281986564
 31
0.0
  0
LINE
  5
AC
330
41
100
AcDbEntity
  8
LizardEtch
  6
Continuous
 62
     7
100
AcDbLine
 10
-28.9952062888
 20
-10.5281986564
 30
0.0
 11
-28.2154030318
 21
-9.4628150944
 31
0.0
  0
LINE
  5
AD
330
41
100
AcDbEntity
  8
LizardEtch
  6
Continuous
 62
     7
100
AcDbLine
 10
-28.2154030318
 20
-9.4628150944
 30
0.0
 11
-27.8032538502
 21
-8.6601942526
 31
0.0
  0
LINE
  5
AE
330
41
100
AcDbEntity
  8
LizardEtch
  6
Continuous
 62
     7
100
AcDbLine
 10
-27.8032538502
 20
-8.6601942526
 30
0.0
 11
-27.2757315508
 21
-8.1808037796
 31
0.0
  0
LINE
  5
AF
330
41
100
AcDbEntity
  8
LizardEtch
  6
Continuous
 62
     7
100
AcDbLine
 10
-27.2855004823
 20
-8.189681381
 30
0.0
 11
-27.2276711241
 21
-7.5663595266
 31
0.0
  0
SPLINE
  5
B0
330
41
100
AcDbEntity
  8
LizardEtch
  6
Continuous
 62
     7
100
AcDbSpline
210
0.0
220
0.0
230
1.0
 70
     8
 71
     3
 72
    17
 73
    13
 74
     0
 42
0.0000000002407977
 43
0.0000000001
 12
1.0
 22
0.0
 32
0.0
 13
1.0
 23
0.0
 33
0.0
 40
0.0
 40
0.0
 40
0.0
 40
0.0
 40
0.25
 40
0.25
 40
0.25
 40
0.5
 40
0.5
 40
0.5
 40
0.75
 40
0.75
 40
0.75
 40
1.0
 40
1.0
 40
1.0
 40
1.0
 10
-2.31413992272121
 20
-5.592488671139108
 30
0.0
 10
-4.906415323613601
 20
-7.795785774519572
 30
0.0
 10
-9.574037799538132
 20
-6.203997855997841
 30
0.0
 10
-12.6471446315968
 20
-6.941393640957358
 30
0.0
 10
-15.32335488485398
 20
-7.584291641676828
 30
0.0
 10
-19.0533901812903
 20
-8.748070100016776
 30
0.0
 10
-21.32500638083241
 20
-10.32907136930862
 30
0.0
 10
-24.25716541652105
 20
-12.36975488777625
 30
0.0
 10
-27.21166535594955
 20
-13.60345879390752
 30
0.0
 10
-30.66014085374229
 20
-14.22259405251225
 30
0.0
 10
-33.32382507712737
 20
-14.70088153475444
 30
0.0
 10
-38.65762441290212
 20
-13.81160097075826
 30
0.0
 10
-40.60936614454909
 20
-12.76256106546953
 30
0.0
  0
SPLINE
  5
B1
330
41
100
AcDbEntity
  8
LizardEtch
  6
Continuous
 62
     7
100
AcDbSpline
210
0.0
220
0.0
230
1.0
 70
     8
 71
     3
 72
    11
 73
     7
 74
     0
 42
0.0000000002314284
 43
0.0000000001
 12
1.0
 22
0.0
 32
0.0
 13
1.0
 23
0.0
 33
0.0
 40
0.0
 40
0.0
 40
0.0
 40
0.0
 40
0.5
 40
0.5
 40
0.5
 40
1.0
 40
1.0
 40
1.0
 40
1.0
 10
-40.5868504891323
 20
-12.84788889612173
 30
0.0
 10
-36.80510339896136
 20
-16.64594163501533
 30
0.0
 10
-27.4210314402269
 20
-14.63680041816406
 30
0.0
 10
-22.59647473419011
 20
-12.61060535688648
 30
0.0
 10
-16.36275792923982
 20
-9.992290016608422
 30
0.0
 10
-8.953010562941245
 20
-5.685105633110652
 30
0.0
 10
-2.002006277695386
 20
-8.971454226768401
 30
0.0
  0
LINE
  5
B2
330
41
100
AcDbEntity
  8
LizardEtch
  6
Continuous
 62
     7
100
AcDbLine
 10
-27.2276711241
 20
-7.5663595266
 30
0.0
 11
-26.9540157493
 21
-7.056144723
 31
0.0
  0
LINE
  5
B3
330
41
100
AcDbEntity
  8
Lizard1
  6
Continuous
 62
     7
100
AcDbLine
 10
0.0
 20
0.0
 30
0.0
 11
6.2346179429
 21
-6.8605633025
 31
0.0
  0
ARC
  5
B4
330
41
100
AcDbEntity
  8
Lizard1
  6
Continuous
 62
     7
100
AcDbCircle
 10
5.0597706512
 20
-7.9282196569
 30
0.0
 40
1.5875
100
AcDbArc
 50
349.1077458066
 51
42.2633635324
  0
LINE
  5
B5
330
41
100
AcDbEntity
  8
Lizard1
  6
Continuous
 62
     7
100
AcDbLine
 10
6.6186706759
 20
-8.228197928
 30
0.0
 11
6.3357015253
 21
-9.6987064895
 31
0.0
  0
ARC
  5
B6
330
41
100
AcDbEntity
  8
Lizard1
  6
Continuous
 62
     7
100
AcDbCircle
 10
4.7768015006
 20
-9.3987282184
 30
0.0
 40
1.5875
100
AcDbArc
 50
304.498194143
 51
349.107745807
  0
LINE
  5
B7
330
41
100
AcDbEntity
  8
Lizard1
  6
Continuous
 62
     7
100
AcDbLine
 10
5.6759301661
 20
-10.7070568824
 30
0.0
 11
0.6611955778
 21
-14.153355769
 31
0.0
  0
ARC
  5
B8
330
41
100
AcDbEntity
  8
Lizard1
  6
Continuous
 62
     7
100
AcDbCircle
 10
-0.2379330877
 20
-12.845027105
 30
0.0
 40
1.5875
100
AcDbArc
 50
247.0569575099
 51
304.4981941429
  0
LINE
  5
B9
330
41
100
AcDbEntity
  8
Lizard1
  6
Continuous
 62
     7
100
AcDbLine
 10
-0.8567657738
 20
-14.3069444613
 30
0.0
 11
-6.806787511
 21
-11.7882877679
 31
0.0
  0
ARC
  5
BA
330
41
100
AcDbEntity
  8
Lizard1
  6
Continuous
 62
     7
100
AcDbCircle
 10
-7.4256201972
 20
-13.2502051242
 30
0.0
 40
1.5875
100
AcDbArc
 50
67.0569575099
 51
193.5332307466
  0
LINE
  5
BB
330
41
100
AcDbEntity
  8
Lizard1
  6
Continuous
 62
     7
100
AcDbLine
 10
-8.9690422466
 20
-13.6216948648
 30
0.0
 11
-8.4682654887
 21
-15.7022634661
 31
0.0
  0
ARC
  5
BC
330
41
100
AcDbEntity
  8
Lizard1
  6
Continuous
 62
     7
100
AcDbCircle
 10
-10.0116875381
 20
-16.0737532068
 30
0.0
 40
1.5875
100
AcDbArc
 50
3.3141297892
 51
13.5332307466
  0
LINE
  5
BD
330
41
100
AcDbEntity
  8
Lizard1
  6
Continuous
 62
     7
100
AcDbLine
 10
-8.4268424884
 20
-15.9819794704
 30
0.0
 11
-8.3339374958
 21
-17.5863602387
 31
0.0
  0
ARC
  5
BE
330
41
100
AcDbEntity
  8
Lizard1
  6
Continuous
 62
     7
100
AcDbCircle
 10
-6.7490924462
 20
-17.4945865023
 30
0.0
 40
1.5875
100
AcDbArc
 50
183.3141297892
 51
322.0978341803
  0
LINE
  5
BF
330
41
100
AcDbEntity
  8
Lizard1
  6
Continuous
 62
     7
100
AcDbLine
 10
-5.4964583248
 20
-18.4698116086
 30
0.0
 11
-5.1279110879
 21
-17.9964287544
 31
0.0
  0
ARC
  5
C0
330
41
100
AcDbEntity
  8
Lizard1
  6
Continuous
 62
     7
100
AcDbCircle
 10
-3.8752769665
 20
-18.9716538607
 30
0.0
 40
1.5875
100
AcDbArc
 50
61.5534343709
 51
142.0978341804
  0
LINE
  5
C1
330
41
100
AcDbEntity
  8
Lizard1
  6
Continuous
 62
     7
100
AcDbLine
 10
-3.1190888627
 20
-17.5758258621
 30
0.0
 11
1.4317175181
 21
-20.0412196293
 31
0.0
  0
ARC
  5
C2
330
41
100
AcDbEntity
  8
Lizard1
  6
Continuous
 62
     7
100
AcDbCircle
 10
-34.6959440416
 20
-15.9109379182
 30
0.0
 40
1.587499999954777
100
AcDbArc
 50
237.2632654987
 51
268.6255059284
  0
LINE
  5
C3
330
41
100
AcDbEntity
  8
Lizard1
  6
Continuous
 62
     7
100
AcDbLine
 10
-35.5544318692
 20
-17.2462861498
 30
0.0
 11
-36.2787674443
 21
-16.7806149042
 31
0.0
  0
ARC
  5
C4
330
41
100
AcDbEntity
  8
Lizard1
  6
Continuous
 62
     7
100
AcDbCircle
 10
-37.1372552719
 20
-18.1159631359
 30
0.0
 40
1.5875
100
AcDbArc
 50
57.2632654988
 51
69.3996904891
  0
LINE
  5
C5
330
41
100
AcDbEntity
  8
Lizard1
  6
Continuous
 62
     7
100
AcDbLine
 10
-36.5786986278
 20
-16.6299716402
 30
0.0
 11
-39.5912902618
 21
-15.4975943163
 31
0.0
  0
ARC
  5
C6
330
41
100
AcDbEntity
  8
Lizard1
  6
Continuous
 62
     7
100
AcDbCircle
 10
-39.0327336176
 20
-14.0116028206
 30
0.0
 40
1.5875
100
AcDbArc
 50
239.9456032646
 51
249.3996904891
  0
LINE
  5
C7
330
41
100
AcDbEntity
  8
Lizard1
  6
Continuous
 62
     7
100
AcDbLine
 10
-39.8277885123
 20
-15.3856639416
 30
0.0
 11
-40.8753705666
 21
-14.7795153307
 31
0.0
  0
ARC
  5
C8
330
41
100
AcDbEntity
  8
Lizard1
  6
Continuous
 62
     7
100
AcDbCircle
 10
-40.0803156719
 20
-13.4054542097
 30
0.0
 40
1.5875
100
AcDbArc
 50
202.0045688235
 51
239.9456032646
  0
LINE
  5
C9
330
41
100
AcDbEntity
  8
Lizard1
  6
Continuous
 62
     7
100
AcDbLine
 10
-41.5521726153
 20
-14.000259546
 30
0.0
 11
-41.7460472676
 21
-13.5205130884
 31
0.0
  0
ARC
  5
CA
330
41
100
AcDbEntity
  8
Lizard1
  6
Continuous
 62
     7
100
AcDbCircle
 10
-40.2741903241
 20
-12.9257077521
 30
0.0
 40
1.5875
100
AcDbArc
 50
81.9716149684
 51
202.0045688235
  0
LINE
  5
CB
330
41
100
AcDbEntity
  8
Lizard1
  6
Continuous
 62
     7
100
AcDbLine
 10
-40.0524742404
 20
-11.3537668409
 30
0.0
 11
-33.7073616769
 21
-12.2487200154
 31
0.0
  0
ARC
  5
CC
330
41
100
AcDbEntity
  8
Lizard1
  6
Continuous
 62
     7
100
AcDbCircle
 10
-33.4856455931
 20
-10.6767791042
 30
0.0
 40
1.5875
100
AcDbArc
 50
261.9716149683
 51
294.602352777
  0
LINE
  5
CD
330
41
100
AcDbEntity
  8
Lizard1
  6
Continuous
 62
     7
100
AcDbLine
 10
-32.8247405641
 20
-12.1201642893
 30
0.0
 11
-30.8940517364
 21
-11.2361300282
 31
0.0
  0
ARC
  5
CE
330
41
100
AcDbEntity
  8
Lizard1
  6
Continuous
 62
     7
100
AcDbCircle
 10
-31.5549567654
 20
-9.792744843
 30
0.0
 40
1.5875
100
AcDbArc
 50
294.6023527771
 51
349.064674985
  0
LINE
  5
CF
330
41
100
AcDbEntity
  8
Lizard1
  6
Continuous
 62
     7
100
AcDbLine
 10
-29.9962826832
 20
-10.0938948975
 30
0.0
 11
-29.0333205304
 21
-5.1098541259
 31
0.0
  0
ARC
  5
D0
330
41
100
AcDbEntity
  8
Lizard1
  6
Continuous
 62
     7
100
AcDbCircle
 10
-27.4746464482
 20
-5.4110041804
 30
0.0
 40
1.5875
100
AcDbArc
 50
131.4468339851
 51
169.064674985
  0
LINE
  5
D1
330
41
100
AcDbEntity
  8
Lizard1
  6
Continuous
 62
     7
100
AcDbLine
 10
-28.5254520532
 20
-4.2210613958
 30
0.0
 11
-27.1902395685
 21
-3.0419721312
 31
0.0
  0
ARC
  5
D2
330
41
100
AcDbEntity
  8
Lizard1
  6
Continuous
 62
     7
100
AcDbCircle
 10
-28.2410451735
 20
-1.8520293466
 30
0.0
 40
1.5875
100
AcDbArc
 50
311.4468339851
 51
3.9182053924
  0
LINE
  5
D3
330
41
100
AcDbEntity
  8
Lizard1
  6
Continuous
 62
     7
100
AcDbLine
 10
-26.657255769
 20
-1.7435518276
 30
0.0
 11
-26.8134099279
 21
0.536324267
 31
0.0
  0
ARC
  5
D4
330
41
100
AcDbEntity
  8
Lizard1
  6
Continuous
 62
     7
100
AcDbCircle
 10
-28.3971993325
 20
0.427846748
 30
0.0
 40
1.5875
100
AcDbArc
 50
3.9182053924
 51
113.9605467137
  0
LINE
  5
D5
330
41
100
AcDbEntity
  8
Lizard1
  6
Continuous
 62
     7
100
AcDbLine
 10
-29.0418949707
 20
1.8785444367
 30
0.0
 11
-33.2365435548
 21
0.0144264559
 31
0.0
  0
LINE
  5
D6
330
41
100
AcDbEntity
  8
Lizard1
  6
Continuous
 62
     7
100
AcDbLine
 10
-34.7340236362
 20
-17.4979811421
 30
0.0
 11
-33.2269624467
 21
-17.5015378122
 31
0.0
  0
LINE
  5
D7
330
41
100
AcDbEntity
  8
Lizard1
  6
Continuous
 62
     7
100
AcDbLine
 10
-16.6307779313
 20
-28.8053523464
 30
0.0
 11
-22.2248971138
 21
-33.4349996433
 31
0.0
  0
ARC
  5
D8
330
41
100
AcDbEntity
  8
Lizard1
  6
Continuous
 62
     7
100
AcDbCircle
 10
-21.2127542906
 20
-34.6579972539
 30
0.0
 40
1.587499999991246
100
AcDbArc
 50
129.6108792458
 51
154.4657100803
  0
LINE
  5
D9
330
41
100
AcDbEntity
  8
Lizard1
  6
Continuous
 62
     7
100
AcDbLine
 10
-22.6451991554
 20
-33.9737034871
 30
0.0
 11
-23.5244804483
 21
-35.8143193656
 31
0.0
  0
ARC
  5
DA
330
41
100
AcDbEntity
  8
Lizard1
  6
Continuous
 62
     7
100
AcDbCircle
 10
-24.9569253131
 20
-35.1300255988
 30
0.0
 40
1.587499999991246
100
AcDbArc
 50
222.264564828
 51
334.4657100803
  0
LINE
  5
DB
330
41
100
AcDbEntity
  8
Lizard1
  6
Continuous
 62
     7
100
AcDbLine
 10
-26.1317502195
 20
-36.1977065855
 30
0.0
 11
-28.1184204337
 21
-34.0116700471
 31
0.0
  0
ARC
  5
DC
330
41
100
AcDbEntity
  8
Lizard1
  6
Continuous
 62
     7
100
AcDbCircle
 10
-26.9435955274
 20
-32.9439890603
 30
0.0
 40
1.587499999991246
100
AcDbArc
 50
143.5687286189
 51
222.264564828
  0
LINE
  5
DD
330
41
100
AcDbEntity
  8
Lizard1
  6
Continuous
 62
     7
100
AcDbLine
 10
-28.2208500789
 20
-32.0012393265
 30
0.0
 11
-27.7672918606
 21
-31.3867503715
 31
0.0
  0
ARC
  5
DE
330
41
100
AcDbEntity
  8
Lizard1
  6
Continuous
 62
     7
100
AcDbCircle
 10
-26.490037309
 20
-32.3295001053
 30
0.0
 40
1.587499999991246
100
AcDbArc
 50
137.201296143
 51
143.5687286189
  0
LINE
  5
DF
330
41
100
AcDbEntity
  8
Lizard1
  6
Continuous
 62
     7
100
AcDbLine
 10
-27.654857869
 20
-31.250913385
 30
0.0
 11
-23.3239953486
 21
-26.5737950678
 31
0.0
  0
ARC
  5
E0
330
41
100
AcDbEntity
  8
Lizard1
  6
Continuous
 62
     7
100
AcDbCircle
 10
-24.4888159085
 20
-25.4952083476
 30
0.0
 40
1.587499999991246
100
AcDbArc
 50
317.201296143
 51
42.2696341893
  0
LINE
  5
E1
330
41
100
AcDbEntity
  8
Lizard1
  6
Continuous
 62
     7
100
AcDbLine
 10
-23.314085472
 20
-24.42742342
 30
0.0
 11
-25.6431931886
 21
-21.8650406275
 31
0.0
  0
ARC
  5
E2
330
41
100
AcDbEntity
  8
Lizard1
  6
Continuous
 62
     7
100
AcDbCircle
 10
-24.4684627521
 20
-20.7972556999
 30
0.0
 40
1.587499999991246
100
AcDbArc
 50
212.4301017765
 51
222.2696341893
  0
LINE
  5
E3
330
41
100
AcDbEntity
  8
Lizard1
  6
Continuous
 62
     7
100
AcDbLine
 10
-25.8083862516
 20
-21.6485848169
 30
0.0
 11
-27.8225115541
 21
-18.4785137244
 31
0.0
  0
ARC
  5
E4
330
41
100
AcDbEntity
  8
Lizard1
  6
Continuous
 62
     7
100
AcDbCircle
 10
-29.1624350537
 20
-19.3298428413
 30
0.0
 40
1.587499999991246
100
AcDbArc
 50
32.4301017766
 51
87.2606633682
  0
LINE
  5
E5
330
41
100
AcDbEntity
  8
Lizard1
  6
Continuous
 62
     7
100
AcDbLine
 10
-29.0865648867
 20
-17.7441568801
 30
0.0
 11
-33.251631118
 21
-17.5448713482
 31
0.0
  0
ENDBLK
  5
E7
330
41
100
AcDbEntity
  8
0
100
AcDbBlockEnd
  0
ENDSEC
  0
SECTION
  2
ENTITIES
  0
INSERT
  5
E8
330
1F
100
AcDbEntity
  8
Lizard1
 62
     7
100
AcDbBlockReference
  2
Final_Lizard
 10
264.4449091377
 20
142.2777167058
 30
0.0
  0
ENDSEC
  0
SECTION
  2
OBJECTS
  0
DICTIONARY
  5
C
330
0
100
AcDbDictionary
281
     1
  3
ACAD_GROUP
350
D
  3
ACAD_LAYOUT
350
1A
  3
ACAD_MATERIAL
350
3B
  3
ACAD_MLEADERSTYLE
350
EB
  3
ACAD_MLINESTYLE
350
17
  3
ACAD_PLOTSETTINGS
350
19
  3
ACAD_PLOTSTYLENAME
350
E
  3
ACAD_VISUALSTYLE
350
2A
  3
AcDbVariableDictionary
350
E9
  0
DICTIONARY
  5
D
102
{ACAD_REACTORS
330
C
102
}
330
C
100
AcDbDictionary
281
     1
  0
DICTIONARY
  5
1A
102
{ACAD_REACTORS
330
C
102
}
330
C
100
AcDbDictionary
281
     1
  3
Layout1
350
1E
  3
Model
350
22
  0
DICTIONARY
  5
3B
102
{ACAD_REACTORS
330
C
102
}
330
C
100
AcDbDictionary
281
     1
  3
ByBlock
350
3D
  3
ByLayer
350
3C
  3
Global
350
3E
  0
DICTIONARY
  5
EB
102
{ACAD_REACTORS
330
C
102
}
330
C
100
AcDbDictionary
281
     1
  0
DICTIONARY
  5
17
102
{ACAD_REACTORS
330
C
102
}
330
C
100
AcDbDictionary
281
     1
  3
Standard
350
18
  0
DICTIONARY
  5
19
102
{ACAD_REACTORS
330
C
102
}
330
C
100
AcDbDictionary
281
     1
  0
ACDBDICTIONARYWDFLT
  5
E
102
{ACAD_REACTORS
330
C
102
}
330
C
100
AcDbDictionary
281
     1
  3
Normal
350
F
100
AcDbDictionaryWithDefault
340
F
  0
DICTIONARY
  5
2A
102
{ACAD_REACTORS
330
C
102
}
330
C
100
AcDbDictionary
281
     1
  3
2dWireframe
350
2F
  3
3D Hidden
350
31
  3
3dWireframe
350
30
  3
Basic
350
32
  3
Brighten
350
36
  3
ColorChange
350
3A
  3
Conceptual
350
34
  3
Dim
350
35
  3
Facepattern
350
39
  3
Flat
350
2B
  3
FlatWithEdges
350
2C
  3
Gouraud
350
2D
  3
GouraudWithEdges
350
2E
  3
Linepattern
350
38
  3
Realistic
350
33
  3
Thicken
350
37
  0
DICTIONARY
  5
E9
102
{ACAD_REACTORS
330
C
102
}
330
C
100
AcDbDictionary
281
     1
  3
DIMASSOC
350
EE
  3
HIDETEXT
350
EF
  3
PSOLHEIGHT
350
ED
  3
PSOLWIDTH
350
EC
  0
LAYOUT
  5
1E
102
{ACAD_REACTORS
330
1A
102
}
330
1A
100
AcDbPlotSettings
  1

  2
none_device
  4

  6

 40
0.0
 41
0.0
 42
0.0
 43
0.0
 44
0.0
 45
0.0
 46
0.0
 47
0.0
 48
0.0
 49
0.0
140
0.0
141
0.0
142
1.0
143
1.0
 70
   688
 72
     0
 73
     0
 74
     5
  7

 75
    16
147
1.0
148
0.0
149
0.0
100
AcDbLayout
  1
Layout1
 70
     1
 71
     1
 10
0.0
 20
0.0
 11
594.0
 21
420.0
 12
0.0
 22
0.0
 32
0.0
 14
0.0
 24
0.0
 34
0.0
 15
594.0
 25
420.0
 35
0.0
146
0.0
 13
0.0
 23
0.0
 33
0.0
 16
1.0
 26
0.0
 36
0.0
 17
0.0
 27
1.0
 37
0.0
 76
     0
330
1B
  0
LAYOUT
  5
22
102
{ACAD_REACTORS
330
1A
102
}
330
1A
100
AcDbPlotSettings
  1

  2
none_device
  4

  6

 40
0.0
 41
0.0
 42
0.0
 43
0.0
 44
0.0
 45
0.0
 46
0.0
 47
0.0
 48
0.0
 49
0.0
140
0.0
141
0.0
142
1.0
143
1.0
 70
  1712
 72
     0
 73
     0
 74
     0
  7

 75
     0
147
1.0
148
0.0
149
0.0
100
AcDbLayout
  1
Model
 70
     1
 71
     0
 10
0.0
 20
0.0
 11
594.0
 21
420.0
 12
0.0
 22
0.0
 32
0.0
 14
0.0
 24
0.0
 34
0.0
 15
594.0
 25
420.0
 35
0.0
146
0.0
 13
0.0
 23
0.0
 33
0.0
 16
1.0
 26
0.0
 36
0.0
 17
0.0
 27
1.0
 37
0.0
 76
     0
330
1F
331
29
  0
MATERIAL
  5
3D
102
{ACAD_REACTORS
330
3B
102
}
102
{ACAD_XDICTIONARY
360
112
102
}
330
3B
100
AcDbMaterial
  1
ByBlock
  0
MATERIAL
  5
3C
102
{ACAD_REACTORS
330
3B
102
}
102
{ACAD_XDICTIONARY
360
110
102
}
330
3B
100
AcDbMaterial
  1
ByLayer
  0
MATERIAL
  5
3E
102
{ACAD_REACTORS
330
3B
102
}
102
{ACAD_XDICTIONARY
360
114
102
}
330
3B
100
AcDbMaterial
  1
Global
  0
MLINESTYLE
  5
18
102
{ACAD_REACTORS
330
17
102
}
330
17
100
AcDbMlineStyle
  2
Standard
 70
     0
  3

 62
   256
 51
90.0
 52
90.0
 71
     2
 49
0.5
 62
   256
  6
BYLAYER
 49
-0.5
 62
   256
  6
BYLAYER
  0
ACDBPLACEHOLDER
  5
F
102
{ACAD_REACTORS
330
E
102
}
330
E
  0
VISUALSTYLE
  5
2F
102
{ACAD_REACTORS
330
2A
102
}
102
{ACAD_XDICTIONARY
360
F8
102
}
330
2A
100
AcDbVisualStyle
  2
2dWireframe
 70
     4
 71
     0
 72
     2
 73
     0
 90
        0
 40
-0.6
 41
-30.0
 62
     5
 63
     7
 74
     1
 91
        4
 64
     7
 65
   257
 75
     1
175
     1
 42
1.0
 92
        0
 66
   257
 43
1.0
 76
     1
 77
     6
 78
     2
 67
     7
 79
     5
170
     0
171
     0
290
     0
174
     0
 93
        1
 44
0.0
173
     0
291
     0
 45
0.0
1001
ACAD
1000
AcDbSavedByObjectVersion
1070
     0
  0
VISUALSTYLE
  5
31
102
{ACAD_REACTORS
330
2A
102
}
102
{ACAD_XDICTIONARY
360
FC
102
}
330
2A
100
AcDbVisualStyle
  2
3D Hidden
 70
     6
 71
     1
 72
     2
 73
     2
 90
        0
 40
-0.6
 41
-30.0
 62
     5
 63
     7
 74
     2
 91
        2
 64
     7
 65
   257
 75
     2
175
     1
 42
40.0
 92
        0
 66
   257
 43
1.0
 76
     1
 77
     6
 78
     2
 67
     7
 79
     3
170
     0
171
     0
290
     0
174
     0
 93
        1
 44
0.0
173
     0
291
     0
 45
0.0
1001
ACAD
1000
AcDbSavedByObjectVersion
1070
     0
  0
VISUALSTYLE
  5
30
102
{ACAD_REACTORS
330
2A
102
}
102
{ACAD_XDICTIONARY
360
FA
102
}
330
2A
100
AcDbVisualStyle
  2
3dWireframe
 70
     5
 71
     0
 72
     2
 73
     0
 90
        0
 40
-0.6
 41
-30.0
 62
     5
 63
     7
 74
     1
 91
        4
 64
     7
 65
   257
 75
     1
175
     1
 42
1.0
 92
        0
 66
   257
 43
1.0
 76
     1
 77
     6
 78
     2
 67
     7
 79
     5
170
     0
171
     0
290
     0
174
     0
 93
        1
 44
0.0
173
     0
291
     0
 45
0.0
1001
ACAD
1000
AcDbSavedByObjectVersion
1070
     0
  0
VISUALSTYLE
  5
32
102
{ACAD_REACTORS
330
2A
102
}
102
{ACAD_XDICTIONARY
360
FE
102
}
330
2A
100
AcDbVisualStyle
  2
Basic
 70
     7
 71
     1
 72
     0
 73
     1
 90
        0
 40
-0.6
 41
-30.0
 62
     5
 63
     7
 74
     0
 91
        4
 64
     7
 65
   257
 75
     1
175
     1
 42
1.0
 92
        8
 66
     7
 43
1.0
 76
     1
 77
     6
 78
     2
 67
     7
 79
     5
170
     0
171
     0
290
     0
174
     0
 93
        1
 44
0.0
173
     0
291
     1
 45
0.0
1001
ACAD
1000
AcDbSavedByObjectVersion
1070
     0
  0
VISUALSTYLE
  5
36
102
{ACAD_REACTORS
330
2A
102
}
102
{ACAD_XDICTIONARY
360
106
102
}
330
2A
100
AcDbVisualStyle
  2
Brighten
 70
    12
 71
     2
 72
     2
 73
     0
 90
        0
 40
-0.6
 41
-30.0
 62
     5
 63
     7
 74
     1
 91
        4
 64
     7
 65
   257
 75
     1
175
     1
 42
1.0
 92
        8
 66
     7
 43
1.0
 76
     1
 77
     6
 78
     2
 67
     7
 79
     5
170
     0
171
     0
290
     0
174
     0
 93
        1
 44
50.0
173
     0
291
     1
 45
0.0
1001
ACAD
1000
AcDbSavedByObjectVersion
1070
     0
  0
VISUALSTYLE
  5
3A
102
{ACAD_REACTORS
330
2A
102
}
102
{ACAD_XDICTIONARY
360
10E
102
}
330
2A
100
AcDbVisualStyle
  2
ColorChange
 70
    16
 71
     2
 72
     2
 73
     3
 90
        0
 40
-0.6
 41
-30.0
 62
     5
 63
     8
 74
     1
 91
        4
 64
     7
 65
   257
 75
     1
175
     1
 42
1.0
 92
        8
 66
     8
 43
1.0
 76
     1
 77
     6
 78
     2
 67
     7
 79
     5
170
     0
171
     0
290
     0
174
     0
 93
        1
 44
0.0
173
     0
291
     1
 45
0.0
1001
ACAD
1000
AcDbSavedByObjectVersion
1070
     0
  0
VISUALSTYLE
  5
34
102
{ACAD_REACTORS
330
2A
102
}
102
{ACAD_XDICTIONARY
360
102
102
}
330
2A
100
AcDbVisualStyle
  2
Conceptual
 70
     9
 71
     3
 72
     2
 73
     0
 90
        0
 40
-0.6
 41
-30.0
 62
     5
 63
     7
 74
     2
 91
        2
 64
     7
 65
   257
 75
     1
175
     1
 42
40.0
 92
        8
 66
     7
 43
1.0
 76
     1
 77
     6
 78
     2
 67
     7
 79
     3
170
     0
171
     0
290
     0
174
     0
 93
        1
 44
0.0
173
     0
291
     0
 45
0.0
1001
ACAD
1000
AcDbSavedByObjectVersion
1070
     0
  0
VISUALSTYLE
  5
35
102
{ACAD_REACTORS
330
2A
102
}
102
{ACAD_XDICTIONARY
360
104
102
}
330
2A
100
AcDbVisualStyle
  2
Dim
 70
    11
 71
     2
 72
     2
 73
     0
 90
        0
 40
-0.6
 41
-30.0
 62
     5
 63
     7
 74
     1
 91
        4
 64
     7
 65
   257
 75
     1
175
     1
 42
1.0
 92
        8
 66
     7
 43
1.0
 76
     1
 77
     6
 78
     2
 67
     7
 79
     5
170
     0
171
     0
290
     0
174
     0
 93
        1
 44
-50.0
173
     0
291
     1
 45
0.0
1001
ACAD
1000
AcDbSavedByObjectVersion
1070
     0
  0
VISUALSTYLE
  5
39
102
{ACAD_REACTORS
330
2A
102
}
102
{ACAD_XDICTIONARY
360
10C
102
}
330
2A
100
AcDbVisualStyle
  2
Facepattern
 70
    15
 71
     2
 72
     2
 73
     0
 90
        0
 40
-0.6
 41
-30.0
 62
     5
 63
     7
 74
     1
 91
        4
 64
     7
 65
   257
 75
     1
175
     1
 42
1.0
 92
        8
 66
     7
 43
1.0
 76
     1
 77
     6
 78
     2
 67
     7
 79
     5
170
     0
171
     0
290
     0
174
     0
 93
        1
 44
0.0
173
     0
291
     1
 45
0.0
1001
ACAD
1000
AcDbSavedByObjectVersion
1070
     0
  0
VISUALSTYLE
  5
2B
102
{ACAD_REACTORS
330
2A
102
}
102
{ACAD_XDICTIONARY
360
F0
102
}
330
2A
100
AcDbVisualStyle
  2
Flat
 70
     0
 71
     2
 72
     1
 73
     1
 90
        2
 40
-0.6
 41
30.0
 62
     5
 63
     7
 74
     0
 91
        4
 64
     7
 65
   257
 75
     1
175
     1
 42
1.0
 92
        8
 66
     7
 43
1.0
 76
     1
 77
     6
 78
     2
 67
     7
 79
     5
170
     0
171
     0
290
     0
174
     0
 93
       13
 44
0.0
173
     0
291
     1
 45
0.0
1001
ACAD
1000
AcDbSavedByObjectVersion
1070
     0
  0
VISUALSTYLE
  5
2C
102
{ACAD_REACTORS
330
2A
102
}
102
{ACAD_XDICTIONARY
360
F2
102
}
330
2A
100
AcDbVisualStyle
  2
FlatWithEdges
 70
     1
 71
     2
 72
     1
 73
     1
 90
        2
 40
-0.6
 41
30.0
 62
     5
 63
     7
 74
     1
 91
        4
 64
     7
 65
   257
 75
     1
175
     1
 42
1.0
 92
        0
 66
   257
 43
1.0
 76
     1
 77
     6
 78
     2
 67
     7
 79
     5
170
     0
171
     0
290
     0
174
     0
 93
       13
 44
0.0
173
     0
291
     1
 45
0.0
1001
ACAD
1000
AcDbSavedByObjectVersion
1070
     0
  0
VISUALSTYLE
  5
2D
102
{ACAD_REACTORS
330
2A
102
}
102
{ACAD_XDICTIONARY
360
F4
102
}
330
2A
100
AcDbVisualStyle
  2
Gouraud
 70
     2
 71
     2
 72
     2
 73
     1
 90
        2
 40
-0.6
 41
30.0
 62
     5
 63
     7
 74
     0
 91
        4
 64
     7
 65
   257
 75
     1
175
     1
 42
1.0
 92
        0
 66
     7
 43
1.0
 76
     1
 77
     6
 78
     2
 67
     7
 79
     5
170
     0
171
     0
290
     0
174
     0
 93
       13
 44
0.0
173
     0
291
     1
 45
0.0
1001
ACAD
1000
AcDbSavedByObjectVersion
1070
     0
  0
VISUALSTYLE
  5
2E
102
{ACAD_REACTORS
330
2A
102
}
102
{ACAD_XDICTIONARY
360
F6
102
}
330
2A
100
AcDbVisualStyle
  2
GouraudWithEdges
 70
     3
 71
     2
 72
     2
 73
     1
 90
        2
 40
-0.6
 41
30.0
 62
     5
 63
     7
 74
     1
 91
        4
 64
     7
 65
   257
 75
     1
175
     1
 42
1.0
 92
        0
 66
   257
 43
1.0
 76
     1
 77
     6
 78
     2
 67
     7
 79
     5
170
     0
171
     0
290
     0
174
     0
 93
       13
 44
0.0
173
     0
291
     1
 45
0.0
1001
ACAD
1000
AcDbSavedByObjectVersion
1070
     0
  0
VISUALSTYLE
  5
38
102
{ACAD_REACTORS
330
2A
102
}
102
{ACAD_XDICTIONARY
360
10A
102
}
330
2A
100
AcDbVisualStyle
  2
Linepattern
 70
    14
 71
     2
 72
     2
 73
     0
 90
        0
 40
-0.6
 41
-30.0
 62
     5
 63
     7
 74
     1
 91
        4
 64
     7
 65
   257
 75
     7
175
     7
 42
1.0
 92
        8
 66
     7
 43
1.0
 76
     1
 77
     6
 78
     2
 67
     7
 79
     5
170
     0
171
     0
290
     0
174
     0
 93
        1
 44
0.0
173
     0
291
     1
 45
0.0
1001
ACAD
1000
AcDbSavedByObjectVersion
1070
     0
  0
VISUALSTYLE
  5
33
102
{ACAD_REACTORS
330
2A
102
}
102
{ACAD_XDICTIONARY
360
100
102
}
330
2A
100
AcDbVisualStyle
  2
Realistic
 70
     8
 71
     2
 72
     2
 73
     0
 90
        0
 40
-0.6
 41
-30.0
 62
     5
 63
     7
 74
     1
 91
        0
 64
     7
 65
   257
 75
     1
175
     1
 42
1.0
 92
        8
 66
     8
 43
1.0
 76
     1
 77
     6
 78
     2
 67
     7
 79
     5
170
     0
171
     0
290
     0
174
     0
 93
       13
 44
0.0
173
     0
291
     0
 45
0.0
1001
ACAD
1000
AcDbSavedByObjectVersion
1070
     0
  0
VISUALSTYLE
  5
37
102
{ACAD_REACTORS
330
2A
102
}
102
{ACAD_XDICTIONARY
360
108
102
}
330
2A
100
AcDbVisualStyle
  2
Thicken
 70
    13
 71
     2
 72
     2
 73
     0
 90
        0
 40
-0.6
 41
-30.0
 62
     5
 63
     7
 74
     1
 91
        4
 64
     7
 65
   257
 75
     1
175
     1
 42
1.0
 92
       12
 66
     7
 43
1.0
 76
     1
 77
     6
 78
     2
 67
     7
 79
     5
170
     0
171
     0
290
     0
174
     0
 93
        1
 44
0.0
173
     0
291
     1
 45
0.0
1001
ACAD
1000
AcDbSavedByObjectVersion
1070
     0
  0
DICTIONARYVAR
  5
EE
102
{ACAD_REACTORS
330
E9
102
}
330
E9
100
DictionaryVariables
280
     0
  1
2
  0
DICTIONARYVAR
  5
EF
102
{ACAD_REACTORS
330
E9
102
}
330
E9
100
DictionaryVariables
280
     0
  1
1
  0
DICTIONARYVAR
  5
ED
102
{ACAD_REACTORS
330
E9
102
}
330
E9
100
DictionaryVariables
280
     0
  1
80.000000
  0
DICTIONARYVAR
  5
EC
102
{ACAD_REACTORS
330
E9
102
}
330
E9
100
DictionaryVariables
280
     0
  1
5.000000
  0
DICTIONARY
  5
112
330
3D
100
AcDbDictionary
280
     1
281
     1
  3
ACAD_XREC_ROUNDTRIP
360
113
  0
DICTIONARY
  5
110
330
3C
100
AcDbDictionary
280
     1
281
     1
  3
ACAD_XREC_ROUNDTRIP
360
111
  0
DICTIONARY
  5
114
330
3E
100
AcDbDictionary
280
     1
281
     1
  3
ACAD_XREC_ROUNDTRIP
360
115
  0
DICTIONARY
  5
F8
330
2F
100
AcDbDictionary
280
     1
281
     1
  3
ACAD_XREC_ROUNDTRIP
360
F9
  0
DICTIONARY
  5
FC
330
31
100
AcDbDictionary
280
     1
281
     1
  3
ACAD_XREC_ROUNDTRIP
360
FD
  0
DICTIONARY
  5
FA
330
30
100
AcDbDictionary
280
     1
281
     1
  3
ACAD_XREC_ROUNDTRIP
360
FB
  0
DICTIONARY
  5
FE
330
32
100
AcDbDictionary
280
     1
281
     1
  3
ACAD_XREC_ROUNDTRIP
360
FF
  0
DICTIONARY
  5
106
330
36
100
AcDbDictionary
280
     1
281
     1
  3
ACAD_XREC_ROUNDTRIP
360
107
  0
DICTIONARY
  5
10E
330
3A
100
AcDbDictionary
280
     1
281
     1
  3
ACAD_XREC_ROUNDTRIP
360
10F
  0
DICTIONARY
  5
102
330
34
100
AcDbDictionary
280
     1
281
     1
  3
ACAD_XREC_ROUNDTRIP
360
103
  0
DICTIONARY
  5
104
330
35
100
AcDbDictionary
280
     1
281
     1
  3
ACAD_XREC_ROUNDTRIP
360
105
  0
DICTIONARY
  5
10C
330
39
100
AcDbDictionary
280
     1
281
     1
  3
ACAD_XREC_ROUNDTRIP
360
10D
  0
DICTIONARY
  5
F0
330
2B
100
AcDbDictionary
280
     1
281
     1
  3
ACAD_XREC_ROUNDTRIP
360
F1
  0
DICTIONARY
  5
F2
330
2C
100
AcDbDictionary
280
     1
281
     1
  3
ACAD_XREC_ROUNDTRIP
360
F3
  0
DICTIONARY
  5
F4
330
2D
100
AcDbDictionary
280
     1
281
     1
  3
ACAD_XREC_ROUNDTRIP
360
F5
  0
DICTIONARY
  5
F6
330
2E
100
AcDbDictionary
280
     1
281
     1
  3
ACAD_XREC_ROUNDTRIP
360
F7
  0
DICTIONARY
  5
10A
330
38
100
AcDbDictionary
280
     1
281
     1
  3
ACAD_XREC_ROUNDTRIP
360
10B
  0
DICTIONARY
  5
100
330
33
100
AcDbDictionary
280
     1
281
     1
  3
ACAD_XREC_ROUNDTRIP
360
101
  0
DICTIONARY
  5
108
330
37
100
AcDbDictionary
280
     1
281
     1
  3
ACAD_XREC_ROUNDTRIP
360
109
  0
XRECORD
  5
113
102
{ACAD_REACTORS
330
112
102
}
330
112
100
AcDbXrecord
280
     1
102
MATERIAL
148
0.0
149
0.0
149
0.0
 93
        0
 94
      127
282
     0
 72
     1
 77
     1
171
     1
175
     1
179
     1
273
     0
  0
XRECORD
  5
111
102
{ACAD_REACTORS
330
110
102
}
330
110
100
AcDbXrecord
280
     1
102
MATERIAL
148
0.0
149
0.0
149
0.0
 93
        0
 94
      127
282
     0
 72
     1
 77
     1
171
     1
175
     1
179
     1
273
     0
  0
XRECORD
  5
115
102
{ACAD_REACTORS
330
114
102
}
330
114
100
AcDbXrecord
280
     1
102
MATERIAL
148
0.0
149
0.0
149
0.0
 93
        0
 94
      127
282
     0
 72
     1
 77
     1
171
     1
175
     1
179
     1
273
     0
  0
XRECORD
  5
F9
102
{ACAD_REACTORS
330
F8
102
}
330
F8
100
AcDbXrecord
280
     1
102
RTVSPropertyOp0
 70
     1
102
RTVSPropertyOp1
 70
     1
102
RTVSPropertyOp2
 70
     1
102
RTVSPropertyOp3
 70
     1
102
RTVSPropertyOp4
 70
     1
102
RTVSPropertyOp5
 70
     1
102
RTVSPropertyOp6
 70
     1
102
RTVSPropertyOp7
 70
     1
102
RTVSPropertyOp8
 70
     1
102
RTVSPropertyOp9
 70
     1
102
RTVSPropertyOp10
 70
     1
102
RTVSPropertyOp11
 70
     1
102
RTVSPropertyOp12
 70
     1
102
RTVSPropertyOp13
 70
     1
102
RTVSPropertyOp14
 70
     1
102
RTVSPropertyOp15
 70
     1
102
RTVSPropertyOp16
 70
     1
102
RTVSPropertyOp17
 70
     1
102
RTVSPropertyOp18
 70
     1
102
RTVSPropertyOp19
 70
     1
102
RTVSPropertyOp20
 70
     1
102
RTVSPropertyOp21
 70
     1
102
RTVSPropertyOp22
 70
     1
102
RTVSPropertyOp23
 70
     1
102
RTVSPropertyOp24
 70
     1
102
RTVSPropertyOp25
 70
     1
102
RTVSPropertyOp26
 70
     1
102
RTVSPropertyOp27
 70
     1
102
RTVSPropertyOp28
 70
     1
102
RTVSPropertyOp29
 70
     1
102
RTVSPropertyOp30
 70
     1
102
RTVSPropertyOp31
 70
     1
102
RTVSPropertyOp32
 70
     1
  0
XRECORD
  5
FD
102
{ACAD_REACTORS
330
FC
102
}
330
FC
100
AcDbXrecord
280
     1
102
RTVSPropertyOp0
 70
     1
102
RTVSPropertyOp1
 70
     1
102
RTVSPropertyOp2
 70
     1
102
RTVSPropertyOp3
 70
     1
102
RTVSPropertyOp4
 70
     1
102
RTVSPropertyOp5
 70
     1
102
RTVSPropertyOp6
 70
     1
102
RTVSPropertyOp7
 70
     1
102
RTVSPropertyOp8
 70
     1
102
RTVSPropertyOp9
 70
     1
102
RTVSPropertyOp10
 70
     1
102
RTVSPropertyOp11
 70
     1
102
RTVSPropertyOp12
 70
     1
102
RTVSPropertyOp13
 70
     1
102
RTVSPropertyOp14
 70
     1
102
RTVSPropertyOp15
 70
     1
102
RTVSPropertyOp16
 70
     1
102
RTVSPropertyOp17
 70
     1
102
RTVSPropertyOp18
 70
     1
102
RTVSPropertyOp19
 70
     1
102
RTVSPropertyOp20
 70
     1
102
RTVSPropertyOp21
 70
     1
102
RTVSPropertyOp22
 70
     1
102
RTVSPropertyOp23
 70
     1
102
RTVSPropertyOp24
 70
     1
102
RTVSPropertyOp25
 70
     1
102
RTVSPropertyOp26
 70
     1
102
RTVSPropertyOp27
 70
     1
102
RTVSPropertyOp28
 70
     1
102
RTVSPropertyOp29
 70
     1
102
RTVSPropertyOp30
 70
     1
102
RTVSPropertyOp31
 70
     1
102
RTVSPropertyOp32
 70
     1
  0
XRECORD
  5
FB
102
{ACAD_REACTORS
330
FA
102
}
330
FA
100
AcDbXrecord
280
     1
102
RTVSPropertyOp0
 70
     1
102
RTVSPropertyOp1
 70
     1
102
RTVSPropertyOp2
 70
     1
102
RTVSPropertyOp3
 70
     1
102
RTVSPropertyOp4
 70
     1
102
RTVSPropertyOp5
 70
     1
102
RTVSPropertyOp6
 70
     1
102
RTVSPropertyOp7
 70
     1
102
RTVSPropertyOp8
 70
     1
102
RTVSPropertyOp9
 70
     1
102
RTVSPropertyOp10
 70
     1
102
RTVSPropertyOp11
 70
     1
102
RTVSPropertyOp12
 70
     1
102
RTVSPropertyOp13
 70
     1
102
RTVSPropertyOp14
 70
     1
102
RTVSPropertyOp15
 70
     1
102
RTVSPropertyOp16
 70
     1
102
RTVSPropertyOp17
 70
     1
102
RTVSPropertyOp18
 70
     1
102
RTVSPropertyOp19
 70
     1
102
RTVSPropertyOp20
 70
     1
102
RTVSPropertyOp21
 70
     1
102
RTVSPropertyOp22
 70
     1
102
RTVSPropertyOp23
 70
     1
102
RTVSPropertyOp24
 70
     1
102
RTVSPropertyOp25
 70
     1
102
RTVSPropertyOp26
 70
     1
102
RTVSPropertyOp27
 70
     1
102
RTVSPropertyOp28
 70
     1
102
RTVSPropertyOp29
 70
     1
102
RTVSPropertyOp30
 70
     1
102
RTVSPropertyOp31
 70
     1
102
RTVSPropertyOp32
 70
     1
  0
XRECORD
  5
FF
102
{ACAD_REACTORS
330
FE
102
}
330
FE
100
AcDbXrecord
280
     1
102
RTVSPropertyOp0
 70
     1
102
RTVSPropertyOp1
 70
     1
102
RTVSPropertyOp2
 70
     1
102
RTVSPropertyOp3
 70
     1
102
RTVSPropertyOp4
 70
     1
102
RTVSPropertyOp5
 70
     1
102
RTVSPropertyOp6
 70
     1
102
RTVSPropertyOp7
 70
     1
102
RTVSPropertyOp8
 70
     1
102
RTVSPropertyOp9
 70
     1
102
RTVSPropertyOp10
 70
     1
102
RTVSPropertyOp11
 70
     1
102
RTVSPropertyOp12
 70
     1
102
RTVSPropertyOp13
 70
     1
102
RTVSPropertyOp14
 70
     1
102
RTVSPropertyOp15
 70
     1
102
RTVSPropertyOp16
 70
     1
102
RTVSPropertyOp17
 70
     1
102
RTVSPropertyOp18
 70
     1
102
RTVSPropertyOp19
 70
     1
102
RTVSPropertyOp20
 70
     1
102
RTVSPropertyOp21
 70
     1
102
RTVSPropertyOp22
 70
     1
102
RTVSPropertyOp23
 70
     1
102
RTVSPropertyOp24
 70
     1
102
RTVSPropertyOp25
 70
     1
102
RTVSPropertyOp26
 70
     1
102
RTVSPropertyOp27
 70
     1
102
RTVSPropertyOp28
 70
     1
102
RTVSPropertyOp29
 70
     1
102
RTVSPropertyOp30
 70
     1
102
RTVSPropertyOp31
 70
     1
102
RTVSPropertyOp32
 70
     1
  0
XRECORD
  5
107
102
{ACAD_REACTORS
330
106
102
}
330
106
100
AcDbXrecord
280
     1
102
RTVSPropertyOp0
 70
     1
102
RTVSPropertyOp1
 70
     1
102
RTVSPropertyOp2
 70
     1
102
RTVSPropertyOp3
 70
     1
102
RTVSPropertyOp4
 70
     1
102
RTVSPropertyOp5
 70
     1
102
RTVSPropertyOp6
 70
     1
102
RTVSPropertyOp7
 70
     1
102
RTVSPropertyOp8
 70
     1
102
RTVSPropertyOp9
 70
     1
102
RTVSPropertyOp10
 70
     1
102
RTVSPropertyOp11
 70
     1
102
RTVSPropertyOp12
 70
     1
102
RTVSPropertyOp13
 70
     1
102
RTVSPropertyOp14
 70
     1
102
RTVSPropertyOp15
 70
     1
102
RTVSPropertyOp16
 70
     1
102
RTVSPropertyOp17
 70
     1
102
RTVSPropertyOp18
 70
     1
102
RTVSPropertyOp19
 70
     1
102
RTVSPropertyOp20
 70
     1
102
RTVSPropertyOp21
 70
     1
102
RTVSPropertyOp22
 70
     1
102
RTVSPropertyOp23
 70
     1
102
RTVSPropertyOp24
 70
     1
102
RTVSPropertyOp25
 70
     1
102
RTVSPropertyOp26
 70
     1
102
RTVSPropertyOp27
 70
     1
102
RTVSPropertyOp28
 70
     1
102
RTVSPropertyOp29
 70
     1
102
RTVSPropertyOp30
 70
     1
102
RTVSPropertyOp31
 70
     1
102
RTVSPropertyOp32
 70
     1
  0
XRECORD
  5
10F
102
{ACAD_REACTORS
330
10E
102
}
330
10E
100
AcDbXrecord
280
     1
102
RTVSPropertyOp0
 70
     1
102
RTVSPropertyOp1
 70
     1
102
RTVSPropertyOp2
 70
     1
102
RTVSPropertyOp3
 70
     1
102
RTVSPropertyOp4
 70
     1
102
RTVSPropertyOp5
 70
     1
102
RTVSPropertyOp6
 70
     1
102
RTVSPropertyOp7
 70
     1
102
RTVSPropertyOp8
 70
     1
102
RTVSPropertyOp9
 70
     1
102
RTVSPropertyOp10
 70
     1
102
RTVSPropertyOp11
 70
     1
102
RTVSPropertyOp12
 70
     1
102
RTVSPropertyOp13
 70
     1
102
RTVSPropertyOp14
 70
     1
102
RTVSPropertyOp15
 70
     1
102
RTVSPropertyOp16
 70
     1
102
RTVSPropertyOp17
 70
     1
102
RTVSPropertyOp18
 70
     1
102
RTVSPropertyOp19
 70
     1
102
RTVSPropertyOp20
 70
     1
102
RTVSPropertyOp21
 70
     1
102
RTVSPropertyOp22
 70
     1
102
RTVSPropertyOp23
 70
     1
102
RTVSPropertyOp24
 70
     1
102
RTVSPropertyOp25
 70
     1
102
RTVSPropertyOp26
 70
     1
102
RTVSPropertyOp27
 70
     1
102
RTVSPropertyOp28
 70
     1
102
RTVSPropertyOp29
 70
     1
102
RTVSPropertyOp30
 70
     1
102
RTVSPropertyOp31
 70
     1
102
RTVSPropertyOp32
 70
     1
  0
XRECORD
  5
103
102
{ACAD_REACTORS
330
102
102
}
330
102
100
AcDbXrecord
280
     1
102
RTVSPropertyOp0
 70
     1
102
RTVSPropertyOp1
 70
     1
102
RTVSPropertyOp2
 70
     1
102
RTVSPropertyOp3
 70
     1
102
RTVSPropertyOp4
 70
     1
102
RTVSPropertyOp5
 70
     1
102
RTVSPropertyOp6
 70
     1
102
RTVSPropertyOp7
 70
     1
102
RTVSPropertyOp8
 70
     1
102
RTVSPropertyOp9
 70
     1
102
RTVSPropertyOp10
 70
     1
102
RTVSPropertyOp11
 70
     1
102
RTVSPropertyOp12
 70
     1
102
RTVSPropertyOp13
 70
     1
102
RTVSPropertyOp14
 70
     1
102
RTVSPropertyOp15
 70
     1
102
RTVSPropertyOp16
 70
     1
102
RTVSPropertyOp17
 70
     1
102
RTVSPropertyOp18
 70
     1
102
RTVSPropertyOp19
 70
     1
102
RTVSPropertyOp20
 70
     1
102
RTVSPropertyOp21
 70
     1
102
RTVSPropertyOp22
 70
     1
102
RTVSPropertyOp23
 70
     1
102
RTVSPropertyOp24
 70
     1
102
RTVSPropertyOp25
 70
     1
102
RTVSPropertyOp26
 70
     1
102
RTVSPropertyOp27
 70
     1
102
RTVSPropertyOp28
 70
     1
102
RTVSPropertyOp29
 70
     1
102
RTVSPropertyOp30
 70
     1
102
RTVSPropertyOp31
 70
     1
102
RTVSPropertyOp32
 70
     1
  0
XRECORD
  5
105
102
{ACAD_REACTORS
330
104
102
}
330
104
100
AcDbXrecord
280
     1
102
RTVSPropertyOp0
 70
     1
102
RTVSPropertyOp1
 70
     1
102
RTVSPropertyOp2
 70
     1
102
RTVSPropertyOp3
 70
     1
102
RTVSPropertyOp4
 70
     1
102
RTVSPropertyOp5
 70
     1
102
RTVSPropertyOp6
 70
     1
102
RTVSPropertyOp7
 70
     1
102
RTVSPropertyOp8
 70
     1
102
RTVSPropertyOp9
 70
     1
102
RTVSPropertyOp10
 70
     1
102
RTVSPropertyOp11
 70
     1
102
RTVSPropertyOp12
 70
     1
102
RTVSPropertyOp13
 70
     1
102
RTVSPropertyOp14
 70
     1
102
RTVSPropertyOp15
 70
     1
102
RTVSPropertyOp16
 70
     1
102
RTVSPropertyOp17
 70
     1
102
RTVSPropertyOp18
 70
     1
102
RTVSPropertyOp19
 70
     1
102
RTVSPropertyOp20
 70
     1
102
RTVSPropertyOp21
 70
     1
102
RTVSPropertyOp22
 70
     1
102
RTVSPropertyOp23
 70
     1
102
RTVSPropertyOp24
 70
     1
102
RTVSPropertyOp25
 70
     1
102
RTVSPropertyOp26
 70
     1
102
RTVSPropertyOp27
 70
     1
102
RTVSPropertyOp28
 70
     1
102
RTVSPropertyOp29
 70
     1
102
RTVSPropertyOp30
 70
     1
102
RTVSPropertyOp31
 70
     1
102
RTVSPropertyOp32
 70
     1
  0
XRECORD
  5
10D
102
{ACAD_REACTORS
330
10C
102
}
330
10C
100
AcDbXrecord
280
     1
102
RTVSPropertyOp0
 70
     1
102
RTVSPropertyOp1
 70
     1
102
RTVSPropertyOp2
 70
     1
102
RTVSPropertyOp3
 70
     1
102
RTVSPropertyOp4
 70
     1
102
RTVSPropertyOp5
 70
     1
102
RTVSPropertyOp6
 70
     1
102
RTVSPropertyOp7
 70
     1
102
RTVSPropertyOp8
 70
     1
102
RTVSPropertyOp9
 70
     1
102
RTVSPropertyOp10
 70
     1
102
RTVSPropertyOp11
 70
     1
102
RTVSPropertyOp12
 70
     1
102
RTVSPropertyOp13
 70
     1
102
RTVSPropertyOp14
 70
     1
102
RTVSPropertyOp15
 70
     1
102
RTVSPropertyOp16
 70
     1
102
RTVSPropertyOp17
 70
     1
102
RTVSPropertyOp18
 70
     1
102
RTVSPropertyOp19
 70
     1
102
RTVSPropertyOp20
 70
     1
102
RTVSPropertyOp21
 70
     1
102
RTVSPropertyOp22
 70
     1
102
RTVSPropertyOp23
 70
     1
102
RTVSPropertyOp24
 70
     1
102
RTVSPropertyOp25
 70
     1
102
RTVSPropertyOp26
 70
     1
102
RTVSPropertyOp27
 70
     1
102
RTVSPropertyOp28
 70
     1
102
RTVSPropertyOp29
 70
     1
102
RTVSPropertyOp30
 70
     1
102
RTVSPropertyOp31
 70
     1
102
RTVSPropertyOp32
 70
     1
  0
XRECORD
  5
F1
102
{ACAD_REACTORS
330
F0
102
}
330
F0
100
AcDbXrecord
280
     1
102
RTVSPropertyOp0
 70
     1
102
RTVSPropertyOp1
 70
     1
102
RTVSPropertyOp2
 70
     1
102
RTVSPropertyOp3
 70
     1
102
RTVSPropertyOp4
 70
     1
102
RTVSPropertyOp5
 70
     1
102
RTVSPropertyOp6
 70
     1
102
RTVSPropertyOp7
 70
     1
102
RTVSPropertyOp8
 70
     1
102
RTVSPropertyOp9
 70
     1
102
RTVSPropertyOp10
 70
     1
102
RTVSPropertyOp11
 70
     1
102
RTVSPropertyOp12
 70
     1
102
RTVSPropertyOp13
 70
     1
102
RTVSPropertyOp14
 70
     1
102
RTVSPropertyOp15
 70
     1
102
RTVSPropertyOp16
 70
     1
102
RTVSPropertyOp17
 70
     1
102
RTVSPropertyOp18
 70
     1
102
RTVSPropertyOp19
 70
     1
102
RTVSPropertyOp20
 70
     1
102
RTVSPropertyOp21
 70
     1
102
RTVSPropertyOp22
 70
     1
102
RTVSPropertyOp23
 70
     1
102
RTVSPropertyOp24
 70
     1
102
RTVSPropertyOp25
 70
     1
102
RTVSPropertyOp26
 70
     1
102
RTVSPropertyOp27
 70
     1
102
RTVSPropertyOp28
 70
     1
102
RTVSPropertyOp29
 70
     1
102
RTVSPropertyOp30
 70
     1
102
RTVSPropertyOp31
 70
     1
102
RTVSPropertyOp32
 70
     1
  0
XRECORD
  5
F3
102
{ACAD_REACTORS
330
F2
102
}
330
F2
100
AcDbXrecord
280
     1
102
RTVSPropertyOp0
 70
     1
102
RTVSPropertyOp1
 70
     1
102
RTVSPropertyOp2
 70
     1
102
RTVSPropertyOp3
 70
     1
102
RTVSPropertyOp4
 70
     1
102
RTVSPropertyOp5
 70
     1
102
RTVSPropertyOp6
 70
     1
102
RTVSPropertyOp7
 70
     1
102
RTVSPropertyOp8
 70
     1
102
RTVSPropertyOp9
 70
     1
102
RTVSPropertyOp10
 70
     1
102
RTVSPropertyOp11
 70
     1
102
RTVSPropertyOp12
 70
     1
102
RTVSPropertyOp13
 70
     1
102
RTVSPropertyOp14
 70
     1
102
RTVSPropertyOp15
 70
     1
102
RTVSPropertyOp16
 70
     1
102
RTVSPropertyOp17
 70
     1
102
RTVSPropertyOp18
 70
     1
102
RTVSPropertyOp19
 70
     1
102
RTVSPropertyOp20
 70
     1
102
RTVSPropertyOp21
 70
     1
102
RTVSPropertyOp22
 70
     1
102
RTVSPropertyOp23
 70
     1
102
RTVSPropertyOp24
 70
     1
102
RTVSPropertyOp25
 70
     1
102
RTVSPropertyOp26
 70
     1
102
RTVSPropertyOp27
 70
     1
102
RTVSPropertyOp28
 70
     1
102
RTVSPropertyOp29
 70
     1
102
RTVSPropertyOp30
 70
     1
102
RTVSPropertyOp31
 70
     1
102
RTVSPropertyOp32
 70
     1
  0
XRECORD
  5
F5
102
{ACAD_REACTORS
330
F4
102
}
330
F4
100
AcDbXrecord
280
     1
102
RTVSPropertyOp0
 70
     1
102
RTVSPropertyOp1
 70
     1
102
RTVSPropertyOp2
 70
     1
102
RTVSPropertyOp3
 70
     1
102
RTVSPropertyOp4
 70
     1
102
RTVSPropertyOp5
 70
     1
102
RTVSPropertyOp6
 70
     1
102
RTVSPropertyOp7
 70
     1
102
RTVSPropertyOp8
 70
     1
102
RTVSPropertyOp9
 70
     1
102
RTVSPropertyOp10
 70
     1
102
RTVSPropertyOp11
 70
     1
102
RTVSPropertyOp12
 70
     1
102
RTVSPropertyOp13
 70
     1
102
RTVSPropertyOp14
 70
     1
102
RTVSPropertyOp15
 70
     1
102
RTVSPropertyOp16
 70
     1
102
RTVSPropertyOp17
 70
     1
102
RTVSPropertyOp18
 70
     1
102
RTVSPropertyOp19
 70
     1
102
RTVSPropertyOp20
 70
     1
102
RTVSPropertyOp21
 70
     1
102
RTVSPropertyOp22
 70
     1
102
RTVSPropertyOp23
 70
     1
102
RTVSPropertyOp24
 70
     1
102
RTVSPropertyOp25
 70
     1
102
RTVSPropertyOp26
 70
     1
102
RTVSPropertyOp27
 70
     1
102
RTVSPropertyOp28
 70
     1
102
RTVSPropertyOp29
 70
     1
102
RTVSPropertyOp30
 70
     1
102
RTVSPropertyOp31
 70
     1
102
RTVSPropertyOp32
 70
     1
  0
XRECORD
  5
F7
102
{ACAD_REACTORS
330
F6
102
}
330
F6
100
AcDbXrecord
280
     1
102
RTVSPropertyOp0
 70
     1
102
RTVSPropertyOp1
 70
     1
102
RTVSPropertyOp2
 70
     1
102
RTVSPropertyOp3
 70
     1
102
RTVSPropertyOp4
 70
     1
102
RTVSPropertyOp5
 70
     1
102
RTVSPropertyOp6
 70
     1
102
RTVSPropertyOp7
 70
     1
102
RTVSPropertyOp8
 70
     1
102
RTVSPropertyOp9
 70
     1
102
RTVSPropertyOp10
 70
     1
102
RTVSPropertyOp11
 70
     1
102
RTVSPropertyOp12
 70
     1
102
RTVSPropertyOp13
 70
     1
102
RTVSPropertyOp14
 70
     1
102
RTVSPropertyOp15
 70
     1
102
RTVSPropertyOp16
 70
     1
102
RTVSPropertyOp17
 70
     1
102
RTVSPropertyOp18
 70
     1
102
RTVSPropertyOp19
 70
     1
102
RTVSPropertyOp20
 70
     1
102
RTVSPropertyOp21
 70
     1
102
RTVSPropertyOp22
 70
     1
102
RTVSPropertyOp23
 70
     1
102
RTVSPropertyOp24
 70
     1
102
RTVSPropertyOp25
 70
     1
102
RTVSPropertyOp26
 70
     1
102
RTVSPropertyOp27
 70
     1
102
RTVSPropertyOp28
 70
     1
102
RTVSPropertyOp29
 70
     1
102
RTVSPropertyOp30
 70
     1
102
RTVSPropertyOp31
 70
     1
102
RTVSPropertyOp32
 70
     1
  0
XRECORD
  5
10B
102
{ACAD_REACTORS
330
10A
102
}
330
10A
100
AcDbXrecord
280
     1
102
RTVSPropertyOp0
 70
     1
102
RTVSPropertyOp1
 70
     1
102
RTVSPropertyOp2
 70
     1
102
RTVSPropertyOp3
 70
     1
102
RTVSPropertyOp4
 70
     1
102
RTVSPropertyOp5
 70
     1
102
RTVSPropertyOp6
 70
     1
102
RTVSPropertyOp7
 70
     1
102
RTVSPropertyOp8
 70
     1
102
RTVSPropertyOp9
 70
     1
102
RTVSPropertyOp10
 70
     1
102
RTVSPropertyOp11
 70
     1
102
RTVSPropertyOp12
 70
     1
102
RTVSPropertyOp13
 70
     1
102
RTVSPropertyOp14
 70
     1
102
RTVSPropertyOp15
 70
     1
102
RTVSPropertyOp16
 70
     1
102
RTVSPropertyOp17
 70
     1
102
RTVSPropertyOp18
 70
     1
102
RTVSPropertyOp19
 70
     1
102
RTVSPropertyOp20
 70
     1
102
RTVSPropertyOp21
 70
     1
102
RTVSPropertyOp22
 70
     1
102
RTVSPropertyOp23
 70
     1
102
RTVSPropertyOp24
 70
     1
102
RTVSPropertyOp25
 70
     1
102
RTVSPropertyOp26
 70
     1
102
RTVSPropertyOp27
 70
     1
102
RTVSPropertyOp28
 70
     1
102
RTVSPropertyOp29
 70
     1
102
RTVSPropertyOp30
 70
     1
102
RTVSPropertyOp31
 70
     1
102
RTVSPropertyOp32
 70
     1
  0
XRECORD
  5
101
102
{ACAD_REACTORS
330
100
102
}
330
100
100
AcDbXrecord
280
     1
102
RTVSPropertyOp0
 70
     1
102
RTVSPropertyOp1
 70
     1
102
RTVSPropertyOp2
 70
     1
102
RTVSPropertyOp3
 70
     1
102
RTVSPropertyOp4
 70
     1
102
RTVSPropertyOp5
 70
     1
102
RTVSPropertyOp6
 70
     1
102
RTVSPropertyOp7
 70
     1
102
RTVSPropertyOp8
 70
     1
102
RTVSPropertyOp9
 70
     1
102
RTVSPropertyOp10
 70
     1
102
RTVSPropertyOp11
 70
     1
102
RTVSPropertyOp12
 70
     1
102
RTVSPropertyOp13
 70
     1
102
RTVSPropertyOp14
 70
     1
102
RTVSPropertyOp15
 70
     1
102
RTVSPropertyOp16
 70
     1
102
RTVSPropertyOp17
 70
     1
102
RTVSPropertyOp18
 70
     1
102
RTVSPropertyOp19
 70
     1
102
RTVSPropertyOp20
 70
     1
102
RTVSPropertyOp21
 70
     1
102
RTVSPropertyOp22
 70
     1
102
RTVSPropertyOp23
 70
     1
102
RTVSPropertyOp24
 70
     1
102
RTVSPropertyOp25
 70
     1
102
RTVSPropertyOp26
 70
     1
102
RTVSPropertyOp27
 70
     1
102
RTVSPropertyOp28
 70
     1
102
RTVSPropertyOp29
 70
     1
102
RTVSPropertyOp30
 70
     1
102
RTVSPropertyOp31
 70
     1
102
RTVSPropertyOp32
 70
     1
  0
XRECORD
  5
109
102
{ACAD_REACTORS
330
108
102
}
330
108
100
AcDbXrecord
280
     1
102
RTVSPropertyOp0
 70
     1
102
RTVSPropertyOp1
 70
     1
102
RTVSPropertyOp2
 70
     1
102
RTVSPropertyOp3
 70
     1
102
RTVSPropertyOp4
 70
     1
102
RTVSPropertyOp5
 70
     1
102
RTVSPropertyOp6
 70
     1
102
RTVSPropertyOp7
 70
     1
102
RTVSPropertyOp8
 70
     1
102
RTVSPropertyOp9
 70
     1
102
RTVSPropertyOp10
 70
     1
102
RTVSPropertyOp11
 70
     1
102
RTVSPropertyOp12
 70
     1
102
RTVSPropertyOp13
 70
     1
102
RTVSPropertyOp14
 70
     1
102
RTVSPropertyOp15
 70
     1
102
RTVSPropertyOp16
 70
     1
102
RTVSPropertyOp17
 70
     1
102
RTVSPropertyOp18
 70
     1
102
RTVSPropertyOp19
 70
     1
102
RTVSPropertyOp20
 70
     1
102
RTVSPropertyOp21
 70
     1
102
RTVSPropertyOp22
 70
     1
102
RTVSPropertyOp23
 70
     1
102
RTVSPropertyOp24
 70
     1
102
RTVSPropertyOp25
 70
     1
102
RTVSPropertyOp26
 70
     1
102
RTVSPropertyOp27
 70
     1
102
RTVSPropertyOp28
 70
     1
102
RTVSPropertyOp29
 70
     1
102
RTVSPropertyOp30
 70
     1
102
RTVSPropertyOp31
 70
     1
102
RTVSPropertyOp32
 70
     1
  0
ENDSEC
  0
EOF
