999
dxfrw 0.5.10
0
SECTION
2
HEADER
9
$ACADVER
1
AC1021
9
$HANDSEED
5
20000
9
$DWGCODEPAGE
3
ANSI_1252
9
$INSBASE
10
0
20
0
30
0
9
$EXTMIN
10
-130.996141755
20
-115
30
0
9
$EXTMAX
10
437.859549999
20
493.064349209
30
0
9
$LIMMIN
10
0
20
0
9
$LIMMAX
10
420
20
297
9
$ORTHOMODE
70
0
9
$LTSCALE
40
1
9
$TEXTSTYLE
7
STANDARD
9
$CLAYER
8
0
9
$DIMASZ
40
3
9
$DIMLFAC
40
1
9
$DIMSCALE
40
1
9
$DIMEXO
40
0.625
9
$DIMEXE
40
1.25
9
$DIMTXT
40
2.08579861111
9
$DIMTSZ
40
0
9
$DIMAUNIT
70
0
9
$DIMADEC
70
0
9
$DIMLUNIT
70
2
9
$DIMSTYLE
2
ISO-25
9
$DIMGAP
40
0.625
9
$DIMTIH
70
0
9
$LUNITS
70
2
9
$LUPREC
70
4
9
$AUNITS
70
0
9
$AUPREC
70
0
9
$SPLINESEGS
70
8
9
$GRIDMODE
70
1
9
$SNAPSTYLE
70
0
9
$PINSBASE
10
0
20
0
30
0
9
$PLIMMIN
10
0
20
0
9
$PLIMMAX
10
420
20
297
9
$INSUNITS
70
4
9
$PSVPSCALE
40
1
0
ENDSEC
0
SECTION
2
CLASSES
0
ENDSEC
0
SECTION
2
TABLES
0
TABLE
2
VPORT
5
8
330
0
100
AcDbSymbolTable
70
1
0
VPORT
5
31
330
2
100
AcDbSymbolTableRecord
100
AcDbViewportTableRecord
2
*ACTIVE
70
0
10
0
20
0
11
1
21
1
12
763.05775242
22
306.304174525
13
0
23
0
14
10
24
10
15
10
25
10
16
0
26
0
36
1
17
0
27
0
37
0
40
1416.20635986
41
1.99872773537
42
50
43
0
44
0
50
0
51
0
71
0
72
100
73
1
74
3
75
0
76
1
77
0
78
0
281
0
65
1
110
0
120
0
130
0
111
1
121
0
131
0
112
0
122
1
132
0
79
0
146
0
348
10020
60
7
61
5
292
1
282
1
141
0
142
0
63
250
421
3358443
0
ENDTAB
0
TABLE
2
LTYPE
5
5
330
0
100
AcDbSymbolTable
70
4
0
LTYPE
5
14
330
5
100
AcDbSymbolTableRecord
100
AcDbLinetypeTableRecord
2
ByBlock
70
0
3

72
65
73
0
40
0
0
LTYPE
5
15
330
5
100
AcDbSymbolTableRecord
100
AcDbLinetypeTableRecord
2
ByLayer
70
0
3

72
65
73
0
40
0
0
LTYPE
5
16
330
5
100
AcDbSymbolTableRecord
100
AcDbLinetypeTableRecord
2
Continuous
70
0
3
Solid line
72
65
73
0
40
0
0
LTYPE
5
32
330
5
100
AcDbSymbolTableRecord
100
AcDbLinetypeTableRecord
2
DOT
70
0
3
Dot . . . . . . . . . . . . . . . . . . . . . .
72
65
73
2
40
6.35
49
0
74
0
49
-6.35
74
0
0
LTYPE
5
33
330
5
100
AcDbSymbolTableRecord
100
AcDbLinetypeTableRecord
2
DOT2
70
0
3
Dot (.5x) .....................................
72
65
73
2
40
3.175
49
0
74
0
49
-3.175
74
0
0
LTYPE
5
34
330
5
100
AcDbSymbolTableRecord
100
AcDbLinetypeTableRecord
2
DOTX2
70
0
3
Dot (2x) .  .  .  .  .  .  .  .  .  .  .  .  .
72
65
73
2
40
12.7
49
0
74
0
49
-12.7
74
0
0
LTYPE
5
35
330
5
100
AcDbSymbolTableRecord
100
AcDbLinetypeTableRecord
2
DASHED
70
0
3
Dot . . . . . . . . . . . . . . . . . . . . . .
72
65
73
2
40
19.05
49
12.7
74
0
49
-6.35
74
0
0
LTYPE
5
36
330
5
100
AcDbSymbolTableRecord
100
AcDbLinetypeTableRecord
2
DASHED2
70
0
3
Dashed (.5x) _ _ _ _ _ _ _ _ _ _ _ _ _ _ _ _ _
72
65
73
2
40
9.525
49
6.35
74
0
49
-3.175
74
0
0
LTYPE
5
37
330
5
100
AcDbSymbolTableRecord
100
AcDbLinetypeTableRecord
2
DASHEDX2
70
0
3
Dashed (2x) ____  ____  ____  ____  ____  ___
72
65
73
2
40
38.1
49
25.4
74
0
49
-12.7
74
0
0
LTYPE
5
38
330
5
100
AcDbSymbolTableRecord
100
AcDbLinetypeTableRecord
2
DASHDOT
70
0
3
Dash dot __ . __ . __ . __ . __ . __ . __ . __
72
65
73
4
40
25.4
49
12.7
74
0
49
-6.35
74
0
49
0
74
0
49
-6.35
74
0
0
LTYPE
5
39
330
5
100
AcDbSymbolTableRecord
100
AcDbLinetypeTableRecord
2
DASHDOT2
70
0
3
Dash dot (.5x) _._._._._._._._._._._._._._._.
72
65
73
4
40
12.7
49
6.35
74
0
49
-3.175
74
0
49
0
74
0
49
-3.175
74
0
0
LTYPE
5
3A
330
5
100
AcDbSymbolTableRecord
100
AcDbLinetypeTableRecord
2
DASHDOTX2
70
0
3
Dash dot (2x) ____  .  ____  .  ____  .  ___
72
65
73
4
40
50.8
49
25.4
74
0
49
-12.7
74
0
49
0
74
0
49
-12.7
74
0
0
LTYPE
5
3B
330
5
100
AcDbSymbolTableRecord
100
AcDbLinetypeTableRecord
2
DIVIDE
70
0
3
Divide ____ . . ____ . . ____ . . ____ . . ____
72
65
73
6
40
31.75
49
12.7
74
0
49
-6.35
74
0
49
0
74
0
49
-6.35
74
0
49
0
74
0
49
-6.35
74
0
0
LTYPE
5
3C
330
5
100
AcDbSymbolTableRecord
100
AcDbLinetypeTableRecord
2
DIVIDE2
70
0
3
Divide (.5x) __..__..__..__..__..__..__..__.._
72
65
73
6
40
15.875
49
6.35
74
0
49
-3.175
74
0
49
0
74
0
49
-3.175
74
0
49
0
74
0
49
-3.175
74
0
0
LTYPE
5
3D
330
5
100
AcDbSymbolTableRecord
100
AcDbLinetypeTableRecord
2
DIVIDEX2
70
0
3
Divide (2x) ________  .  .  ________  .  .  _
72
65
73
6
40
63.5
49
25.4
74
0
49
-12.7
74
0
49
0
74
0
49
-12.7
74
0
49
0
74
0
49
-12.7
74
0
0
LTYPE
5
3E
330
5
100
AcDbSymbolTableRecord
100
AcDbLinetypeTableRecord
2
BORDER
70
0
3
Border __ __ . __ __ . __ __ . __ __ . __ __ .
72
65
73
6
40
44.45
49
12.7
74
0
49
-6.35
74
0
49
12.7
74
0
49
-6.35
74
0
49
0
74
0
49
-6.35
74
0
0
LTYPE
5
3F
330
5
100
AcDbSymbolTableRecord
100
AcDbLinetypeTableRecord
2
BORDER2
70
0
3
Border (.5x) __.__.__.__.__.__.__.__.__.__.__.
72
65
73
6
40
22.225
49
6.35
74
0
49
-3.175
74
0
49
6.35
74
0
49
-3.175
74
0
49
0
74
0
49
-3.175
74
0
0
LTYPE
5
40
330
5
100
AcDbSymbolTableRecord
100
AcDbLinetypeTableRecord
2
BORDERX2
70
0
3
Border (2x) ____  ____  .  ____  ____  .  ___
72
65
73
6
40
88.9
49
25.4
74
0
49
-12.7
74
0
49
25.4
74
0
49
-12.7
74
0
49
0
74
0
49
-12.7
74
0
0
LTYPE
5
41
330
5
100
AcDbSymbolTableRecord
100
AcDbLinetypeTableRecord
2
CENTER
70
0
3
Center ____ _ ____ _ ____ _ ____ _ ____ _ ____
72
65
73
4
40
50.8
49
31.75
74
0
49
-6.35
74
0
49
6.35
74
0
49
-6.35
74
0
0
LTYPE
5
42
330
5
100
AcDbSymbolTableRecord
100
AcDbLinetypeTableRecord
2
CENTER2
70
0
3
Center (.5x) ___ _ ___ _ ___ _ ___ _ ___ _ ___
72
65
73
4
40
28.575
49
19.05
74
0
49
-3.175
74
0
49
3.175
74
0
49
-3.175
74
0
0
LTYPE
5
43
330
5
100
AcDbSymbolTableRecord
100
AcDbLinetypeTableRecord
2
CENTERX2
70
0
3
Center (2x) ________  __  ________  __  _____
72
65
73
4
40
101.6
49
63.5
74
0
49
-12.7
74
0
49
12.7
74
0
49
-12.7
74
0
0
ENDTAB
0
TABLE
2
LAYER
5
2
330
0
100
AcDbSymbolTable
70
1
0
LAYER
5
10
330
2
100
AcDbSymbolTableRecord
100
AcDbLayerTableRecord
2
0
70
0
62
7
6
CONTINUOUS
370
-3
390
F
0
LAYER
5
44
330
2
100
AcDbSymbolTableRecord
100
AcDbLayerTableRecord
2
SICHTBAR
70
0
62
7
6
CONTINUOUS
370
-3
390
F
0
LAYER
5
45
330
2
100
AcDbSymbolTableRecord
100
AcDbLayerTableRecord
2
TANGENTEN_KANTEN
70
0
62
7
6
CONTINUOUS
370
-3
390
F
0
ENDTAB
0
TABLE
2
STYLE
5
3
330
0
100
AcDbSymbolTable
70
3
0
STYLE
5
46
330
2
100
AcDbSymbolTableRecord
100
AcDbTextStyleTableRecord
2
Standard
70
0
40
0
41
1
50
0
71
0
42
1
3
txt
4

0
ENDTAB
0
TABLE
2
VIEW
5
6
330
0
100
AcDbSymbolTable
70
0
0
ENDTAB
0
TABLE
2
UCS
5
7
330
0
100
AcDbSymbolTable
70
0
0
ENDTAB
0
TABLE
2
APPID
5
9
330
0
100
AcDbSymbolTable
70
1
0
APPID
5
12
330
9
100
AcDbSymbolTableRecord
100
AcDbRegAppTableRecord
2
ACAD
70
0
0
ENDTAB
0
TABLE
2
DIMSTYLE
5
A
330
0
100
AcDbSymbolTable
70
1
100
AcDbDimStyleTable
71
1
0
DIMSTYLE
105
47
330
A
100
AcDbSymbolTableRecord
100
AcDbDimStyleTableRecord
2
Standard
70
0
40
1
41
3
42
0.625
43
0.38
44
1.25
45
0
46
0
47
0
48
0
140
2.08579861111
141
0.09
142
0
143
25.4
144
1
145
0
146
1
147
0.625
148
0
71
0
72
0
73
0
74
1
75
0
76
0
77
0
78
0
79
0
170
0
171
2
172
0
173
0
174
0
175
0
176
0
177
0
178
0
179
0
271
4
272
4
273
2
274
2
275
0
276
0
277
2
278
46
279
0
280
0
281
0
282
0
283
1
284
0
285
0
286
0
288
0
289
3
340
Standard
341

371
-2
372
-2
0
ENDTAB
0
TABLE
2
BLOCK_RECORD
5
1
330
0
100
AcDbSymbolTable
70
2
0
BLOCK_RECORD
5
1F
330
1
100
AcDbSymbolTableRecord
100
AcDbBlockTableRecord
2
*Model_Space
70
0
280
1
281
0
0
BLOCK_RECORD
5
1E
330
1
100
AcDbSymbolTableRecord
100
AcDbBlockTableRecord
2
*Paper_Space
70
0
280
1
281
0
0
BLOCK_RECORD
5
48
330
1
100
AcDbSymbolTableRecord
100
AcDbBlockTableRecord
2
Bottlerocket 1-0
70
0
280
1
281
0
0
ENDTAB
0
ENDSEC
0
SECTION
2
BLOCKS
0
BLOCK
5
20
330
1F
100
AcDbEntity
8
0
100
AcDbBlockBegin
2
*Model_Space
70
0
10
0
20
0
30
0
3
*Model_Space
1

0
ENDBLK
5
21
330
1F
100
AcDbEntity
8
0
100
AcDbBlockEnd
0
BLOCK
5
1C
330
1B
100
AcDbEntity
8
0
100
AcDbBlockBegin
2
*Paper_Space
70
0
10
0
20
0
30
0
3
*Paper_Space
1

0
ENDBLK
5
1D
330
1F
100
AcDbEntity
8
0
100
AcDbBlockEnd
0
BLOCK
5
49
330
48
100
AcDbEntity
8
0
100
AcDbBlockBegin
2
Bottlerocket 1-0
70
0
10
0
20
0
3
Bottlerocket 1-0
1

0
CIRCLE
5
4B
100
AcDbEntity
8
SICHTBAR
6
ByLayer
62
256
370
-1
100
AcDbCircle
10
0
20
15
40
4
0
LINE
5
4C
100
AcDbEntity
8
SICHTBAR
6
ByLayer
62
256
370
-1
100
AcDbLine
10
17.5
20
360
11
17.5
21
385
0
ARC
5
4D
100
AcDbEntity
8
SICHTBAR
6
ByLayer
62
256
370
-1
100
AcDbCircle
10
-328.75
20
366.25
40
316.450035551
100
AcDbArc
50
336.979715279
51
343.712636605
0
ARC
5
4E
100
AcDbEntity
8
SICHTBAR
6
ByLayer
62
256
370
-1
100
AcDbCircle
10
-120.71166182
20
94.4255814141
40
40
100
AcDbArc
50
324.515957682
51
11.9285592873
0
ARC
5
4F
100
AcDbEntity
8
SICHTBAR
6
ByLayer
62
256
370
-1
100
AcDbCircle
10
-99.7540598855
20
-62.7384642228
40
230.75020164
100
AcDbArc
50
349.612451391
51
35.4840423178
0
LINE
5
50
100
AcDbEntity
8
SICHTBAR
6
ByLayer
62
256
370
-1
100
AcDbLine
10
-23
20
74.5
11
-23
21
82.5
0
ARC
5
51
100
AcDbEntity
8
SICHTBAR
6
ByLayer
62
256
370
-1
100
AcDbCircle
10
-406.589678824
20
205.819938759
40
498.939149341
100
AcDbArc
50
348.071440713
51
33.2057833128
0
LINE
5
52
100
AcDbEntity
8
SICHTBAR
6
ByLayer
62
256
370
-1
100
AcDbLine
10
-37.5
20
85
11
-25
21
85
0
ARC
5
53
100
AcDbEntity
8
SICHTBAR
6
ByLayer
62
256
370
-1
100
AcDbCircle
10
114.427363498
20
-102
40
13
100
AcDbArc
50
270
51
349.612451391
0
ARC
5
54
100
AcDbEntity
8
SICHTBAR
6
ByLayer
62
256
370
-1
100
AcDbCircle
10
-1.13686837722e-013
20
471.943387437
40
13
100
AcDbArc
50
33.2057833128
51
146.794216687
0
LINE
5
55
100
AcDbEntity
8
SICHTBAR
6
ByLayer
62
256
370
-1
100
AcDbLine
10
-11
20
38
11
-11
21
47
0
LINE
5
56
100
AcDbEntity
8
SICHTBAR
6
ByLayer
62
256
370
-1
100
AcDbLine
10
5
20
395
11
-5
21
395
0
LINE
5
57
100
AcDbEntity
8
SICHTBAR
6
ByLayer
62
256
370
-1
100
AcDbLine
10
-8
20
28
11
-8
21
34
0
LINE
5
58
100
AcDbEntity
8
SICHTBAR
6
ByLayer
62
256
370
-1
100
AcDbLine
10
114.427363498
20
-115
11
109.055656674
21
-115
0
LINE
5
59
100
AcDbEntity
8
SICHTBAR
6
ByLayer
62
256
370
-1
100
AcDbLine
10
-17.5
20
385
11
-17.5
21
360
0
ARC
5
5A
100
AcDbEntity
8
SICHTBAR
6
ByLayer
62
256
370
-1
100
AcDbCircle
10
-2.03488372093
20
74.3837209302
40
25.0351537591
100
AcDbArc
50
305.491274439
51
0.266118752917
0
LINE
5
5B
100
AcDbEntity
8
SICHTBAR
6
ByLayer
62
256
370
-1
100
AcDbLine
10
11
20
47
11
11
21
38
0
LINE
5
5C
100
AcDbEntity
8
SICHTBAR
6
ByLayer
62
256
370
-1
100
AcDbLine
10
-42.5
20
217.5
11
-42.5
21
102.5
0
LINE
5
5D
100
AcDbEntity
8
SICHTBAR
6
ByLayer
62
256
370
-1
100
AcDbLine
10
15
20
357.5
11
17.5
21
360
0
LINE
5
5E
100
AcDbEntity
8
SICHTBAR
6
ByLayer
62
256
370
-1
100
AcDbLine
10
25
20
82.5
11
23
21
82.5
0
LINE
5
5F
100
AcDbEntity
8
SICHTBAR
6
ByLayer
62
256
370
-1
100
AcDbLine
10
12.5
20
54
11
12.5
21
48
0
ARC
5
60
100
AcDbEntity
8
SICHTBAR
6
ByLayer
62
256
370
-1
100
AcDbCircle
10
406.589678824
20
205.819938759
40
498.939149341
100
AcDbArc
50
146.794216687
51
191.928559287
0
ARC
5
61
100
AcDbEntity
8
SICHTBAR
6
ByLayer
62
256
370
-1
100
AcDbCircle
10
-1.13686837722e-013
20
-58.0688430478
40
40
100
AcDbArc
50
64.6862763725
51
115.313723628
0
ARC
5
62
100
AcDbEntity
8
SICHTBAR
6
ByLayer
62
256
370
-1
100
AcDbCircle
10
-4.82142857143
20
381.964285714
40
13.0369373203
100
AcDbArc
50
90.784824603
51
166.534791905
0
ARC
5
63
100
AcDbEntity
8
SICHTBAR
6
ByLayer
62
256
370
-1
100
AcDbCircle
10
99.7540598855
20
-62.7384642228
40
230.75020164
100
AcDbArc
50
144.515957682
51
190.387548609
0
ARC
5
64
100
AcDbEntity
8
SICHTBAR
6
ByLayer
62
256
370
-1
100
AcDbCircle
10
-109.055656674
20
-102
40
13
100
AcDbArc
50
270
51
338.187740829
0
ARC
5
65
100
AcDbEntity
8
SICHTBAR
6
ByLayer
62
256
370
-1
100
AcDbCircle
10
-51.0957405173
20
-166.095740517
40
159.50140282
100
AcDbArc
50
21.8122591706
51
64.6862763725
0
LINE
5
66
100
AcDbEntity
8
SICHTBAR
6
ByLayer
62
256
370
-1
100
AcDbLine
10
42.5
20
102.5
11
42.5
21
217.5
0
ARC
5
67
100
AcDbEntity
8
SICHTBAR
6
ByLayer
62
256
370
-1
100
AcDbCircle
10
328.75
20
366.25
40
316.450035551
100
AcDbArc
50
196.287363395
51
203.020284721
0
CIRCLE
5
68
100
AcDbEntity
8
SICHTBAR
6
ByLayer
62
256
370
-1
100
AcDbCircle
10
0
20
425
40
4
0
ARC
5
69
100
AcDbEntity
8
SICHTBAR
6
ByLayer
62
256
370
-1
100
AcDbCircle
10
-393.333333333
20
364.166666667
40
378.392065926
100
AcDbArc
50
346.759480085
51
358.990487217
0
LINE
5
6A
100
AcDbEntity
8
SICHTBAR
6
ByLayer
62
256
370
-1
100
AcDbLine
10
-12.5
20
48
11
-12.5
21
54
0
ARC
5
6B
100
AcDbEntity
8
SICHTBAR
6
ByLayer
62
256
370
-1
100
AcDbCircle
10
-28.75
20
216.25
40
71.2609640687
100
AcDbArc
50
1.00508600525
51
21.6147789428
0
LINE
5
6C
100
AcDbEntity
8
SICHTBAR
6
ByLayer
62
256
370
-1
100
AcDbLine
10
-8
20
34
11
-11
21
38
0
ARC
5
6D
100
AcDbEntity
8
SICHTBAR
6
ByLayer
62
256
370
-1
100
AcDbCircle
10
28.75
20
216.25
40
71.2609640687
100
AcDbArc
50
158.385221057
51
178.994913995
0
ARC
5
6E
100
AcDbEntity
8
SICHTBAR
6
ByLayer
62
256
370
-1
100
AcDbCircle
10
2.03488372093
20
74.3837209302
40
25.0351537591
100
AcDbArc
50
179.733881247
51
234.508725561
0
LINE
5
6F
100
AcDbEntity
8
SICHTBAR
6
ByLayer
62
256
370
-1
100
AcDbLine
10
8
20
28
11
-8
21
28
0
LINE
5
70
100
AcDbEntity
8
SICHTBAR
6
ByLayer
62
256
370
-1
100
AcDbLine
10
-17.5
20
360
11
-15
21
357.5
0
ARC
5
71
100
AcDbEntity
8
SICHTBAR
6
ByLayer
62
256
370
-1
100
AcDbCircle
10
120.71166182
20
94.4255814141
40
40
100
AcDbArc
50
168.071440713
51
215.484042318
0
LINE
5
72
100
AcDbEntity
8
SICHTBAR
6
ByLayer
62
256
370
-1
100
AcDbLine
10
-23
20
82.5
11
-25
21
82.5
0
LINE
5
73
100
AcDbEntity
8
SICHTBAR
6
ByLayer
62
256
370
-1
100
AcDbLine
10
-11
20
47
11
-12.5
21
48
0
ARC
5
74
100
AcDbEntity
8
SICHTBAR
6
ByLayer
62
256
370
-1
100
AcDbCircle
10
4.82142857143
20
381.964285714
40
13.0369373203
100
AcDbArc
50
13.4652080948
51
89.215175397
0
ARC
5
75
100
AcDbEntity
8
SICHTBAR
6
ByLayer
62
256
370
-1
100
AcDbCircle
10
51.0957405173
20
-166.095740517
40
159.50140282
100
AcDbArc
50
115.313723628
51
158.187740829
0
LINE
5
76
100
AcDbEntity
8
SICHTBAR
6
ByLayer
62
256
370
-1
100
AcDbLine
10
8
20
34
11
8
21
28
0
ARC
5
77
100
AcDbEntity
8
SICHTBAR
6
ByLayer
62
256
370
-1
100
AcDbCircle
10
26.875
20
97.5
40
16.4055059355
100
AcDbArc
50
310.364536573
51
17.7446716251
0
LINE
5
78
100
AcDbEntity
8
SICHTBAR
6
ByLayer
62
256
370
-1
100
AcDbLine
10
23
20
82.5
11
23
21
74.5
0
ARC
5
79
100
AcDbEntity
8
SICHTBAR
6
ByLayer
62
256
370
-1
100
AcDbCircle
10
-26.875
20
97.5
40
16.4055059355
100
AcDbArc
50
162.255328375
51
229.635463427
0
LINE
5
7A
100
AcDbEntity
8
SICHTBAR
6
ByLayer
62
256
370
-1
100
AcDbLine
10
25
20
85
11
37.5
21
85
0
LINE
5
7B
100
AcDbEntity
8
SICHTBAR
6
ByLayer
62
256
370
-1
100
AcDbLine
10
11
20
38
11
8
21
34
0
CIRCLE
5
7C
100
AcDbEntity
8
SICHTBAR
6
ByLayer
62
256
370
-1
100
AcDbCircle
10
0
20
0
40
4
0
LINE
5
7D
100
AcDbEntity
8
SICHTBAR
6
ByLayer
62
256
370
-1
100
AcDbLine
10
-25
20
82.5
11
-25
21
85
0
LINE
5
7E
100
AcDbEntity
8
SICHTBAR
6
ByLayer
62
256
370
-1
100
AcDbLine
10
25
20
85
11
25
21
82.5
0
CIRCLE
5
7F
100
AcDbEntity
8
SICHTBAR
6
ByLayer
62
256
370
-1
100
AcDbCircle
10
0
20
410
40
4
0
LINE
5
80
100
AcDbEntity
8
SICHTBAR
6
ByLayer
62
256
370
-1
100
AcDbLine
10
-109.055656674
20
-115
11
-114.427363498
21
-115
0
ARC
5
81
100
AcDbEntity
8
SICHTBAR
6
ByLayer
62
256
370
-1
100
AcDbCircle
10
109.055656674
20
-102
40
13
100
AcDbArc
50
201.812259171
51
270
0
ARC
5
82
100
AcDbEntity
8
SICHTBAR
6
ByLayer
62
256
370
-1
100
AcDbCircle
10
393.333333333
20
364.166666667
40
378.392065926
100
AcDbArc
50
181.009512783
51
193.240519915
0
ARC
5
83
100
AcDbEntity
8
SICHTBAR
6
ByLayer
62
256
370
-1
100
AcDbCircle
10
-114.427363498
20
-102
40
13
100
AcDbArc
50
190.387548609
51
270
0
LINE
5
84
100
AcDbEntity
8
SICHTBAR
6
ByLayer
62
256
370
-1
100
AcDbLine
10
12.5
20
48
11
11
21
47
0
LINE
5
85
100
AcDbEntity
8
0
6
ByLayer
62
256
370
-1
100
AcDbLine
10
5
20
30
11
5
21
-20
0
LINE
5
86
100
AcDbEntity
8
0
6
ByLayer
62
256
370
-1
100
AcDbLine
10
-5
20
-20
11
-5
21
30
0
ENDBLK
5
4A
330
48
100
AcDbEntity
8
0
100
AcDbBlockEnd
0
ENDSEC
0
SECTION
2
ENTITIES
0
INSERT
5
87
100
AcDbEntity
8
0
6
ByLayer
62
256
370
-1
100
AcDbBlockReference
2
Bottlerocket 1-0
10
0
20
0
30
0
41
1
42
1
43
0
50
0
70
1
71
1
44
0
45
0
0
LINE
5
88
100
AcDbEntity
8
SICHTBAR
6
ByLayer
62
256
370
-1
100
AcDbLine
10
176.537216805
20
102.5
11
176.537216805
21
217.5
0
ARC
5
89
100
AcDbEntity
8
SICHTBAR
6
ByLayer
62
256
370
-1
100
AcDbCircle
10
462.787216805
20
366.25
40
316.450035551
100
AcDbArc
50
196.287363395
51
203.020284721
0
ARC
5
8A
100
AcDbEntity
8
SICHTBAR
6
ByLayer
62
256
370
-1
100
AcDbCircle
10
134.037216805
20
-58.0688430478
40
40
100
AcDbArc
50
64.6862763725
51
79.1930771251
0
ARC
5
8B
100
AcDbEntity
8
SICHTBAR
6
ByLayer
62
256
370
-1
100
AcDbCircle
10
82.9414762877
20
-166.095740517
40
159.50140282
100
AcDbArc
50
20.5405221548
51
64.6862763725
0
ARC
5
8C
100
AcDbEntity
8
SICHTBAR
6
ByLayer
62
256
370
-1
100
AcDbCircle
10
138.858645376
20
381.964285714
40
13.0369373203
100
AcDbArc
50
13.4652080948
51
78.1435614006
0
ARC
5
8D
100
AcDbEntity
8
SICHTBAR
6
ByLayer
62
256
370
-1
100
AcDbCircle
10
34.2831569195
20
-62.7384642228
40
230.75020164
100
AcDbArc
50
348.433834777
51
35.5319657535
0
LINE
5
8E
100
AcDbEntity
8
SICHTBAR
6
ByLayer
62
256
370
-1
100
AcDbLine
10
159.037216805
20
82.5
11
157.037216805
21
82.5
0
LINE
5
8F
100
AcDbEntity
8
SICHTBAR
6
ByLayer
62
256
370
-1
100
AcDbLine
10
146.537216805
20
54
11
146.537216805
21
48
0
LINE
5
90
100
AcDbEntity
8
SICHTBAR
6
ByLayer
62
256
370
-1
100
AcDbLine
10
141.537216805
20
28
11
141.537216805
21
-18.778258934
0
LINE
5
91
100
AcDbEntity
8
SICHTBAR
6
ByLayer
62
256
370
-1
100
AcDbLine
10
157.037216805
20
82.5
11
157.037216805
21
74.5
0
LINE
5
92
100
AcDbEntity
8
SICHTBAR
6
ByLayer
62
256
370
-1
100
AcDbLine
10
145.037216805
20
47
11
145.037216805
21
38
0
LINE
5
93
100
AcDbEntity
8
SICHTBAR
6
ByLayer
62
256
370
-1
100
AcDbLine
10
159.037216805
20
85
11
171.537216805
21
85
0
LINE
5
94
100
AcDbEntity
8
SICHTBAR
6
ByLayer
62
256
370
-1
100
AcDbLine
10
145.037216805
20
38
11
142.037216805
21
34
0
ARC
5
95
100
AcDbEntity
8
SICHTBAR
6
ByLayer
62
256
370
-1
100
AcDbCircle
10
105.287216805
20
216.25
40
71.2609640687
100
AcDbArc
50
1.00508600525
51
21.6147789428
0
ARC
5
96
100
AcDbEntity
8
SICHTBAR
6
ByLayer
62
256
370
-1
100
AcDbCircle
10
254.617346096
20
94.6099287394
40
40
100
AcDbArc
50
168.575576001
51
215.531965753
0
ARC
5
97
100
AcDbEntity
8
SICHTBAR
6
ByLayer
62
256
370
-1
100
AcDbCircle
10
160.912216805
20
97.5
40
16.4055059355
100
AcDbArc
50
310.364536573
51
17.7446716251
0
ARC
5
98
100
AcDbEntity
8
SICHTBAR
6
ByLayer
62
256
370
-1
100
AcDbCircle
10
527.370550138
20
364.166666667
40
378.392065926
100
AcDbArc
50
181.009512783
51
193.240519915
0
LINE
5
99
100
AcDbEntity
8
SICHTBAR
6
ByLayer
62
256
370
-1
100
AcDbLine
10
149.037216805
20
357.5
11
151.537216805
21
360
0
LINE
5
9A
100
AcDbEntity
8
SICHTBAR
6
ByLayer
62
256
370
-1
100
AcDbLine
10
142.037216805
20
28
11
141.537216805
21
28
0
LINE
5
9B
100
AcDbEntity
8
SICHTBAR
6
ByLayer
62
256
370
-1
100
AcDbLine
10
142.037216805
20
34
11
142.037216805
21
28
0
ARC
5
9C
100
AcDbEntity
8
SICHTBAR
6
ByLayer
62
256
370
-1
100
AcDbCircle
10
253
20
-107.5
40
7.5
100
AcDbArc
50
270
51
348.433834777
0
LINE
5
9D
100
AcDbEntity
8
SICHTBAR
6
ByLayer
62
256
370
-1
100
AcDbLine
10
159.037216805
20
85
11
159.037216805
21
82.5
0
ARC
5
9E
100
AcDbEntity
8
SICHTBAR
6
ByLayer
62
256
370
-1
100
AcDbCircle
10
-273.643709369
20
201.360404014
40
498.939149341
100
AcDbArc
50
348.575576001
51
33.6821046032
0
ARC
5
9F
100
AcDbEntity
8
SICHTBAR
6
ByLayer
62
256
370
-1
100
AcDbCircle
10
132.002333084
20
74.3837209302
40
25.0351537591
100
AcDbArc
50
305.491274439
51
0.266118752917
0
LINE
5
A0
100
AcDbEntity
8
SICHTBAR
6
ByLayer
62
256
370
-1
100
AcDbLine
10
253
20
-115
11
239.325643444
21
-115
0
ARC
5
A1
100
AcDbEntity
8
SICHTBAR
6
ByLayer
62
256
370
-1
100
AcDbCircle
10
239.325643444
20
-107.5
40
7.5
100
AcDbArc
50
200.540522155
51
270
0
LINE
5
A2
100
AcDbEntity
8
SICHTBAR
6
ByLayer
62
256
370
-1
100
AcDbLine
10
146.537216805
20
48
11
145.037216805
21
47
0
LINE
5
A3
100
AcDbEntity
8
SICHTBAR
6
ByLayer
62
256
370
-1
100
AcDbLine
10
151.537216805
20
360
11
151.537216805
21
385
0
LINE
5
A4
100
AcDbEntity
8
SICHTBAR
6
ByLayer
62
256
370
-1
100
AcDbLine
10
141.537216805
20
478.064349209
11
141.537216805
21
394.723086198
0
ENDSEC
0
SECTION
2
OBJECTS
0
DICTIONARY
5
C
330
0
100
AcDbDictionary
281
1
3
ACAD_GROUP
350
D
0
DICTIONARY
5
D
330
C
100
AcDbDictionary
281
1
0
ENDSEC
0
EOF
