  0
SECTION
  2
HEADER
  9
$ACADVER
  1
AC1014
  9
$HANDSEED
  5
FFFF
  9
$MEASUREMENT
 70
     1
  0
ENDSEC
  0
SECTION
  2
TABLES
  0
TABLE
  2
VPORT
  5
8
330
0
100
AcDbSymbolTable
 70
     4
  0
VPORT
  5
2E
330
8
100
AcDbSymbolTableRecord
100
AcDbViewportTableRecord
  2
*ACTIVE
 70
     0
 10
0.0
 20
0.0
 11
1.0
 21
1.0
 12
210.0
 22
148.5
 13
0.0
 23
0.0
 14
10.0
 24
10.0
 15
10.0
 25
10.0
 16
0.0
 26
0.0
 36
1.0
 17
0.0
 27
0.0
 37
0.0
 40
341.0
 41
1.24
 42
50.0
 43
0.0
 44
0.0
 50
0.0
 51
0.0
 71
     0
 72
   100
 73
     1
 74
     3
 75
     0
 76
     0
 77
     0
 78
     0
  0
ENDTAB
  0
TABLE
  2
LTYPE
  5
5
330
0
100
AcDbSymbolTable
 70
     1
  0
LTYPE
  5
14
330
5
100
AcDbSymbolTableRecord
100
AcDbLinetypeTableRecord
  2
BYBLOCK
 70
     0
  3

 72
    65
 73
     0
 40
0.0
  0
LTYPE
  5
15
330
5
100
AcDbSymbolTableRecord
100
AcDbLinetypeTableRecord
  2
BYLAYER
 70
     0
  3

 72
    65
 73
     0
 40
0.0
  0
LTYPE
  5
16
330
5
100
AcDbSymbolTableRecord
100
AcDbLinetypeTableRecord
  2
CONTINUOUS
 70
     0
  3
Solid line
 72
    65
 73
     0
 40
0.0
  0
ENDTAB
  0
TABLE
  2
LAYER
  5
2
100
AcDbSymbolTable
 70
2
  0
LAYER
  5
50
100
AcDbSymbolTableRecord
100
AcDbLayerTableRecord
  2
0
 70
0
  6
CONTINUOUS
  0
LAYER
  5
51
100
AcDbSymbolTableRecord
100
AcDbLayerTableRecord
  2
Layer_1
 70
0
  6
CONTINUOUS
  0
ENDTAB
  0
TABLE
  2
STYLE
  5
3
330
0
100
AcDbSymbolTable
 70
     1
  0
STYLE
  5
11
330
3
100
AcDbSymbolTableRecord
100
AcDbTextStyleTableRecord
  2
STANDARD
 70
     0
 40
0.0
 41
1.0
 50
0.0
 71
     0
 42
2.5
  3
txt
  4

  0
ENDTAB
  0
TABLE
  2
VIEW
  5
6
330
0
100
AcDbSymbolTable
 70
     0
  0
ENDTAB
  0
TABLE
  2
UCS
  5
7
330
0
100
AcDbSymbolTable
 70
     0
  0
ENDTAB
  0
TABLE
  2
APPID
  5
9
330
0
100
AcDbSymbolTable
 70
     2
  0
APPID
  5
12
330
9
100
AcDbSymbolTableRecord
100
AcDbRegAppTableRecord
  2
ACAD
 70
     0
  0
ENDTAB
  0
TABLE
  2
DIMSTYLE
  5
A
330
0
100
AcDbSymbolTable
 70
     1
  0
DIMSTYLE
105
27
330
A
100
AcDbSymbolTableRecord
100
AcDbDimStyleTableRecord
  2
ISO-25
 70
     0
  3

  4

  5

  6

  7

 40
1.0
 41
2.5
 42
0.625
 43
3.75
 44
1.25
 45
0.0
 46
0.0
 47
0.0
 48
0.0
140
2.5
141
2.5
142
0.0
143
0.03937007874016
144
1.0
145
0.0
146
1.0
147
0.625
 71
     0
 72
     0
 73
     0
 74
     0
 75
     0
 76
     0
 77
     1
 78
     8
170
     0
171
     3
172
     1
173
     0
174
     0
175
     0
176
     0
177
     0
178
     0
270
     2
271
     2
272
     2
273
     2
274
     3
340
11
275
     0
280
     0
281
     0
282
     0
283
     0
284
     8
285
     0
286
     0
287
     3
288
     0
  0
ENDTAB
  0
TABLE
  2
BLOCK_RECORD
  5
1
330
0
100
AcDbSymbolTable
 70
     1
  0
BLOCK_RECORD
  5
1F
330
1
100
AcDbSymbolTableRecord
100
AcDbBlockTableRecord
  2
*MODEL_SPACE
  0
BLOCK_RECORD
  5
1B
330
1
100
AcDbSymbolTableRecord
100
AcDbBlockTableRecord
  2
*PAPER_SPACE
  0
ENDTAB
  0
ENDSEC
  0
SECTION
  2
BLOCKS
  0
BLOCK
  5
20
330
1F
100
AcDbEntity
  8
0
100
AcDbBlockBegin
  2
*MODEL_SPACE
 70
     0
 10
0.0
 20
0.0
 30
0.0
  3
*MODEL_SPACE
  1

  0
ENDBLK
  5
21
330
1F
100
AcDbEntity
  8
0
100
AcDbBlockEnd
  0
BLOCK
  5
1C
330
1B
100
AcDbEntity
 67
     1
  8
0
100
AcDbBlockBegin
  2
*PAPER_SPACE
  1

  0
ENDBLK
  5
1D
330
1B
100
AcDbEntity
 67
     1
  8
0
100
AcDbBlockEnd
  0
ENDSEC
  0
SECTION
  2
ENTITIES
  0
SPLINE
  5
100
100
AcDbEntity
  8
Layer_1
 62
5
100
AcDbSpline
 70
8
 71
3
 72
8
 73
4
 74
0
 40
0
 40
0
 40
0
 40
0
 40
1
 40
1
 40
1
 40
1
 10
89.199841
 20
83.077470
 30
0.0
 10
89.199841
 20
83.136470
 30
0.0
 10
89.246741
 20
83.179070
 30
0.0
 10
89.301401
 20
83.179070
 30
0.0
  0
LINE
  5
101
100
AcDbEntity
  8
Layer_1
 62
5
100
AcDbLine
 10
89.301401
 20
83.179070
 30
0.0
 11
86.301401
 21
83.179070
 31
0.0
  0
SPLINE
  5
102
100
AcDbEntity
  8
Layer_1
 62
5
100
AcDbSpline
 70
8
 71
3
 72
8
 73
4
 74
0
 40
0
 40
0
 40
0
 40
0
 40
1
 40
1
 40
1
 40
1
 10
86.301401
 20
83.179070
 30
0.0
 10
86.356101
 20
83.179070
 30
0.0
 10
86.402961
 20
83.136070
 30
0.0
 10
86.402961
 20
83.077470
 30
0.0
  0
LINE
  5
103
100
AcDbEntity
  8
Layer_1
 62
5
100
AcDbLine
 10
86.402961
 20
83.077470
 30
0.0
 11
86.402961
 21
89.077470
 31
0.0
  0
SPLINE
  5
104
100
AcDbEntity
  8
Layer_1
 62
5
100
AcDbSpline
 70
8
 71
3
 72
8
 73
4
 74
0
 40
0
 40
0
 40
0
 40
0
 40
1
 40
1
 40
1
 40
1
 10
86.402961
 20
89.077470
 30
0.0
 10
86.402961
 20
89.022470
 30
0.0
 10
86.359961
 20
88.975870
 30
0.0
 10
86.301401
 20
88.975870
 30
0.0
  0
LINE
  5
105
100
AcDbEntity
  8
Layer_1
 62
5
100
AcDbLine
 10
86.301401
 20
88.975870
 30
0.0
 11
89.301401
 21
88.975870
 31
0.0
  0
SPLINE
  5
106
100
AcDbEntity
  8
Layer_1
 62
5
100
AcDbSpline
 70
8
 71
3
 72
8
 73
4
 74
0
 40
0
 40
0
 40
0
 40
0
 40
1
 40
1
 40
1
 40
1
 10
89.301401
 20
88.975870
 30
0.0
 10
89.246701
 20
88.975870
 30
0.0
 10
89.199841
 20
89.018870
 30
0.0
 10
89.199841
 20
89.077470
 30
0.0
  0
LINE
  5
107
100
AcDbEntity
  8
Layer_1
 62
5
100
AcDbLine
 10
89.199841
 20
89.077470
 30
0.0
 11
89.199841
 21
83.077470
 31
0.0
  0
SPLINE
  5
108
100
AcDbEntity
  8
Layer_1
 62
5
100
AcDbSpline
 70
8
 71
3
 72
8
 73
4
 74
0
 40
0
 40
0
 40
0
 40
0
 40
1
 40
1
 40
1
 40
1
 10
89.199841
 20
95.077470
 30
0.0
 10
89.199841
 20
95.136470
 30
0.0
 10
89.246741
 20
95.179070
 30
0.0
 10
89.301401
 20
95.179070
 30
0.0
  0
LINE
  5
109
100
AcDbEntity
  8
Layer_1
 62
5
100
AcDbLine
 10
89.301401
 20
95.179070
 30
0.0
 11
86.301401
 21
95.179070
 31
0.0
  0
SPLINE
  5
10a
100
AcDbEntity
  8
Layer_1
 62
5
100
AcDbSpline
 70
8
 71
3
 72
8
 73
4
 74
0
 40
0
 40
0
 40
0
 40
0
 40
1
 40
1
 40
1
 40
1
 10
86.301401
 20
95.179070
 30
0.0
 10
86.356101
 20
95.179070
 30
0.0
 10
86.402961
 20
95.136070
 30
0.0
 10
86.402961
 20
95.077470
 30
0.0
  0
LINE
  5
10b
100
AcDbEntity
  8
Layer_1
 62
5
100
AcDbLine
 10
86.402961
 20
95.077470
 30
0.0
 11
86.402961
 21
101.077470
 31
0.0
  0
SPLINE
  5
10c
100
AcDbEntity
  8
Layer_1
 62
5
100
AcDbSpline
 70
8
 71
3
 72
8
 73
4
 74
0
 40
0
 40
0
 40
0
 40
0
 40
1
 40
1
 40
1
 40
1
 10
86.402961
 20
101.077470
 30
0.0
 10
86.402961
 20
101.022470
 30
0.0
 10
86.359961
 20
100.975870
 30
0.0
 10
86.301401
 20
100.975870
 30
0.0
  0
LINE
  5
10d
100
AcDbEntity
  8
Layer_1
 62
5
100
AcDbLine
 10
86.301401
 20
100.975870
 30
0.0
 11
89.301401
 21
100.975870
 31
0.0
  0
SPLINE
  5
10e
100
AcDbEntity
  8
Layer_1
 62
5
100
AcDbSpline
 70
8
 71
3
 72
8
 73
4
 74
0
 40
0
 40
0
 40
0
 40
0
 40
1
 40
1
 40
1
 40
1
 10
89.301401
 20
100.975870
 30
0.0
 10
89.246701
 20
100.975870
 30
0.0
 10
89.199841
 20
101.018870
 30
0.0
 10
89.199841
 20
101.077470
 30
0.0
  0
LINE
  5
10f
100
AcDbEntity
  8
Layer_1
 62
5
100
AcDbLine
 10
89.199841
 20
101.077470
 30
0.0
 11
89.199841
 21
95.077470
 31
0.0
  0
SPLINE
  5
110
100
AcDbEntity
  8
Layer_1
 62
5
100
AcDbSpline
 70
8
 71
3
 72
8
 73
4
 74
0
 40
0
 40
0
 40
0
 40
0
 40
1
 40
1
 40
1
 40
1
 10
89.199841
 20
107.077470
 30
0.0
 10
89.199841
 20
107.136470
 30
0.0
 10
89.246741
 20
107.179070
 30
0.0
 10
89.301401
 20
107.179070
 30
0.0
  0
LINE
  5
111
100
AcDbEntity
  8
Layer_1
 62
5
100
AcDbLine
 10
89.301401
 20
107.179070
 30
0.0
 11
86.301401
 21
107.179070
 31
0.0
  0
SPLINE
  5
112
100
AcDbEntity
  8
Layer_1
 62
5
100
AcDbSpline
 70
8
 71
3
 72
8
 73
4
 74
0
 40
0
 40
0
 40
0
 40
0
 40
1
 40
1
 40
1
 40
1
 10
86.301401
 20
107.179070
 30
0.0
 10
86.356101
 20
107.179070
 30
0.0
 10
86.402961
 20
107.136070
 30
0.0
 10
86.402961
 20
107.077470
 30
0.0
  0
LINE
  5
113
100
AcDbEntity
  8
Layer_1
 62
5
100
AcDbLine
 10
86.402961
 20
107.077470
 30
0.0
 11
86.402961
 21
113.077470
 31
0.0
  0
SPLINE
  5
114
100
AcDbEntity
  8
Layer_1
 62
5
100
AcDbSpline
 70
8
 71
3
 72
8
 73
4
 74
0
 40
0
 40
0
 40
0
 40
0
 40
1
 40
1
 40
1
 40
1
 10
86.402961
 20
113.077470
 30
0.0
 10
86.402961
 20
113.022470
 30
0.0
 10
86.359961
 20
112.975870
 30
0.0
 10
86.301401
 20
112.975870
 30
0.0
  0
LINE
  5
115
100
AcDbEntity
  8
Layer_1
 62
5
100
AcDbLine
 10
86.301401
 20
112.975870
 30
0.0
 11
89.301401
 21
112.975870
 31
0.0
  0
SPLINE
  5
116
100
AcDbEntity
  8
Layer_1
 62
5
100
AcDbSpline
 70
8
 71
3
 72
8
 73
4
 74
0
 40
0
 40
0
 40
0
 40
0
 40
1
 40
1
 40
1
 40
1
 10
89.301401
 20
112.975870
 30
0.0
 10
89.246701
 20
112.975870
 30
0.0
 10
89.199841
 20
113.018870
 30
0.0
 10
89.199841
 20
113.077470
 30
0.0
  0
LINE
  5
117
100
AcDbEntity
  8
Layer_1
 62
5
100
AcDbLine
 10
89.199841
 20
113.077470
 30
0.0
 11
89.199841
 21
107.077470
 31
0.0
  0
SPLINE
  5
118
100
AcDbEntity
  8
Layer_1
 62
5
100
AcDbSpline
 70
8
 71
3
 72
8
 73
4
 74
0
 40
0
 40
0
 40
0
 40
0
 40
1
 40
1
 40
1
 40
1
 10
89.199841
 20
119.077470
 30
0.0
 10
89.199841
 20
119.136470
 30
0.0
 10
89.246741
 20
119.179070
 30
0.0
 10
89.301401
 20
119.179070
 30
0.0
  0
LINE
  5
119
100
AcDbEntity
  8
Layer_1
 62
5
100
AcDbLine
 10
89.301401
 20
119.179070
 30
0.0
 11
86.301401
 21
119.179070
 31
0.0
  0
SPLINE
  5
11a
100
AcDbEntity
  8
Layer_1
 62
5
100
AcDbSpline
 70
8
 71
3
 72
8
 73
4
 74
0
 40
0
 40
0
 40
0
 40
0
 40
1
 40
1
 40
1
 40
1
 10
86.301401
 20
119.179070
 30
0.0
 10
86.356101
 20
119.179070
 30
0.0
 10
86.402961
 20
119.136070
 30
0.0
 10
86.402961
 20
119.077470
 30
0.0
  0
LINE
  5
11b
100
AcDbEntity
  8
Layer_1
 62
5
100
AcDbLine
 10
86.402961
 20
119.077470
 30
0.0
 11
86.402961
 21
125.077470
 31
0.0
  0
SPLINE
  5
11c
100
AcDbEntity
  8
Layer_1
 62
5
100
AcDbSpline
 70
8
 71
3
 72
8
 73
4
 74
0
 40
0
 40
0
 40
0
 40
0
 40
1
 40
1
 40
1
 40
1
 10
86.402961
 20
125.077470
 30
0.0
 10
86.402961
 20
125.022470
 30
0.0
 10
86.359961
 20
124.975870
 30
0.0
 10
86.301401
 20
124.975870
 30
0.0
  0
LINE
  5
11d
100
AcDbEntity
  8
Layer_1
 62
5
100
AcDbLine
 10
86.301401
 20
124.975870
 30
0.0
 11
89.301401
 21
124.975870
 31
0.0
  0
SPLINE
  5
11e
100
AcDbEntity
  8
Layer_1
 62
5
100
AcDbSpline
 70
8
 71
3
 72
8
 73
4
 74
0
 40
0
 40
0
 40
0
 40
0
 40
1
 40
1
 40
1
 40
1
 10
89.301401
 20
124.975870
 30
0.0
 10
89.246701
 20
124.975870
 30
0.0
 10
89.199841
 20
125.018870
 30
0.0
 10
89.199841
 20
125.077470
 30
0.0
  0
LINE
  5
11f
100
AcDbEntity
  8
Layer_1
 62
5
100
AcDbLine
 10
89.199841
 20
125.077470
 30
0.0
 11
89.199841
 21
119.077470
 31
0.0
  0
SPLINE
  5
120
100
AcDbEntity
  8
Layer_1
 62
5
100
AcDbSpline
 70
8
 71
3
 72
8
 73
4
 74
0
 40
0
 40
0
 40
0
 40
0
 40
1
 40
1
 40
1
 40
1
 10
89.199841
 20
131.077470
 30
0.0
 10
89.199841
 20
131.136470
 30
0.0
 10
89.246741
 20
131.179070
 30
0.0
 10
89.301401
 20
131.179070
 30
0.0
  0
LINE
  5
121
100
AcDbEntity
  8
Layer_1
 62
5
100
AcDbLine
 10
89.301401
 20
131.179070
 30
0.0
 11
86.301401
 21
131.179070
 31
0.0
  0
SPLINE
  5
122
100
AcDbEntity
  8
Layer_1
 62
5
100
AcDbSpline
 70
8
 71
3
 72
8
 73
4
 74
0
 40
0
 40
0
 40
0
 40
0
 40
1
 40
1
 40
1
 40
1
 10
86.301401
 20
131.179070
 30
0.0
 10
86.356101
 20
131.179070
 30
0.0
 10
86.402961
 20
131.136070
 30
0.0
 10
86.402961
 20
131.077470
 30
0.0
  0
LINE
  5
123
100
AcDbEntity
  8
Layer_1
 62
5
100
AcDbLine
 10
86.402961
 20
131.077470
 30
0.0
 11
86.402961
 21
137.077470
 31
0.0
  0
SPLINE
  5
124
100
AcDbEntity
  8
Layer_1
 62
5
100
AcDbSpline
 70
8
 71
3
 72
8
 73
4
 74
0
 40
0
 40
0
 40
0
 40
0
 40
1
 40
1
 40
1
 40
1
 10
86.402961
 20
137.077470
 30
0.0
 10
86.402961
 20
137.022470
 30
0.0
 10
86.359961
 20
136.975870
 30
0.0
 10
86.301401
 20
136.975870
 30
0.0
  0
LINE
  5
125
100
AcDbEntity
  8
Layer_1
 62
5
100
AcDbLine
 10
86.301401
 20
136.975870
 30
0.0
 11
89.301401
 21
136.975870
 31
0.0
  0
SPLINE
  5
126
100
AcDbEntity
  8
Layer_1
 62
5
100
AcDbSpline
 70
8
 71
3
 72
8
 73
4
 74
0
 40
0
 40
0
 40
0
 40
0
 40
1
 40
1
 40
1
 40
1
 10
89.301401
 20
136.975870
 30
0.0
 10
89.246701
 20
136.975870
 30
0.0
 10
89.199841
 20
137.018870
 30
0.0
 10
89.199841
 20
137.077470
 30
0.0
  0
LINE
  5
127
100
AcDbEntity
  8
Layer_1
 62
5
100
AcDbLine
 10
89.199841
 20
137.077470
 30
0.0
 11
89.199841
 21
131.077470
 31
0.0
  0
SPLINE
  5
128
100
AcDbEntity
  8
Layer_1
 62
5
100
AcDbSpline
 70
8
 71
3
 72
8
 73
4
 74
0
 40
0
 40
0
 40
0
 40
0
 40
1
 40
1
 40
1
 40
1
 10
89.199841
 20
143.077470
 30
0.0
 10
89.199841
 20
143.136470
 30
0.0
 10
89.246741
 20
143.179070
 30
0.0
 10
89.301401
 20
143.179070
 30
0.0
  0
LINE
  5
129
100
AcDbEntity
  8
Layer_1
 62
5
100
AcDbLine
 10
89.301401
 20
143.179070
 30
0.0
 11
86.301401
 21
143.179070
 31
0.0
  0
SPLINE
  5
12a
100
AcDbEntity
  8
Layer_1
 62
5
100
AcDbSpline
 70
8
 71
3
 72
8
 73
4
 74
0
 40
0
 40
0
 40
0
 40
0
 40
1
 40
1
 40
1
 40
1
 10
86.301401
 20
143.179070
 30
0.0
 10
86.356101
 20
143.179070
 30
0.0
 10
86.402961
 20
143.136070
 30
0.0
 10
86.402961
 20
143.077470
 30
0.0
  0
LINE
  5
12b
100
AcDbEntity
  8
Layer_1
 62
5
100
AcDbLine
 10
86.402961
 20
143.077470
 30
0.0
 11
86.402961
 21
149.077470
 31
0.0
  0
SPLINE
  5
12c
100
AcDbEntity
  8
Layer_1
 62
5
100
AcDbSpline
 70
8
 71
3
 72
8
 73
4
 74
0
 40
0
 40
0
 40
0
 40
0
 40
1
 40
1
 40
1
 40
1
 10
86.402961
 20
149.077470
 30
0.0
 10
86.402961
 20
149.022470
 30
0.0
 10
86.359961
 20
148.975870
 30
0.0
 10
86.301401
 20
148.975870
 30
0.0
  0
LINE
  5
12d
100
AcDbEntity
  8
Layer_1
 62
5
100
AcDbLine
 10
86.301401
 20
148.975870
 30
0.0
 11
89.301401
 21
148.975870
 31
0.0
  0
SPLINE
  5
12e
100
AcDbEntity
  8
Layer_1
 62
5
100
AcDbSpline
 70
8
 71
3
 72
8
 73
4
 74
0
 40
0
 40
0
 40
0
 40
0
 40
1
 40
1
 40
1
 40
1
 10
89.301401
 20
148.975870
 30
0.0
 10
89.246701
 20
148.975870
 30
0.0
 10
89.199841
 20
149.018870
 30
0.0
 10
89.199841
 20
149.077470
 30
0.0
  0
LINE
  5
12f
100
AcDbEntity
  8
Layer_1
 62
5
100
AcDbLine
 10
89.199841
 20
149.077470
 30
0.0
 11
89.199841
 21
143.077470
 31
0.0
  0
SPLINE
  5
130
100
AcDbEntity
  8
Layer_1
 62
5
100
AcDbSpline
 70
8
 71
3
 72
8
 73
4
 74
0
 40
0
 40
0
 40
0
 40
0
 40
1
 40
1
 40
1
 40
1
 10
89.199841
 20
155.077470
 30
0.0
 10
89.199841
 20
155.136470
 30
0.0
 10
89.246741
 20
155.179070
 30
0.0
 10
89.301401
 20
155.179070
 30
0.0
  0
LINE
  5
131
100
AcDbEntity
  8
Layer_1
 62
5
100
AcDbLine
 10
89.301401
 20
155.179070
 30
0.0
 11
86.301401
 21
155.179070
 31
0.0
  0
SPLINE
  5
132
100
AcDbEntity
  8
Layer_1
 62
5
100
AcDbSpline
 70
8
 71
3
 72
8
 73
4
 74
0
 40
0
 40
0
 40
0
 40
0
 40
1
 40
1
 40
1
 40
1
 10
86.301401
 20
155.179070
 30
0.0
 10
86.356101
 20
155.179070
 30
0.0
 10
86.402961
 20
155.136070
 30
0.0
 10
86.402961
 20
155.077470
 30
0.0
  0
LINE
  5
133
100
AcDbEntity
  8
Layer_1
 62
5
100
AcDbLine
 10
86.402961
 20
155.077470
 30
0.0
 11
86.402961
 21
161.077470
 31
0.0
  0
SPLINE
  5
134
100
AcDbEntity
  8
Layer_1
 62
5
100
AcDbSpline
 70
8
 71
3
 72
8
 73
4
 74
0
 40
0
 40
0
 40
0
 40
0
 40
1
 40
1
 40
1
 40
1
 10
86.402961
 20
161.077470
 30
0.0
 10
86.402961
 20
161.022470
 30
0.0
 10
86.359961
 20
160.975870
 30
0.0
 10
86.301401
 20
160.975870
 30
0.0
  0
LINE
  5
135
100
AcDbEntity
  8
Layer_1
 62
5
100
AcDbLine
 10
86.301401
 20
160.975870
 30
0.0
 11
89.301401
 21
160.975870
 31
0.0
  0
SPLINE
  5
136
100
AcDbEntity
  8
Layer_1
 62
5
100
AcDbSpline
 70
8
 71
3
 72
8
 73
4
 74
0
 40
0
 40
0
 40
0
 40
0
 40
1
 40
1
 40
1
 40
1
 10
89.301401
 20
160.975870
 30
0.0
 10
89.246701
 20
160.975870
 30
0.0
 10
89.199841
 20
161.018870
 30
0.0
 10
89.199841
 20
161.077470
 30
0.0
  0
LINE
  5
137
100
AcDbEntity
  8
Layer_1
 62
5
100
AcDbLine
 10
89.199841
 20
161.077470
 30
0.0
 11
89.199841
 21
155.077470
 31
0.0
  0
SPLINE
  5
138
100
AcDbEntity
  8
Layer_1
 62
5
100
AcDbSpline
 70
8
 71
3
 72
8
 73
4
 74
0
 40
0
 40
0
 40
0
 40
0
 40
1
 40
1
 40
1
 40
1
 10
89.199841
 20
167.077470
 30
0.0
 10
89.199841
 20
167.136470
 30
0.0
 10
89.246741
 20
167.179070
 30
0.0
 10
89.301401
 20
167.179070
 30
0.0
  0
LINE
  5
139
100
AcDbEntity
  8
Layer_1
 62
5
100
AcDbLine
 10
89.301401
 20
167.179070
 30
0.0
 11
86.301401
 21
167.179070
 31
0.0
  0
SPLINE
  5
13a
100
AcDbEntity
  8
Layer_1
 62
5
100
AcDbSpline
 70
8
 71
3
 72
8
 73
4
 74
0
 40
0
 40
0
 40
0
 40
0
 40
1
 40
1
 40
1
 40
1
 10
86.301401
 20
167.179070
 30
0.0
 10
86.356101
 20
167.179070
 30
0.0
 10
86.402961
 20
167.136070
 30
0.0
 10
86.402961
 20
167.077470
 30
0.0
  0
LINE
  5
13b
100
AcDbEntity
  8
Layer_1
 62
5
100
AcDbLine
 10
86.402961
 20
167.077470
 30
0.0
 11
86.402961
 21
173.077470
 31
0.0
  0
SPLINE
  5
13c
100
AcDbEntity
  8
Layer_1
 62
5
100
AcDbSpline
 70
8
 71
3
 72
8
 73
4
 74
0
 40
0
 40
0
 40
0
 40
0
 40
1
 40
1
 40
1
 40
1
 10
86.402961
 20
173.077470
 30
0.0
 10
86.402961
 20
173.022470
 30
0.0
 10
86.359961
 20
172.975870
 30
0.0
 10
86.301401
 20
172.975870
 30
0.0
  0
LINE
  5
13d
100
AcDbEntity
  8
Layer_1
 62
5
100
AcDbLine
 10
86.301401
 20
172.975870
 30
0.0
 11
89.301401
 21
172.975870
 31
0.0
  0
SPLINE
  5
13e
100
AcDbEntity
  8
Layer_1
 62
5
100
AcDbSpline
 70
8
 71
3
 72
8
 73
4
 74
0
 40
0
 40
0
 40
0
 40
0
 40
1
 40
1
 40
1
 40
1
 10
89.301401
 20
172.975870
 30
0.0
 10
89.246701
 20
172.975870
 30
0.0
 10
89.199841
 20
173.018870
 30
0.0
 10
89.199841
 20
173.077470
 30
0.0
  0
LINE
  5
13f
100
AcDbEntity
  8
Layer_1
 62
5
100
AcDbLine
 10
89.199841
 20
173.077470
 30
0.0
 11
89.199841
 21
167.077470
 31
0.0
  0
SPLINE
  5
140
100
AcDbEntity
  8
Layer_1
 62
5
100
AcDbSpline
 70
8
 71
3
 72
8
 73
4
 74
0
 40
0
 40
0
 40
0
 40
0
 40
1
 40
1
 40
1
 40
1
 10
89.199841
 20
179.077470
 30
0.0
 10
89.199841
 20
179.136470
 30
0.0
 10
89.246741
 20
179.179070
 30
0.0
 10
89.301401
 20
179.179070
 30
0.0
  0
LINE
  5
141
100
AcDbEntity
  8
Layer_1
 62
5
100
AcDbLine
 10
89.301401
 20
179.179070
 30
0.0
 11
86.301401
 21
179.179070
 31
0.0
  0
SPLINE
  5
142
100
AcDbEntity
  8
Layer_1
 62
5
100
AcDbSpline
 70
8
 71
3
 72
8
 73
4
 74
0
 40
0
 40
0
 40
0
 40
0
 40
1
 40
1
 40
1
 40
1
 10
86.301401
 20
179.179070
 30
0.0
 10
86.356101
 20
179.179070
 30
0.0
 10
86.402961
 20
179.136070
 30
0.0
 10
86.402961
 20
179.077470
 30
0.0
  0
LINE
  5
143
100
AcDbEntity
  8
Layer_1
 62
5
100
AcDbLine
 10
86.402961
 20
179.077470
 30
0.0
 11
86.402961
 21
185.077470
 31
0.0
  0
SPLINE
  5
144
100
AcDbEntity
  8
Layer_1
 62
5
100
AcDbSpline
 70
8
 71
3
 72
8
 73
4
 74
0
 40
0
 40
0
 40
0
 40
0
 40
1
 40
1
 40
1
 40
1
 10
86.402961
 20
185.077470
 30
0.0
 10
86.402961
 20
185.022470
 30
0.0
 10
86.359961
 20
184.975870
 30
0.0
 10
86.301401
 20
184.975870
 30
0.0
  0
LINE
  5
145
100
AcDbEntity
  8
Layer_1
 62
5
100
AcDbLine
 10
86.301401
 20
184.975870
 30
0.0
 11
89.301401
 21
184.975870
 31
0.0
  0
SPLINE
  5
146
100
AcDbEntity
  8
Layer_1
 62
5
100
AcDbSpline
 70
8
 71
3
 72
8
 73
4
 74
0
 40
0
 40
0
 40
0
 40
0
 40
1
 40
1
 40
1
 40
1
 10
89.301401
 20
184.975870
 30
0.0
 10
89.246701
 20
184.975870
 30
0.0
 10
89.199841
 20
185.018870
 30
0.0
 10
89.199841
 20
185.077470
 30
0.0
  0
LINE
  5
147
100
AcDbEntity
  8
Layer_1
 62
5
100
AcDbLine
 10
89.199841
 20
185.077470
 30
0.0
 11
89.199841
 21
179.077470
 31
0.0
  0
SPLINE
  5
148
100
AcDbEntity
  8
Layer_1
 62
5
100
AcDbSpline
 70
8
 71
3
 72
8
 73
4
 74
0
 40
0
 40
0
 40
0
 40
0
 40
1
 40
1
 40
1
 40
1
 10
89.199841
 20
191.077470
 30
0.0
 10
89.199841
 20
191.136470
 30
0.0
 10
89.246741
 20
191.179070
 30
0.0
 10
89.301401
 20
191.179070
 30
0.0
  0
LINE
  5
149
100
AcDbEntity
  8
Layer_1
 62
5
100
AcDbLine
 10
89.301401
 20
191.179070
 30
0.0
 11
86.301401
 21
191.179070
 31
0.0
  0
SPLINE
  5
14a
100
AcDbEntity
  8
Layer_1
 62
5
100
AcDbSpline
 70
8
 71
3
 72
8
 73
4
 74
0
 40
0
 40
0
 40
0
 40
0
 40
1
 40
1
 40
1
 40
1
 10
86.301401
 20
191.179070
 30
0.0
 10
86.356101
 20
191.179070
 30
0.0
 10
86.402961
 20
191.136070
 30
0.0
 10
86.402961
 20
191.077470
 30
0.0
  0
LINE
  5
14b
100
AcDbEntity
  8
Layer_1
 62
5
100
AcDbLine
 10
86.402961
 20
191.077470
 30
0.0
 11
86.402961
 21
197.077470
 31
0.0
  0
SPLINE
  5
14c
100
AcDbEntity
  8
Layer_1
 62
5
100
AcDbSpline
 70
8
 71
3
 72
8
 73
4
 74
0
 40
0
 40
0
 40
0
 40
0
 40
1
 40
1
 40
1
 40
1
 10
86.402961
 20
197.077470
 30
0.0
 10
86.402961
 20
197.022470
 30
0.0
 10
86.359961
 20
196.975870
 30
0.0
 10
86.301401
 20
196.975870
 30
0.0
  0
LINE
  5
14d
100
AcDbEntity
  8
Layer_1
 62
5
100
AcDbLine
 10
86.301401
 20
196.975870
 30
0.0
 11
89.301401
 21
196.975870
 31
0.0
  0
SPLINE
  5
14e
100
AcDbEntity
  8
Layer_1
 62
5
100
AcDbSpline
 70
8
 71
3
 72
8
 73
4
 74
0
 40
0
 40
0
 40
0
 40
0
 40
1
 40
1
 40
1
 40
1
 10
89.301401
 20
196.975870
 30
0.0
 10
89.246701
 20
196.975870
 30
0.0
 10
89.199841
 20
197.018870
 30
0.0
 10
89.199841
 20
197.077470
 30
0.0
  0
LINE
  5
14f
100
AcDbEntity
  8
Layer_1
 62
5
100
AcDbLine
 10
89.199841
 20
197.077470
 30
0.0
 11
89.199841
 21
191.077470
 31
0.0
  0
SPLINE
  5
150
100
AcDbEntity
  8
Layer_1
 62
5
100
AcDbSpline
 70
8
 71
3
 72
8
 73
4
 74
0
 40
0
 40
0
 40
0
 40
0
 40
1
 40
1
 40
1
 40
1
 10
89.199841
 20
203.077470
 30
0.0
 10
89.199841
 20
203.136470
 30
0.0
 10
89.246741
 20
203.179070
 30
0.0
 10
89.301401
 20
203.179070
 30
0.0
  0
LINE
  5
151
100
AcDbEntity
  8
Layer_1
 62
5
100
AcDbLine
 10
89.301401
 20
203.179070
 30
0.0
 11
86.301401
 21
203.179070
 31
0.0
  0
SPLINE
  5
152
100
AcDbEntity
  8
Layer_1
 62
5
100
AcDbSpline
 70
8
 71
3
 72
8
 73
4
 74
0
 40
0
 40
0
 40
0
 40
0
 40
1
 40
1
 40
1
 40
1
 10
86.301401
 20
203.179070
 30
0.0
 10
86.356101
 20
203.179070
 30
0.0
 10
86.402961
 20
203.136070
 30
0.0
 10
86.402961
 20
203.077470
 30
0.0
  0
LINE
  5
153
100
AcDbEntity
  8
Layer_1
 62
5
100
AcDbLine
 10
86.402961
 20
203.077470
 30
0.0
 11
86.402961
 21
209.077470
 31
0.0
  0
SPLINE
  5
154
100
AcDbEntity
  8
Layer_1
 62
5
100
AcDbSpline
 70
8
 71
3
 72
8
 73
4
 74
0
 40
0
 40
0
 40
0
 40
0
 40
1
 40
1
 40
1
 40
1
 10
86.402961
 20
209.077470
 30
0.0
 10
86.402961
 20
209.022470
 30
0.0
 10
86.359961
 20
208.975870
 30
0.0
 10
86.301401
 20
208.975870
 30
0.0
  0
LINE
  5
155
100
AcDbEntity
  8
Layer_1
 62
5
100
AcDbLine
 10
86.301401
 20
208.975870
 30
0.0
 11
89.301401
 21
208.975870
 31
0.0
  0
SPLINE
  5
156
100
AcDbEntity
  8
Layer_1
 62
5
100
AcDbSpline
 70
8
 71
3
 72
8
 73
4
 74
0
 40
0
 40
0
 40
0
 40
0
 40
1
 40
1
 40
1
 40
1
 10
89.301401
 20
208.975870
 30
0.0
 10
89.246701
 20
208.975870
 30
0.0
 10
89.199841
 20
209.018870
 30
0.0
 10
89.199841
 20
209.077470
 30
0.0
  0
LINE
  5
157
100
AcDbEntity
  8
Layer_1
 62
5
100
AcDbLine
 10
89.199841
 20
209.077470
 30
0.0
 11
89.199841
 21
203.077470
 31
0.0
  0
SPLINE
  5
158
100
AcDbEntity
  8
Layer_1
 62
5
100
AcDbSpline
 70
8
 71
3
 72
8
 73
4
 74
0
 40
0
 40
0
 40
0
 40
0
 40
1
 40
1
 40
1
 40
1
 10
89.199841
 20
215.077470
 30
0.0
 10
89.199841
 20
215.136470
 30
0.0
 10
89.246741
 20
215.179070
 30
0.0
 10
89.301401
 20
215.179070
 30
0.0
  0
LINE
  5
159
100
AcDbEntity
  8
Layer_1
 62
5
100
AcDbLine
 10
89.301401
 20
215.179070
 30
0.0
 11
86.301401
 21
215.179070
 31
0.0
  0
SPLINE
  5
15a
100
AcDbEntity
  8
Layer_1
 62
5
100
AcDbSpline
 70
8
 71
3
 72
8
 73
4
 74
0
 40
0
 40
0
 40
0
 40
0
 40
1
 40
1
 40
1
 40
1
 10
86.301401
 20
215.179070
 30
0.0
 10
86.356101
 20
215.179070
 30
0.0
 10
86.402961
 20
215.136070
 30
0.0
 10
86.402961
 20
215.077470
 30
0.0
  0
LINE
  5
15b
100
AcDbEntity
  8
Layer_1
 62
5
100
AcDbLine
 10
86.402961
 20
215.077470
 30
0.0
 11
86.402961
 21
221.077470
 31
0.0
  0
SPLINE
  5
15c
100
AcDbEntity
  8
Layer_1
 62
5
100
AcDbSpline
 70
8
 71
3
 72
8
 73
4
 74
0
 40
0
 40
0
 40
0
 40
0
 40
1
 40
1
 40
1
 40
1
 10
86.402961
 20
221.077470
 30
0.0
 10
86.402961
 20
221.022470
 30
0.0
 10
86.359961
 20
220.975870
 30
0.0
 10
86.301401
 20
220.975870
 30
0.0
  0
LINE
  5
15d
100
AcDbEntity
  8
Layer_1
 62
5
100
AcDbLine
 10
86.301401
 20
220.975870
 30
0.0
 11
89.301401
 21
220.975870
 31
0.0
  0
SPLINE
  5
15e
100
AcDbEntity
  8
Layer_1
 62
5
100
AcDbSpline
 70
8
 71
3
 72
8
 73
4
 74
0
 40
0
 40
0
 40
0
 40
0
 40
1
 40
1
 40
1
 40
1
 10
89.301401
 20
220.975870
 30
0.0
 10
89.246701
 20
220.975870
 30
0.0
 10
89.199841
 20
221.018870
 30
0.0
 10
89.199841
 20
221.077470
 30
0.0
  0
LINE
  5
15f
100
AcDbEntity
  8
Layer_1
 62
5
100
AcDbLine
 10
89.199841
 20
221.077470
 30
0.0
 11
89.199841
 21
215.077470
 31
0.0
  0
SPLINE
  5
160
100
AcDbEntity
  8
Layer_1
 62
5
100
AcDbSpline
 70
8
 71
3
 72
8
 73
4
 74
0
 40
0
 40
0
 40
0
 40
0
 40
1
 40
1
 40
1
 40
1
 10
89.199841
 20
227.077470
 30
0.0
 10
89.199841
 20
227.136470
 30
0.0
 10
89.246741
 20
227.179070
 30
0.0
 10
89.301401
 20
227.179070
 30
0.0
  0
LINE
  5
161
100
AcDbEntity
  8
Layer_1
 62
5
100
AcDbLine
 10
89.301401
 20
227.179070
 30
0.0
 11
86.301401
 21
227.179070
 31
0.0
  0
SPLINE
  5
162
100
AcDbEntity
  8
Layer_1
 62
5
100
AcDbSpline
 70
8
 71
3
 72
8
 73
4
 74
0
 40
0
 40
0
 40
0
 40
0
 40
1
 40
1
 40
1
 40
1
 10
86.301401
 20
227.179070
 30
0.0
 10
86.356101
 20
227.179070
 30
0.0
 10
86.402961
 20
227.136070
 30
0.0
 10
86.402961
 20
227.077470
 30
0.0
  0
LINE
  5
163
100
AcDbEntity
  8
Layer_1
 62
5
100
AcDbLine
 10
86.402961
 20
227.077470
 30
0.0
 11
86.402961
 21
233.077470
 31
0.0
  0
SPLINE
  5
164
100
AcDbEntity
  8
Layer_1
 62
5
100
AcDbSpline
 70
8
 71
3
 72
8
 73
4
 74
0
 40
0
 40
0
 40
0
 40
0
 40
1
 40
1
 40
1
 40
1
 10
86.402961
 20
233.077470
 30
0.0
 10
86.402961
 20
233.022470
 30
0.0
 10
86.359961
 20
232.975870
 30
0.0
 10
86.301401
 20
232.975870
 30
0.0
  0
LINE
  5
165
100
AcDbEntity
  8
Layer_1
 62
5
100
AcDbLine
 10
86.301401
 20
232.975870
 30
0.0
 11
89.301401
 21
232.975870
 31
0.0
  0
SPLINE
  5
166
100
AcDbEntity
  8
Layer_1
 62
5
100
AcDbSpline
 70
8
 71
3
 72
8
 73
4
 74
0
 40
0
 40
0
 40
0
 40
0
 40
1
 40
1
 40
1
 40
1
 10
89.301401
 20
232.975870
 30
0.0
 10
89.246701
 20
232.975870
 30
0.0
 10
89.199841
 20
233.018870
 30
0.0
 10
89.199841
 20
233.077470
 30
0.0
  0
LINE
  5
167
100
AcDbEntity
  8
Layer_1
 62
5
100
AcDbLine
 10
89.199841
 20
233.077470
 30
0.0
 11
89.199841
 21
227.077470
 31
0.0
  0
SPLINE
  5
168
100
AcDbEntity
  8
Layer_1
 62
5
100
AcDbSpline
 70
8
 71
3
 72
8
 73
4
 74
0
 40
0
 40
0
 40
0
 40
0
 40
1
 40
1
 40
1
 40
1
 10
89.199841
 20
239.077470
 30
0.0
 10
89.199841
 20
239.136470
 30
0.0
 10
89.246741
 20
239.179070
 30
0.0
 10
89.301401
 20
239.179070
 30
0.0
  0
LINE
  5
169
100
AcDbEntity
  8
Layer_1
 62
5
100
AcDbLine
 10
89.301401
 20
239.179070
 30
0.0
 11
86.301401
 21
239.179070
 31
0.0
  0
SPLINE
  5
16a
100
AcDbEntity
  8
Layer_1
 62
5
100
AcDbSpline
 70
8
 71
3
 72
8
 73
4
 74
0
 40
0
 40
0
 40
0
 40
0
 40
1
 40
1
 40
1
 40
1
 10
86.301401
 20
239.179070
 30
0.0
 10
86.356101
 20
239.179070
 30
0.0
 10
86.402961
 20
239.136070
 30
0.0
 10
86.402961
 20
239.077470
 30
0.0
  0
LINE
  5
16b
100
AcDbEntity
  8
Layer_1
 62
5
100
AcDbLine
 10
86.402961
 20
239.077470
 30
0.0
 11
86.402961
 21
245.077470
 31
0.0
  0
SPLINE
  5
16c
100
AcDbEntity
  8
Layer_1
 62
5
100
AcDbSpline
 70
8
 71
3
 72
8
 73
4
 74
0
 40
0
 40
0
 40
0
 40
0
 40
1
 40
1
 40
1
 40
1
 10
86.402961
 20
245.077470
 30
0.0
 10
86.402961
 20
245.022470
 30
0.0
 10
86.359961
 20
244.975870
 30
0.0
 10
86.301401
 20
244.975870
 30
0.0
  0
LINE
  5
16d
100
AcDbEntity
  8
Layer_1
 62
5
100
AcDbLine
 10
86.301401
 20
244.975870
 30
0.0
 11
89.301401
 21
244.975870
 31
0.0
  0
SPLINE
  5
16e
100
AcDbEntity
  8
Layer_1
 62
5
100
AcDbSpline
 70
8
 71
3
 72
8
 73
4
 74
0
 40
0
 40
0
 40
0
 40
0
 40
1
 40
1
 40
1
 40
1
 10
89.301401
 20
244.975870
 30
0.0
 10
89.246701
 20
244.975870
 30
0.0
 10
89.199841
 20
245.018870
 30
0.0
 10
89.199841
 20
245.077470
 30
0.0
  0
LINE
  5
16f
100
AcDbEntity
  8
Layer_1
 62
5
100
AcDbLine
 10
89.199841
 20
245.077470
 30
0.0
 11
89.199841
 21
239.077470
 31
0.0
  0
SPLINE
  5
170
100
AcDbEntity
  8
Layer_1
 62
5
100
AcDbSpline
 70
8
 71
3
 72
8
 73
4
 74
0
 40
0
 40
0
 40
0
 40
0
 40
1
 40
1
 40
1
 40
1
 10
89.199841
 20
251.077470
 30
0.0
 10
89.199841
 20
251.136470
 30
0.0
 10
89.246741
 20
251.179070
 30
0.0
 10
89.301401
 20
251.179070
 30
0.0
  0
LINE
  5
171
100
AcDbEntity
  8
Layer_1
 62
5
100
AcDbLine
 10
89.301401
 20
251.179070
 30
0.0
 11
86.301401
 21
251.179070
 31
0.0
  0
SPLINE
  5
172
100
AcDbEntity
  8
Layer_1
 62
5
100
AcDbSpline
 70
8
 71
3
 72
8
 73
4
 74
0
 40
0
 40
0
 40
0
 40
0
 40
1
 40
1
 40
1
 40
1
 10
86.301401
 20
251.179070
 30
0.0
 10
86.356101
 20
251.179070
 30
0.0
 10
86.402961
 20
251.136070
 30
0.0
 10
86.402961
 20
251.077470
 30
0.0
  0
LINE
  5
173
100
AcDbEntity
  8
Layer_1
 62
5
100
AcDbLine
 10
86.402961
 20
251.077470
 30
0.0
 11
86.402961
 21
257.077470
 31
0.0
  0
SPLINE
  5
174
100
AcDbEntity
  8
Layer_1
 62
5
100
AcDbSpline
 70
8
 71
3
 72
8
 73
4
 74
0
 40
0
 40
0
 40
0
 40
0
 40
1
 40
1
 40
1
 40
1
 10
86.402961
 20
257.077470
 30
0.0
 10
86.402961
 20
257.022470
 30
0.0
 10
86.359961
 20
256.975870
 30
0.0
 10
86.301401
 20
256.975870
 30
0.0
  0
LINE
  5
175
100
AcDbEntity
  8
Layer_1
 62
5
100
AcDbLine
 10
86.301401
 20
256.975870
 30
0.0
 11
89.301401
 21
256.975870
 31
0.0
  0
SPLINE
  5
176
100
AcDbEntity
  8
Layer_1
 62
5
100
AcDbSpline
 70
8
 71
3
 72
8
 73
4
 74
0
 40
0
 40
0
 40
0
 40
0
 40
1
 40
1
 40
1
 40
1
 10
89.301401
 20
256.975870
 30
0.0
 10
89.246701
 20
256.975870
 30
0.0
 10
89.199841
 20
257.018870
 30
0.0
 10
89.199841
 20
257.077470
 30
0.0
  0
LINE
  5
177
100
AcDbEntity
  8
Layer_1
 62
5
100
AcDbLine
 10
89.199841
 20
257.077470
 30
0.0
 11
89.199841
 21
251.077470
 31
0.0
  0
LINE
  5
178
100
AcDbEntity
  8
Layer_1
 62
1
100
AcDbLine
 10
84.801790
 20
78.124510
 30
0.0
 11
90.801760
 21
78.124510
 31
0.0
  0
LINE
  5
179
100
AcDbEntity
  8
Layer_1
 62
1
100
AcDbLine
 10
93.547840
 20
78.124510
 30
0.0
 11
93.547840
 21
94.298080
 31
0.0
  0
LINE
  5
17a
100
AcDbEntity
  8
Layer_1
 62
1
100
AcDbLine
 10
93.547840
 20
100.303050
 30
0.0
 11
93.547840
 21
126.641220
 31
0.0
  0
LINE
  5
17b
100
AcDbEntity
  8
Layer_1
 62
1
100
AcDbLine
 10
93.547840
 20
132.646180
 30
0.0
 11
93.547840
 21
158.988250
 31
0.0
  0
LINE
  5
17c
100
AcDbEntity
  8
Layer_1
 62
1
100
AcDbLine
 10
93.547840
 20
164.993220
 30
0.0
 11
93.547840
 21
191.331390
 31
0.0
  0
LINE
  5
17d
100
AcDbEntity
  8
Layer_1
 62
1
100
AcDbLine
 10
93.547840
 20
197.336347
 30
0.0
 11
93.547840
 21
223.678424
 31
0.0
  0
LINE
  5
17e
100
AcDbEntity
  8
Layer_1
 62
1
100
AcDbLine
 10
93.547840
 20
229.683383
 30
0.0
 11
93.547840
 21
256.021560
 31
0.0
  0
LINE
  5
17f
100
AcDbEntity
  8
Layer_1
 62
1
100
AcDbLine
 10
95.797840
 20
262.026509
 30
0.0
 11
95.797840
 21
245.852954
 31
0.0
  0
LINE
  5
180
100
AcDbEntity
  8
Layer_1
 62
1
100
AcDbLine
 10
95.797840
 20
239.847984
 30
0.0
 11
95.797840
 21
213.509817
 31
0.0
  0
LINE
  5
181
100
AcDbEntity
  8
Layer_1
 62
1
100
AcDbLine
 10
95.797840
 20
207.504847
 30
0.0
 11
95.797840
 21
181.162780
 31
0.0
  0
LINE
  5
182
100
AcDbEntity
  8
Layer_1
 62
1
100
AcDbLine
 10
95.797840
 20
175.157820
 30
0.0
 11
95.797840
 21
148.819650
 31
0.0
  0
LINE
  5
183
100
AcDbEntity
  8
Layer_1
 62
1
100
AcDbLine
 10
95.797840
 20
142.814680
 30
0.0
 11
95.797840
 21
116.472610
 31
0.0
  0
LINE
  5
184
100
AcDbEntity
  8
Layer_1
 62
1
100
AcDbLine
 10
95.797840
 20
110.467640
 30
0.0
 11
95.797840
 21
84.129490
 31
0.0
  0
LINE
  5
185
100
AcDbEntity
  8
Layer_1
 62
1
100
AcDbLine
 10
98.047830
 20
78.124510
 30
0.0
 11
98.047830
 21
94.298080
 31
0.0
  0
LINE
  5
186
100
AcDbEntity
  8
Layer_1
 62
1
100
AcDbLine
 10
98.047830
 20
100.303050
 30
0.0
 11
98.047830
 21
126.641220
 31
0.0
  0
LINE
  5
187
100
AcDbEntity
  8
Layer_1
 62
1
100
AcDbLine
 10
98.047830
 20
132.646180
 30
0.0
 11
98.047830
 21
158.988250
 31
0.0
  0
LINE
  5
188
100
AcDbEntity
  8
Layer_1
 62
1
100
AcDbLine
 10
98.047830
 20
164.993220
 30
0.0
 11
98.047830
 21
191.331390
 31
0.0
  0
LINE
  5
189
100
AcDbEntity
  8
Layer_1
 62
1
100
AcDbLine
 10
98.047830
 20
197.336347
 30
0.0
 11
98.047830
 21
223.678424
 31
0.0
  0
LINE
  5
18a
100
AcDbEntity
  8
Layer_1
 62
1
100
AcDbLine
 10
98.047830
 20
229.683383
 30
0.0
 11
98.047830
 21
256.021560
 31
0.0
  0
LINE
  5
18b
100
AcDbEntity
  8
Layer_1
 62
1
100
AcDbLine
 10
100.297830
 20
262.026509
 30
0.0
 11
100.297830
 21
245.852954
 31
0.0
  0
LINE
  5
18c
100
AcDbEntity
  8
Layer_1
 62
1
100
AcDbLine
 10
100.297830
 20
239.847984
 30
0.0
 11
100.297830
 21
213.509817
 31
0.0
  0
LINE
  5
18d
100
AcDbEntity
  8
Layer_1
 62
1
100
AcDbLine
 10
100.297830
 20
207.504847
 30
0.0
 11
100.297830
 21
181.162780
 31
0.0
  0
LINE
  5
18e
100
AcDbEntity
  8
Layer_1
 62
1
100
AcDbLine
 10
100.297830
 20
175.157820
 30
0.0
 11
100.297830
 21
148.819650
 31
0.0
  0
LINE
  5
18f
100
AcDbEntity
  8
Layer_1
 62
1
100
AcDbLine
 10
100.297830
 20
142.814680
 30
0.0
 11
100.297830
 21
116.472610
 31
0.0
  0
LINE
  5
190
100
AcDbEntity
  8
Layer_1
 62
1
100
AcDbLine
 10
100.297830
 20
110.467640
 30
0.0
 11
100.297830
 21
84.129490
 31
0.0
  0
LINE
  5
191
100
AcDbEntity
  8
Layer_1
 62
1
100
AcDbLine
 10
102.547810
 20
78.124510
 30
0.0
 11
102.547810
 21
94.298080
 31
0.0
  0
LINE
  5
192
100
AcDbEntity
  8
Layer_1
 62
1
100
AcDbLine
 10
102.547810
 20
100.303050
 30
0.0
 11
102.547810
 21
126.641220
 31
0.0
  0
LINE
  5
193
100
AcDbEntity
  8
Layer_1
 62
1
100
AcDbLine
 10
102.547810
 20
132.646180
 30
0.0
 11
102.547810
 21
158.988250
 31
0.0
  0
LINE
  5
194
100
AcDbEntity
  8
Layer_1
 62
1
100
AcDbLine
 10
102.547810
 20
164.993220
 30
0.0
 11
102.547810
 21
191.331390
 31
0.0
  0
LINE
  5
195
100
AcDbEntity
  8
Layer_1
 62
1
100
AcDbLine
 10
102.547810
 20
197.336347
 30
0.0
 11
102.547810
 21
223.678424
 31
0.0
  0
LINE
  5
196
100
AcDbEntity
  8
Layer_1
 62
1
100
AcDbLine
 10
102.547810
 20
229.683383
 30
0.0
 11
102.547810
 21
256.021560
 31
0.0
  0
LINE
  5
197
100
AcDbEntity
  8
Layer_1
 62
1
100
AcDbLine
 10
104.797800
 20
262.026509
 30
0.0
 11
104.797800
 21
245.852954
 31
0.0
  0
LINE
  5
198
100
AcDbEntity
  8
Layer_1
 62
1
100
AcDbLine
 10
104.797800
 20
239.847984
 30
0.0
 11
104.797800
 21
213.509817
 31
0.0
  0
LINE
  5
199
100
AcDbEntity
  8
Layer_1
 62
1
100
AcDbLine
 10
104.797800
 20
207.504847
 30
0.0
 11
104.797800
 21
181.162780
 31
0.0
  0
LINE
  5
19a
100
AcDbEntity
  8
Layer_1
 62
1
100
AcDbLine
 10
104.797800
 20
175.157820
 30
0.0
 11
104.797800
 21
148.819650
 31
0.0
  0
LINE
  5
19b
100
AcDbEntity
  8
Layer_1
 62
1
100
AcDbLine
 10
104.797800
 20
142.814680
 30
0.0
 11
104.797800
 21
116.472610
 31
0.0
  0
LINE
  5
19c
100
AcDbEntity
  8
Layer_1
 62
1
100
AcDbLine
 10
104.797800
 20
110.467640
 30
0.0
 11
104.797800
 21
84.129490
 31
0.0
  0
LINE
  5
19d
100
AcDbEntity
  8
Layer_1
 62
1
100
AcDbLine
 10
107.047800
 20
78.124510
 30
0.0
 11
107.047800
 21
94.298080
 31
0.0
  0
LINE
  5
19e
100
AcDbEntity
  8
Layer_1
 62
1
100
AcDbLine
 10
107.047800
 20
100.303050
 30
0.0
 11
107.047800
 21
126.641220
 31
0.0
  0
LINE
  5
19f
100
AcDbEntity
  8
Layer_1
 62
1
100
AcDbLine
 10
107.047800
 20
132.646180
 30
0.0
 11
107.047800
 21
158.988250
 31
0.0
  0
LINE
  5
1a0
100
AcDbEntity
  8
Layer_1
 62
1
100
AcDbLine
 10
107.047800
 20
164.993220
 30
0.0
 11
107.047800
 21
191.331390
 31
0.0
  0
LINE
  5
1a1
100
AcDbEntity
  8
Layer_1
 62
1
100
AcDbLine
 10
107.047800
 20
197.336347
 30
0.0
 11
107.047800
 21
223.678424
 31
0.0
  0
LINE
  5
1a2
100
AcDbEntity
  8
Layer_1
 62
1
100
AcDbLine
 10
107.047800
 20
229.683383
 30
0.0
 11
107.047800
 21
256.021560
 31
0.0
  0
LINE
  5
1a3
100
AcDbEntity
  8
Layer_1
 62
1
100
AcDbLine
 10
109.297790
 20
262.026509
 30
0.0
 11
109.297790
 21
245.852954
 31
0.0
  0
LINE
  5
1a4
100
AcDbEntity
  8
Layer_1
 62
1
100
AcDbLine
 10
109.297790
 20
239.847984
 30
0.0
 11
109.297790
 21
213.509817
 31
0.0
  0
LINE
  5
1a5
100
AcDbEntity
  8
Layer_1
 62
1
100
AcDbLine
 10
109.297790
 20
207.504847
 30
0.0
 11
109.297790
 21
181.162780
 31
0.0
  0
LINE
  5
1a6
100
AcDbEntity
  8
Layer_1
 62
1
100
AcDbLine
 10
109.297790
 20
175.157820
 30
0.0
 11
109.297790
 21
148.819650
 31
0.0
  0
LINE
  5
1a7
100
AcDbEntity
  8
Layer_1
 62
1
100
AcDbLine
 10
109.297790
 20
142.814680
 30
0.0
 11
109.297790
 21
116.472610
 31
0.0
  0
LINE
  5
1a8
100
AcDbEntity
  8
Layer_1
 62
1
100
AcDbLine
 10
109.297790
 20
110.467640
 30
0.0
 11
109.297790
 21
84.129490
 31
0.0
  0
LINE
  5
1a9
100
AcDbEntity
  8
Layer_1
 62
1
100
AcDbLine
 10
111.547790
 20
78.124510
 30
0.0
 11
111.547790
 21
94.298080
 31
0.0
  0
LINE
  5
1aa
100
AcDbEntity
  8
Layer_1
 62
1
100
AcDbLine
 10
111.547790
 20
100.303050
 30
0.0
 11
111.547790
 21
126.641220
 31
0.0
  0
LINE
  5
1ab
100
AcDbEntity
  8
Layer_1
 62
1
100
AcDbLine
 10
111.547790
 20
132.646180
 30
0.0
 11
111.547790
 21
158.988250
 31
0.0
  0
LINE
  5
1ac
100
AcDbEntity
  8
Layer_1
 62
1
100
AcDbLine
 10
111.547790
 20
164.993220
 30
0.0
 11
111.547790
 21
191.331390
 31
0.0
  0
LINE
  5
1ad
100
AcDbEntity
  8
Layer_1
 62
1
100
AcDbLine
 10
111.547790
 20
197.336347
 30
0.0
 11
111.547790
 21
223.678424
 31
0.0
  0
LINE
  5
1ae
100
AcDbEntity
  8
Layer_1
 62
1
100
AcDbLine
 10
111.547790
 20
229.683383
 30
0.0
 11
111.547790
 21
256.021560
 31
0.0
  0
LINE
  5
1af
100
AcDbEntity
  8
Layer_1
 62
1
100
AcDbLine
 10
113.797780
 20
262.026509
 30
0.0
 11
113.797780
 21
245.852954
 31
0.0
  0
LINE
  5
1b0
100
AcDbEntity
  8
Layer_1
 62
1
100
AcDbLine
 10
113.797780
 20
239.847984
 30
0.0
 11
113.797780
 21
213.509817
 31
0.0
  0
LINE
  5
1b1
100
AcDbEntity
  8
Layer_1
 62
1
100
AcDbLine
 10
113.797780
 20
207.504847
 30
0.0
 11
113.797780
 21
181.162780
 31
0.0
  0
LINE
  5
1b2
100
AcDbEntity
  8
Layer_1
 62
1
100
AcDbLine
 10
113.797780
 20
175.157820
 30
0.0
 11
113.797780
 21
148.819650
 31
0.0
  0
LINE
  5
1b3
100
AcDbEntity
  8
Layer_1
 62
1
100
AcDbLine
 10
113.797780
 20
142.814680
 30
0.0
 11
113.797780
 21
116.472610
 31
0.0
  0
LINE
  5
1b4
100
AcDbEntity
  8
Layer_1
 62
1
100
AcDbLine
 10
113.797780
 20
110.467640
 30
0.0
 11
113.797780
 21
84.129490
 31
0.0
  0
LINE
  5
1b5
100
AcDbEntity
  8
Layer_1
 62
1
100
AcDbLine
 10
116.047770
 20
78.124510
 30
0.0
 11
116.047770
 21
94.298080
 31
0.0
  0
LINE
  5
1b6
100
AcDbEntity
  8
Layer_1
 62
1
100
AcDbLine
 10
116.047770
 20
100.303050
 30
0.0
 11
116.047770
 21
126.641220
 31
0.0
  0
LINE
  5
1b7
100
AcDbEntity
  8
Layer_1
 62
1
100
AcDbLine
 10
116.047770
 20
132.646180
 30
0.0
 11
116.047770
 21
158.988250
 31
0.0
  0
LINE
  5
1b8
100
AcDbEntity
  8
Layer_1
 62
1
100
AcDbLine
 10
116.047770
 20
164.993220
 30
0.0
 11
116.047770
 21
191.331390
 31
0.0
  0
LINE
  5
1b9
100
AcDbEntity
  8
Layer_1
 62
1
100
AcDbLine
 10
116.047770
 20
197.336347
 30
0.0
 11
116.047770
 21
223.678424
 31
0.0
  0
LINE
  5
1ba
100
AcDbEntity
  8
Layer_1
 62
1
100
AcDbLine
 10
116.047770
 20
229.683383
 30
0.0
 11
116.047770
 21
256.021560
 31
0.0
  0
LINE
  5
1bb
100
AcDbEntity
  8
Layer_1
 62
1
100
AcDbLine
 10
118.297760
 20
262.026509
 30
0.0
 11
118.297760
 21
245.852954
 31
0.0
  0
LINE
  5
1bc
100
AcDbEntity
  8
Layer_1
 62
1
100
AcDbLine
 10
118.297760
 20
239.847984
 30
0.0
 11
118.297760
 21
213.509817
 31
0.0
  0
LINE
  5
1bd
100
AcDbEntity
  8
Layer_1
 62
1
100
AcDbLine
 10
118.297760
 20
207.504847
 30
0.0
 11
118.297760
 21
181.162780
 31
0.0
  0
LINE
  5
1be
100
AcDbEntity
  8
Layer_1
 62
1
100
AcDbLine
 10
118.297760
 20
175.157820
 30
0.0
 11
118.297760
 21
148.819650
 31
0.0
  0
LINE
  5
1bf
100
AcDbEntity
  8
Layer_1
 62
1
100
AcDbLine
 10
118.297760
 20
142.814680
 30
0.0
 11
118.297760
 21
116.472610
 31
0.0
  0
LINE
  5
1c0
100
AcDbEntity
  8
Layer_1
 62
1
100
AcDbLine
 10
118.297760
 20
110.467640
 30
0.0
 11
118.297760
 21
84.129490
 31
0.0
  0
LINE
  5
1c1
100
AcDbEntity
  8
Layer_1
 62
1
100
AcDbLine
 10
120.547750
 20
78.124510
 30
0.0
 11
120.547750
 21
94.298080
 31
0.0
  0
LINE
  5
1c2
100
AcDbEntity
  8
Layer_1
 62
1
100
AcDbLine
 10
120.547750
 20
100.303050
 30
0.0
 11
120.547750
 21
126.641220
 31
0.0
  0
LINE
  5
1c3
100
AcDbEntity
  8
Layer_1
 62
1
100
AcDbLine
 10
120.547750
 20
132.646180
 30
0.0
 11
120.547750
 21
158.988250
 31
0.0
  0
LINE
  5
1c4
100
AcDbEntity
  8
Layer_1
 62
1
100
AcDbLine
 10
120.547750
 20
164.993220
 30
0.0
 11
120.547750
 21
191.331390
 31
0.0
  0
LINE
  5
1c5
100
AcDbEntity
  8
Layer_1
 62
1
100
AcDbLine
 10
120.547750
 20
197.336347
 30
0.0
 11
120.547750
 21
223.678424
 31
0.0
  0
LINE
  5
1c6
100
AcDbEntity
  8
Layer_1
 62
1
100
AcDbLine
 10
120.547750
 20
229.683383
 30
0.0
 11
120.547750
 21
256.021560
 31
0.0
  0
LINE
  5
1c7
100
AcDbEntity
  8
Layer_1
 62
1
100
AcDbLine
 10
122.797740
 20
262.026509
 30
0.0
 11
122.797740
 21
245.852954
 31
0.0
  0
LINE
  5
1c8
100
AcDbEntity
  8
Layer_1
 62
1
100
AcDbLine
 10
122.797740
 20
239.847984
 30
0.0
 11
122.797740
 21
213.509817
 31
0.0
  0
LINE
  5
1c9
100
AcDbEntity
  8
Layer_1
 62
1
100
AcDbLine
 10
122.797740
 20
207.504847
 30
0.0
 11
122.797740
 21
181.162780
 31
0.0
  0
LINE
  5
1ca
100
AcDbEntity
  8
Layer_1
 62
1
100
AcDbLine
 10
122.797740
 20
175.157820
 30
0.0
 11
122.797740
 21
148.819650
 31
0.0
  0
LINE
  5
1cb
100
AcDbEntity
  8
Layer_1
 62
1
100
AcDbLine
 10
122.797740
 20
142.814680
 30
0.0
 11
122.797740
 21
116.472610
 31
0.0
  0
LINE
  5
1cc
100
AcDbEntity
  8
Layer_1
 62
1
100
AcDbLine
 10
122.797740
 20
110.467640
 30
0.0
 11
122.797740
 21
84.129490
 31
0.0
  0
LINE
  5
1cd
100
AcDbEntity
  8
Layer_1
 62
1
100
AcDbLine
 10
125.047740
 20
78.124510
 30
0.0
 11
125.047740
 21
94.298080
 31
0.0
  0
LINE
  5
1ce
100
AcDbEntity
  8
Layer_1
 62
1
100
AcDbLine
 10
125.047740
 20
100.303050
 30
0.0
 11
125.047740
 21
126.641220
 31
0.0
  0
LINE
  5
1cf
100
AcDbEntity
  8
Layer_1
 62
1
100
AcDbLine
 10
125.047740
 20
132.646180
 30
0.0
 11
125.047740
 21
158.988250
 31
0.0
  0
LINE
  5
1d0
100
AcDbEntity
  8
Layer_1
 62
1
100
AcDbLine
 10
125.047740
 20
164.993220
 30
0.0
 11
125.047740
 21
191.331390
 31
0.0
  0
LINE
  5
1d1
100
AcDbEntity
  8
Layer_1
 62
1
100
AcDbLine
 10
125.047740
 20
197.336347
 30
0.0
 11
125.047740
 21
223.678424
 31
0.0
  0
LINE
  5
1d2
100
AcDbEntity
  8
Layer_1
 62
1
100
AcDbLine
 10
125.047740
 20
229.683383
 30
0.0
 11
125.047740
 21
256.021560
 31
0.0
  0
LINE
  5
1d3
100
AcDbEntity
  8
Layer_1
 62
1
100
AcDbLine
 10
127.297730
 20
262.026509
 30
0.0
 11
127.297730
 21
245.852954
 31
0.0
  0
LINE
  5
1d4
100
AcDbEntity
  8
Layer_1
 62
1
100
AcDbLine
 10
127.297730
 20
239.847984
 30
0.0
 11
127.297730
 21
213.509817
 31
0.0
  0
LINE
  5
1d5
100
AcDbEntity
  8
Layer_1
 62
1
100
AcDbLine
 10
127.297730
 20
207.504847
 30
0.0
 11
127.297730
 21
181.162780
 31
0.0
  0
LINE
  5
1d6
100
AcDbEntity
  8
Layer_1
 62
1
100
AcDbLine
 10
127.297730
 20
175.157820
 30
0.0
 11
127.297730
 21
148.819650
 31
0.0
  0
LINE
  5
1d7
100
AcDbEntity
  8
Layer_1
 62
1
100
AcDbLine
 10
127.297730
 20
142.814680
 30
0.0
 11
127.297730
 21
116.472610
 31
0.0
  0
LINE
  5
1d8
100
AcDbEntity
  8
Layer_1
 62
1
100
AcDbLine
 10
127.297730
 20
110.467640
 30
0.0
 11
127.297730
 21
84.129490
 31
0.0
  0
LINE
  5
1d9
100
AcDbEntity
  8
Layer_1
 62
1
100
AcDbLine
 10
129.547730
 20
78.124510
 30
0.0
 11
129.547730
 21
94.298080
 31
0.0
  0
LINE
  5
1da
100
AcDbEntity
  8
Layer_1
 62
1
100
AcDbLine
 10
129.547730
 20
100.303050
 30
0.0
 11
129.547730
 21
126.641220
 31
0.0
  0
LINE
  5
1db
100
AcDbEntity
  8
Layer_1
 62
1
100
AcDbLine
 10
129.547730
 20
132.646180
 30
0.0
 11
129.547730
 21
158.988250
 31
0.0
  0
LINE
  5
1dc
100
AcDbEntity
  8
Layer_1
 62
1
100
AcDbLine
 10
129.547730
 20
164.993220
 30
0.0
 11
129.547730
 21
191.331390
 31
0.0
  0
LINE
  5
1dd
100
AcDbEntity
  8
Layer_1
 62
1
100
AcDbLine
 10
129.547730
 20
197.336347
 30
0.0
 11
129.547730
 21
223.678424
 31
0.0
  0
LINE
  5
1de
100
AcDbEntity
  8
Layer_1
 62
1
100
AcDbLine
 10
129.547730
 20
229.683383
 30
0.0
 11
129.547730
 21
256.021560
 31
0.0
  0
LINE
  5
1df
100
AcDbEntity
  8
Layer_1
 62
1
100
AcDbLine
 10
131.797720
 20
262.026509
 30
0.0
 11
131.797720
 21
245.852954
 31
0.0
  0
LINE
  5
1e0
100
AcDbEntity
  8
Layer_1
 62
1
100
AcDbLine
 10
131.797720
 20
239.847984
 30
0.0
 11
131.797720
 21
213.509817
 31
0.0
  0
LINE
  5
1e1
100
AcDbEntity
  8
Layer_1
 62
1
100
AcDbLine
 10
131.797720
 20
207.504847
 30
0.0
 11
131.797720
 21
181.162780
 31
0.0
  0
LINE
  5
1e2
100
AcDbEntity
  8
Layer_1
 62
1
100
AcDbLine
 10
131.797720
 20
175.157820
 30
0.0
 11
131.797720
 21
148.819650
 31
0.0
  0
LINE
  5
1e3
100
AcDbEntity
  8
Layer_1
 62
1
100
AcDbLine
 10
131.797720
 20
142.814680
 30
0.0
 11
131.797720
 21
116.472610
 31
0.0
  0
LINE
  5
1e4
100
AcDbEntity
  8
Layer_1
 62
1
100
AcDbLine
 10
131.797720
 20
110.467640
 30
0.0
 11
131.797720
 21
84.129490
 31
0.0
  0
LINE
  5
1e5
100
AcDbEntity
  8
Layer_1
 62
1
100
AcDbLine
 10
134.047700
 20
78.124510
 30
0.0
 11
134.047700
 21
94.298080
 31
0.0
  0
LINE
  5
1e6
100
AcDbEntity
  8
Layer_1
 62
1
100
AcDbLine
 10
134.047700
 20
100.303050
 30
0.0
 11
134.047700
 21
126.641220
 31
0.0
  0
LINE
  5
1e7
100
AcDbEntity
  8
Layer_1
 62
1
100
AcDbLine
 10
134.047700
 20
132.646180
 30
0.0
 11
134.047700
 21
158.988250
 31
0.0
  0
LINE
  5
1e8
100
AcDbEntity
  8
Layer_1
 62
1
100
AcDbLine
 10
134.047700
 20
164.993220
 30
0.0
 11
134.047700
 21
191.331390
 31
0.0
  0
LINE
  5
1e9
100
AcDbEntity
  8
Layer_1
 62
1
100
AcDbLine
 10
134.047700
 20
197.336347
 30
0.0
 11
134.047700
 21
223.678424
 31
0.0
  0
LINE
  5
1ea
100
AcDbEntity
  8
Layer_1
 62
1
100
AcDbLine
 10
134.047700
 20
229.683383
 30
0.0
 11
134.047700
 21
256.021560
 31
0.0
  0
LINE
  5
1eb
100
AcDbEntity
  8
Layer_1
 62
1
100
AcDbLine
 10
136.297700
 20
262.026509
 30
0.0
 11
136.297700
 21
245.852954
 31
0.0
  0
LINE
  5
1ec
100
AcDbEntity
  8
Layer_1
 62
1
100
AcDbLine
 10
136.297700
 20
239.847984
 30
0.0
 11
136.297700
 21
213.509817
 31
0.0
  0
LINE
  5
1ed
100
AcDbEntity
  8
Layer_1
 62
1
100
AcDbLine
 10
136.297700
 20
207.504847
 30
0.0
 11
136.297700
 21
181.162780
 31
0.0
  0
LINE
  5
1ee
100
AcDbEntity
  8
Layer_1
 62
1
100
AcDbLine
 10
136.297700
 20
175.157820
 30
0.0
 11
136.297700
 21
148.819650
 31
0.0
  0
LINE
  5
1ef
100
AcDbEntity
  8
Layer_1
 62
1
100
AcDbLine
 10
136.297700
 20
142.814680
 30
0.0
 11
136.297700
 21
116.472610
 31
0.0
  0
LINE
  5
1f0
100
AcDbEntity
  8
Layer_1
 62
1
100
AcDbLine
 10
136.297700
 20
110.467640
 30
0.0
 11
136.297700
 21
84.129490
 31
0.0
  0
LINE
  5
1f1
100
AcDbEntity
  8
Layer_1
 62
1
100
AcDbLine
 10
138.547690
 20
78.124510
 30
0.0
 11
138.547690
 21
94.298080
 31
0.0
  0
LINE
  5
1f2
100
AcDbEntity
  8
Layer_1
 62
1
100
AcDbLine
 10
138.547690
 20
100.303050
 30
0.0
 11
138.547690
 21
126.641220
 31
0.0
  0
LINE
  5
1f3
100
AcDbEntity
  8
Layer_1
 62
1
100
AcDbLine
 10
138.547690
 20
132.646180
 30
0.0
 11
138.547690
 21
158.988250
 31
0.0
  0
LINE
  5
1f4
100
AcDbEntity
  8
Layer_1
 62
1
100
AcDbLine
 10
138.547690
 20
164.993220
 30
0.0
 11
138.547690
 21
191.331390
 31
0.0
  0
LINE
  5
1f5
100
AcDbEntity
  8
Layer_1
 62
1
100
AcDbLine
 10
138.547690
 20
197.336347
 30
0.0
 11
138.547690
 21
223.678424
 31
0.0
  0
LINE
  5
1f6
100
AcDbEntity
  8
Layer_1
 62
1
100
AcDbLine
 10
138.547690
 20
229.683383
 30
0.0
 11
138.547690
 21
256.021560
 31
0.0
  0
LINE
  5
1f7
100
AcDbEntity
  8
Layer_1
 62
1
100
AcDbLine
 10
140.797690
 20
262.026509
 30
0.0
 11
140.797690
 21
245.852954
 31
0.0
  0
LINE
  5
1f8
100
AcDbEntity
  8
Layer_1
 62
1
100
AcDbLine
 10
140.797690
 20
239.847984
 30
0.0
 11
140.797690
 21
213.509817
 31
0.0
  0
LINE
  5
1f9
100
AcDbEntity
  8
Layer_1
 62
1
100
AcDbLine
 10
140.797690
 20
207.504847
 30
0.0
 11
140.797690
 21
181.162780
 31
0.0
  0
LINE
  5
1fa
100
AcDbEntity
  8
Layer_1
 62
1
100
AcDbLine
 10
140.797690
 20
175.157820
 30
0.0
 11
140.797690
 21
148.819650
 31
0.0
  0
LINE
  5
1fb
100
AcDbEntity
  8
Layer_1
 62
1
100
AcDbLine
 10
140.797690
 20
142.814680
 30
0.0
 11
140.797690
 21
116.472610
 31
0.0
  0
LINE
  5
1fc
100
AcDbEntity
  8
Layer_1
 62
1
100
AcDbLine
 10
140.797690
 20
110.467640
 30
0.0
 11
140.797690
 21
84.129490
 31
0.0
  0
LINE
  5
1fd
100
AcDbEntity
  8
Layer_1
 62
1
100
AcDbLine
 10
143.047680
 20
78.124510
 30
0.0
 11
143.047680
 21
94.298080
 31
0.0
  0
LINE
  5
1fe
100
AcDbEntity
  8
Layer_1
 62
1
100
AcDbLine
 10
143.047680
 20
100.303050
 30
0.0
 11
143.047680
 21
126.641220
 31
0.0
  0
LINE
  5
1ff
100
AcDbEntity
  8
Layer_1
 62
1
100
AcDbLine
 10
143.047680
 20
132.646180
 30
0.0
 11
143.047680
 21
158.988250
 31
0.0
  0
LINE
  5
200
100
AcDbEntity
  8
Layer_1
 62
1
100
AcDbLine
 10
143.047680
 20
164.993220
 30
0.0
 11
143.047680
 21
191.331390
 31
0.0
  0
LINE
  5
201
100
AcDbEntity
  8
Layer_1
 62
1
100
AcDbLine
 10
143.047680
 20
197.336347
 30
0.0
 11
143.047680
 21
223.678424
 31
0.0
  0
LINE
  5
202
100
AcDbEntity
  8
Layer_1
 62
1
100
AcDbLine
 10
143.047680
 20
229.683383
 30
0.0
 11
143.047680
 21
256.021560
 31
0.0
  0
LINE
  5
203
100
AcDbEntity
  8
Layer_1
 62
1
100
AcDbLine
 10
145.297670
 20
262.026509
 30
0.0
 11
145.297670
 21
245.852954
 31
0.0
  0
LINE
  5
204
100
AcDbEntity
  8
Layer_1
 62
1
100
AcDbLine
 10
145.297670
 20
239.847984
 30
0.0
 11
145.297670
 21
213.509817
 31
0.0
  0
LINE
  5
205
100
AcDbEntity
  8
Layer_1
 62
1
100
AcDbLine
 10
145.297670
 20
207.504847
 30
0.0
 11
145.297670
 21
181.162780
 31
0.0
  0
LINE
  5
206
100
AcDbEntity
  8
Layer_1
 62
1
100
AcDbLine
 10
145.297670
 20
175.157820
 30
0.0
 11
145.297670
 21
148.819650
 31
0.0
  0
LINE
  5
207
100
AcDbEntity
  8
Layer_1
 62
1
100
AcDbLine
 10
145.297670
 20
142.814680
 30
0.0
 11
145.297670
 21
116.472610
 31
0.0
  0
LINE
  5
208
100
AcDbEntity
  8
Layer_1
 62
1
100
AcDbLine
 10
145.297670
 20
110.467640
 30
0.0
 11
145.297670
 21
84.129490
 31
0.0
  0
LINE
  5
209
100
AcDbEntity
  8
Layer_1
 62
1
100
AcDbLine
 10
147.547660
 20
78.124510
 30
0.0
 11
147.547660
 21
94.298080
 31
0.0
  0
LINE
  5
20a
100
AcDbEntity
  8
Layer_1
 62
1
100
AcDbLine
 10
147.547660
 20
100.303050
 30
0.0
 11
147.547660
 21
126.641220
 31
0.0
  0
LINE
  5
20b
100
AcDbEntity
  8
Layer_1
 62
1
100
AcDbLine
 10
147.547660
 20
132.646180
 30
0.0
 11
147.547660
 21
158.988250
 31
0.0
  0
LINE
  5
20c
100
AcDbEntity
  8
Layer_1
 62
1
100
AcDbLine
 10
147.547660
 20
164.993220
 30
0.0
 11
147.547660
 21
191.331390
 31
0.0
  0
LINE
  5
20d
100
AcDbEntity
  8
Layer_1
 62
1
100
AcDbLine
 10
147.547660
 20
197.336347
 30
0.0
 11
147.547660
 21
223.678424
 31
0.0
  0
LINE
  5
20e
100
AcDbEntity
  8
Layer_1
 62
1
100
AcDbLine
 10
147.547660
 20
229.683383
 30
0.0
 11
147.547660
 21
256.021560
 31
0.0
  0
LINE
  5
20f
100
AcDbEntity
  8
Layer_1
 62
1
100
AcDbLine
 10
149.797650
 20
262.026509
 30
0.0
 11
149.797650
 21
245.852954
 31
0.0
  0
LINE
  5
210
100
AcDbEntity
  8
Layer_1
 62
1
100
AcDbLine
 10
149.797650
 20
239.847984
 30
0.0
 11
149.797650
 21
213.509817
 31
0.0
  0
LINE
  5
211
100
AcDbEntity
  8
Layer_1
 62
1
100
AcDbLine
 10
149.797650
 20
207.504847
 30
0.0
 11
149.797650
 21
181.162780
 31
0.0
  0
LINE
  5
212
100
AcDbEntity
  8
Layer_1
 62
1
100
AcDbLine
 10
149.797650
 20
175.157820
 30
0.0
 11
149.797650
 21
148.819650
 31
0.0
  0
LINE
  5
213
100
AcDbEntity
  8
Layer_1
 62
1
100
AcDbLine
 10
149.797650
 20
142.814680
 30
0.0
 11
149.797650
 21
116.472610
 31
0.0
  0
LINE
  5
214
100
AcDbEntity
  8
Layer_1
 62
1
100
AcDbLine
 10
149.797650
 20
110.467640
 30
0.0
 11
149.797650
 21
84.129490
 31
0.0
  0
LINE
  5
215
100
AcDbEntity
  8
Layer_1
 62
1
100
AcDbLine
 10
152.047640
 20
78.124510
 30
0.0
 11
152.047640
 21
94.298080
 31
0.0
  0
LINE
  5
216
100
AcDbEntity
  8
Layer_1
 62
1
100
AcDbLine
 10
152.047640
 20
100.303050
 30
0.0
 11
152.047640
 21
126.641220
 31
0.0
  0
LINE
  5
217
100
AcDbEntity
  8
Layer_1
 62
1
100
AcDbLine
 10
152.047640
 20
132.646180
 30
0.0
 11
152.047640
 21
158.988250
 31
0.0
  0
LINE
  5
218
100
AcDbEntity
  8
Layer_1
 62
1
100
AcDbLine
 10
152.047640
 20
164.993220
 30
0.0
 11
152.047640
 21
191.331390
 31
0.0
  0
LINE
  5
219
100
AcDbEntity
  8
Layer_1
 62
1
100
AcDbLine
 10
152.047640
 20
197.336347
 30
0.0
 11
152.047640
 21
223.678424
 31
0.0
  0
LINE
  5
21a
100
AcDbEntity
  8
Layer_1
 62
1
100
AcDbLine
 10
152.047640
 20
229.683383
 30
0.0
 11
152.047640
 21
256.021560
 31
0.0
  0
LINE
  5
21b
100
AcDbEntity
  8
Layer_1
 62
1
100
AcDbLine
 10
154.297640
 20
262.026509
 30
0.0
 11
154.297640
 21
245.852954
 31
0.0
  0
LINE
  5
21c
100
AcDbEntity
  8
Layer_1
 62
1
100
AcDbLine
 10
154.297640
 20
239.847984
 30
0.0
 11
154.297640
 21
213.509817
 31
0.0
  0
LINE
  5
21d
100
AcDbEntity
  8
Layer_1
 62
1
100
AcDbLine
 10
154.297640
 20
207.504847
 30
0.0
 11
154.297640
 21
181.162780
 31
0.0
  0
LINE
  5
21e
100
AcDbEntity
  8
Layer_1
 62
1
100
AcDbLine
 10
154.297640
 20
175.157820
 30
0.0
 11
154.297640
 21
148.819650
 31
0.0
  0
LINE
  5
21f
100
AcDbEntity
  8
Layer_1
 62
1
100
AcDbLine
 10
154.297640
 20
142.814680
 30
0.0
 11
154.297640
 21
116.472610
 31
0.0
  0
LINE
  5
220
100
AcDbEntity
  8
Layer_1
 62
1
100
AcDbLine
 10
154.297640
 20
110.467640
 30
0.0
 11
154.297640
 21
84.129490
 31
0.0
  0
LINE
  5
221
100
AcDbEntity
  8
Layer_1
 62
1
100
AcDbLine
 10
156.547630
 20
78.124510
 30
0.0
 11
156.547630
 21
94.298080
 31
0.0
  0
LINE
  5
222
100
AcDbEntity
  8
Layer_1
 62
1
100
AcDbLine
 10
156.547630
 20
100.303050
 30
0.0
 11
156.547630
 21
126.641220
 31
0.0
  0
LINE
  5
223
100
AcDbEntity
  8
Layer_1
 62
1
100
AcDbLine
 10
156.547630
 20
132.646180
 30
0.0
 11
156.547630
 21
158.988250
 31
0.0
  0
LINE
  5
224
100
AcDbEntity
  8
Layer_1
 62
1
100
AcDbLine
 10
156.547630
 20
164.993220
 30
0.0
 11
156.547630
 21
191.331390
 31
0.0
  0
LINE
  5
225
100
AcDbEntity
  8
Layer_1
 62
1
100
AcDbLine
 10
156.547630
 20
197.336347
 30
0.0
 11
156.547630
 21
223.678424
 31
0.0
  0
LINE
  5
226
100
AcDbEntity
  8
Layer_1
 62
1
100
AcDbLine
 10
156.547630
 20
229.683383
 30
0.0
 11
156.547630
 21
256.021560
 31
0.0
  0
LINE
  5
227
100
AcDbEntity
  8
Layer_1
 62
1
100
AcDbLine
 10
158.797630
 20
262.026509
 30
0.0
 11
158.797630
 21
245.852954
 31
0.0
  0
LINE
  5
228
100
AcDbEntity
  8
Layer_1
 62
1
100
AcDbLine
 10
158.797630
 20
239.847984
 30
0.0
 11
158.797630
 21
213.509817
 31
0.0
  0
LINE
  5
229
100
AcDbEntity
  8
Layer_1
 62
1
100
AcDbLine
 10
158.797630
 20
207.504847
 30
0.0
 11
158.797630
 21
181.162780
 31
0.0
  0
LINE
  5
22a
100
AcDbEntity
  8
Layer_1
 62
1
100
AcDbLine
 10
158.797630
 20
175.157820
 30
0.0
 11
158.797630
 21
148.819650
 31
0.0
  0
LINE
  5
22b
100
AcDbEntity
  8
Layer_1
 62
1
100
AcDbLine
 10
158.797630
 20
142.814680
 30
0.0
 11
158.797630
 21
116.472610
 31
0.0
  0
LINE
  5
22c
100
AcDbEntity
  8
Layer_1
 62
1
100
AcDbLine
 10
158.797630
 20
110.467640
 30
0.0
 11
158.797630
 21
84.129490
 31
0.0
  0
LINE
  5
22d
100
AcDbEntity
  8
Layer_1
 62
1
100
AcDbLine
 10
161.047620
 20
78.124510
 30
0.0
 11
161.047620
 21
94.298080
 31
0.0
  0
LINE
  5
22e
100
AcDbEntity
  8
Layer_1
 62
1
100
AcDbLine
 10
161.047620
 20
100.303050
 30
0.0
 11
161.047620
 21
126.641220
 31
0.0
  0
LINE
  5
22f
100
AcDbEntity
  8
Layer_1
 62
1
100
AcDbLine
 10
161.047620
 20
132.646180
 30
0.0
 11
161.047620
 21
158.988250
 31
0.0
  0
LINE
  5
230
100
AcDbEntity
  8
Layer_1
 62
1
100
AcDbLine
 10
161.047620
 20
164.993220
 30
0.0
 11
161.047620
 21
191.331390
 31
0.0
  0
LINE
  5
231
100
AcDbEntity
  8
Layer_1
 62
1
100
AcDbLine
 10
161.047620
 20
197.336347
 30
0.0
 11
161.047620
 21
223.678424
 31
0.0
  0
LINE
  5
232
100
AcDbEntity
  8
Layer_1
 62
1
100
AcDbLine
 10
161.047620
 20
229.683383
 30
0.0
 11
161.047620
 21
256.021560
 31
0.0
  0
LINE
  5
233
100
AcDbEntity
  8
Layer_1
 62
1
100
AcDbLine
 10
163.297600
 20
262.026509
 30
0.0
 11
163.297600
 21
245.852954
 31
0.0
  0
LINE
  5
234
100
AcDbEntity
  8
Layer_1
 62
1
100
AcDbLine
 10
163.297600
 20
239.847984
 30
0.0
 11
163.297600
 21
213.509817
 31
0.0
  0
LINE
  5
235
100
AcDbEntity
  8
Layer_1
 62
1
100
AcDbLine
 10
163.297600
 20
207.504847
 30
0.0
 11
163.297600
 21
181.162780
 31
0.0
  0
LINE
  5
236
100
AcDbEntity
  8
Layer_1
 62
1
100
AcDbLine
 10
163.297600
 20
175.157820
 30
0.0
 11
163.297600
 21
148.819650
 31
0.0
  0
LINE
  5
237
100
AcDbEntity
  8
Layer_1
 62
1
100
AcDbLine
 10
163.297600
 20
142.814680
 30
0.0
 11
163.297600
 21
116.472610
 31
0.0
  0
LINE
  5
238
100
AcDbEntity
  8
Layer_1
 62
1
100
AcDbLine
 10
163.297600
 20
110.467640
 30
0.0
 11
163.297600
 21
84.129490
 31
0.0
  0
LINE
  5
239
100
AcDbEntity
  8
Layer_1
 62
1
100
AcDbLine
 10
165.547600
 20
78.124510
 30
0.0
 11
165.547600
 21
94.298080
 31
0.0
  0
LINE
  5
23a
100
AcDbEntity
  8
Layer_1
 62
1
100
AcDbLine
 10
165.547600
 20
100.303050
 30
0.0
 11
165.547600
 21
126.641220
 31
0.0
  0
LINE
  5
23b
100
AcDbEntity
  8
Layer_1
 62
1
100
AcDbLine
 10
165.547600
 20
132.646180
 30
0.0
 11
165.547600
 21
158.988250
 31
0.0
  0
LINE
  5
23c
100
AcDbEntity
  8
Layer_1
 62
1
100
AcDbLine
 10
165.547600
 20
164.993220
 30
0.0
 11
165.547600
 21
191.331390
 31
0.0
  0
LINE
  5
23d
100
AcDbEntity
  8
Layer_1
 62
1
100
AcDbLine
 10
165.547600
 20
197.336347
 30
0.0
 11
165.547600
 21
223.678424
 31
0.0
  0
LINE
  5
23e
100
AcDbEntity
  8
Layer_1
 62
1
100
AcDbLine
 10
165.547600
 20
229.683383
 30
0.0
 11
165.547600
 21
256.021560
 31
0.0
  0
LINE
  5
23f
100
AcDbEntity
  8
Layer_1
 62
1
100
AcDbLine
 10
167.797590
 20
262.026509
 30
0.0
 11
167.797590
 21
245.852954
 31
0.0
  0
LINE
  5
240
100
AcDbEntity
  8
Layer_1
 62
1
100
AcDbLine
 10
167.797590
 20
239.847984
 30
0.0
 11
167.797590
 21
213.509817
 31
0.0
  0
LINE
  5
241
100
AcDbEntity
  8
Layer_1
 62
1
100
AcDbLine
 10
167.797590
 20
207.504847
 30
0.0
 11
167.797590
 21
181.162780
 31
0.0
  0
LINE
  5
242
100
AcDbEntity
  8
Layer_1
 62
1
100
AcDbLine
 10
167.797590
 20
175.157820
 30
0.0
 11
167.797590
 21
148.819650
 31
0.0
  0
LINE
  5
243
100
AcDbEntity
  8
Layer_1
 62
1
100
AcDbLine
 10
167.797590
 20
142.814680
 30
0.0
 11
167.797590
 21
116.472610
 31
0.0
  0
LINE
  5
244
100
AcDbEntity
  8
Layer_1
 62
1
100
AcDbLine
 10
167.797590
 20
110.467640
 30
0.0
 11
167.797590
 21
84.129490
 31
0.0
  0
LINE
  5
245
100
AcDbEntity
  8
Layer_1
 62
1
100
AcDbLine
 10
170.047580
 20
78.124510
 30
0.0
 11
170.047580
 21
94.298080
 31
0.0
  0
LINE
  5
246
100
AcDbEntity
  8
Layer_1
 62
1
100
AcDbLine
 10
170.047580
 20
100.303050
 30
0.0
 11
170.047580
 21
126.641220
 31
0.0
  0
LINE
  5
247
100
AcDbEntity
  8
Layer_1
 62
1
100
AcDbLine
 10
170.047580
 20
132.646180
 30
0.0
 11
170.047580
 21
158.988250
 31
0.0
  0
LINE
  5
248
100
AcDbEntity
  8
Layer_1
 62
1
100
AcDbLine
 10
170.047580
 20
164.993220
 30
0.0
 11
170.047580
 21
191.331390
 31
0.0
  0
LINE
  5
249
100
AcDbEntity
  8
Layer_1
 62
1
100
AcDbLine
 10
170.047580
 20
197.336347
 30
0.0
 11
170.047580
 21
223.678424
 31
0.0
  0
LINE
  5
24a
100
AcDbEntity
  8
Layer_1
 62
1
100
AcDbLine
 10
170.047580
 20
229.683383
 30
0.0
 11
170.047580
 21
256.021560
 31
0.0
  0
LINE
  5
24b
100
AcDbEntity
  8
Layer_1
 62
1
100
AcDbLine
 10
172.297580
 20
262.026509
 30
0.0
 11
172.297580
 21
245.852954
 31
0.0
  0
LINE
  5
24c
100
AcDbEntity
  8
Layer_1
 62
1
100
AcDbLine
 10
172.297580
 20
239.847984
 30
0.0
 11
172.297580
 21
213.509817
 31
0.0
  0
LINE
  5
24d
100
AcDbEntity
  8
Layer_1
 62
1
100
AcDbLine
 10
172.297580
 20
207.504847
 30
0.0
 11
172.297580
 21
181.162780
 31
0.0
  0
LINE
  5
24e
100
AcDbEntity
  8
Layer_1
 62
1
100
AcDbLine
 10
172.297580
 20
175.157820
 30
0.0
 11
172.297580
 21
148.819650
 31
0.0
  0
LINE
  5
24f
100
AcDbEntity
  8
Layer_1
 62
1
100
AcDbLine
 10
172.297580
 20
142.814680
 30
0.0
 11
172.297580
 21
116.472610
 31
0.0
  0
LINE
  5
250
100
AcDbEntity
  8
Layer_1
 62
1
100
AcDbLine
 10
172.297580
 20
110.467640
 30
0.0
 11
172.297580
 21
84.129490
 31
0.0
  0
LINE
  5
251
100
AcDbEntity
  8
Layer_1
 62
1
100
AcDbLine
 10
174.547570
 20
78.124510
 30
0.0
 11
174.547570
 21
94.298080
 31
0.0
  0
LINE
  5
252
100
AcDbEntity
  8
Layer_1
 62
1
100
AcDbLine
 10
174.547570
 20
100.303050
 30
0.0
 11
174.547570
 21
126.641220
 31
0.0
  0
LINE
  5
253
100
AcDbEntity
  8
Layer_1
 62
1
100
AcDbLine
 10
174.547570
 20
132.646180
 30
0.0
 11
174.547570
 21
158.988250
 31
0.0
  0
LINE
  5
254
100
AcDbEntity
  8
Layer_1
 62
1
100
AcDbLine
 10
174.547570
 20
164.993220
 30
0.0
 11
174.547570
 21
191.331390
 31
0.0
  0
LINE
  5
255
100
AcDbEntity
  8
Layer_1
 62
1
100
AcDbLine
 10
174.547570
 20
197.336347
 30
0.0
 11
174.547570
 21
223.678424
 31
0.0
  0
LINE
  5
256
100
AcDbEntity
  8
Layer_1
 62
1
100
AcDbLine
 10
174.547570
 20
229.683383
 30
0.0
 11
174.547570
 21
256.021560
 31
0.0
  0
LINE
  5
257
100
AcDbEntity
  8
Layer_1
 62
1
100
AcDbLine
 10
176.797570
 20
262.026509
 30
0.0
 11
176.797570
 21
245.852954
 31
0.0
  0
LINE
  5
258
100
AcDbEntity
  8
Layer_1
 62
1
100
AcDbLine
 10
176.797570
 20
239.847984
 30
0.0
 11
176.797570
 21
213.509817
 31
0.0
  0
LINE
  5
259
100
AcDbEntity
  8
Layer_1
 62
1
100
AcDbLine
 10
176.797570
 20
207.504847
 30
0.0
 11
176.797570
 21
181.162780
 31
0.0
  0
LINE
  5
25a
100
AcDbEntity
  8
Layer_1
 62
1
100
AcDbLine
 10
176.797570
 20
175.157820
 30
0.0
 11
176.797570
 21
148.819650
 31
0.0
  0
LINE
  5
25b
100
AcDbEntity
  8
Layer_1
 62
1
100
AcDbLine
 10
176.797570
 20
142.814680
 30
0.0
 11
176.797570
 21
116.472610
 31
0.0
  0
LINE
  5
25c
100
AcDbEntity
  8
Layer_1
 62
1
100
AcDbLine
 10
176.797570
 20
110.467640
 30
0.0
 11
176.797570
 21
84.129490
 31
0.0
  0
LINE
  5
25d
100
AcDbEntity
  8
Layer_1
 62
1
100
AcDbLine
 10
179.047560
 20
78.124510
 30
0.0
 11
179.047560
 21
94.298080
 31
0.0
  0
LINE
  5
25e
100
AcDbEntity
  8
Layer_1
 62
1
100
AcDbLine
 10
179.047560
 20
100.303050
 30
0.0
 11
179.047560
 21
126.641220
 31
0.0
  0
LINE
  5
25f
100
AcDbEntity
  8
Layer_1
 62
1
100
AcDbLine
 10
179.047560
 20
132.646180
 30
0.0
 11
179.047560
 21
158.988250
 31
0.0
  0
LINE
  5
260
100
AcDbEntity
  8
Layer_1
 62
1
100
AcDbLine
 10
179.047560
 20
164.993220
 30
0.0
 11
179.047560
 21
191.331390
 31
0.0
  0
LINE
  5
261
100
AcDbEntity
  8
Layer_1
 62
1
100
AcDbLine
 10
179.047560
 20
197.336347
 30
0.0
 11
179.047560
 21
223.678424
 31
0.0
  0
LINE
  5
262
100
AcDbEntity
  8
Layer_1
 62
1
100
AcDbLine
 10
179.047560
 20
229.683383
 30
0.0
 11
179.047560
 21
256.021560
 31
0.0
  0
LINE
  5
263
100
AcDbEntity
  8
Layer_1
 62
1
100
AcDbLine
 10
181.297540
 20
262.026509
 30
0.0
 11
181.297540
 21
245.852954
 31
0.0
  0
LINE
  5
264
100
AcDbEntity
  8
Layer_1
 62
1
100
AcDbLine
 10
181.297540
 20
239.847984
 30
0.0
 11
181.297540
 21
213.509817
 31
0.0
  0
LINE
  5
265
100
AcDbEntity
  8
Layer_1
 62
1
100
AcDbLine
 10
181.297540
 20
207.504847
 30
0.0
 11
181.297540
 21
181.162780
 31
0.0
  0
LINE
  5
266
100
AcDbEntity
  8
Layer_1
 62
1
100
AcDbLine
 10
181.297540
 20
175.157820
 30
0.0
 11
181.297540
 21
148.819650
 31
0.0
  0
LINE
  5
267
100
AcDbEntity
  8
Layer_1
 62
1
100
AcDbLine
 10
181.297540
 20
142.814680
 30
0.0
 11
181.297540
 21
116.472610
 31
0.0
  0
LINE
  5
268
100
AcDbEntity
  8
Layer_1
 62
1
100
AcDbLine
 10
181.297540
 20
110.467640
 30
0.0
 11
181.297540
 21
84.129490
 31
0.0
  0
LINE
  5
269
100
AcDbEntity
  8
Layer_1
 62
1
100
AcDbLine
 10
183.547540
 20
78.124510
 30
0.0
 11
183.547540
 21
94.298080
 31
0.0
  0
LINE
  5
26a
100
AcDbEntity
  8
Layer_1
 62
1
100
AcDbLine
 10
183.547540
 20
100.303050
 30
0.0
 11
183.547540
 21
126.641220
 31
0.0
  0
LINE
  5
26b
100
AcDbEntity
  8
Layer_1
 62
1
100
AcDbLine
 10
183.547540
 20
132.646180
 30
0.0
 11
183.547540
 21
158.988250
 31
0.0
  0
LINE
  5
26c
100
AcDbEntity
  8
Layer_1
 62
1
100
AcDbLine
 10
183.547540
 20
164.993220
 30
0.0
 11
183.547540
 21
191.331390
 31
0.0
  0
LINE
  5
26d
100
AcDbEntity
  8
Layer_1
 62
1
100
AcDbLine
 10
183.547540
 20
197.336347
 30
0.0
 11
183.547540
 21
223.678424
 31
0.0
  0
LINE
  5
26e
100
AcDbEntity
  8
Layer_1
 62
1
100
AcDbLine
 10
183.547540
 20
229.683383
 30
0.0
 11
183.547540
 21
256.021560
 31
0.0
  0
LINE
  5
26f
100
AcDbEntity
  8
Layer_1
 62
1
100
AcDbLine
 10
185.797530
 20
262.026509
 30
0.0
 11
185.797530
 21
245.852954
 31
0.0
  0
LINE
  5
270
100
AcDbEntity
  8
Layer_1
 62
1
100
AcDbLine
 10
185.797530
 20
239.847984
 30
0.0
 11
185.797530
 21
213.509817
 31
0.0
  0
LINE
  5
271
100
AcDbEntity
  8
Layer_1
 62
1
100
AcDbLine
 10
185.797530
 20
207.504847
 30
0.0
 11
185.797530
 21
181.162780
 31
0.0
  0
LINE
  5
272
100
AcDbEntity
  8
Layer_1
 62
1
100
AcDbLine
 10
185.797530
 20
175.157820
 30
0.0
 11
185.797530
 21
148.819650
 31
0.0
  0
LINE
  5
273
100
AcDbEntity
  8
Layer_1
 62
1
100
AcDbLine
 10
185.797530
 20
142.814680
 30
0.0
 11
185.797530
 21
116.472610
 31
0.0
  0
LINE
  5
274
100
AcDbEntity
  8
Layer_1
 62
1
100
AcDbLine
 10
185.797530
 20
110.467640
 30
0.0
 11
185.797530
 21
84.129490
 31
0.0
  0
LINE
  5
275
100
AcDbEntity
  8
Layer_1
 62
1
100
AcDbLine
 10
188.047530
 20
78.124510
 30
0.0
 11
188.047530
 21
94.298080
 31
0.0
  0
LINE
  5
276
100
AcDbEntity
  8
Layer_1
 62
1
100
AcDbLine
 10
188.047530
 20
100.303050
 30
0.0
 11
188.047530
 21
126.641220
 31
0.0
  0
LINE
  5
277
100
AcDbEntity
  8
Layer_1
 62
1
100
AcDbLine
 10
188.047530
 20
132.646180
 30
0.0
 11
188.047530
 21
158.988250
 31
0.0
  0
LINE
  5
278
100
AcDbEntity
  8
Layer_1
 62
1
100
AcDbLine
 10
188.047530
 20
164.993220
 30
0.0
 11
188.047530
 21
191.331390
 31
0.0
  0
LINE
  5
279
100
AcDbEntity
  8
Layer_1
 62
1
100
AcDbLine
 10
188.047530
 20
197.336347
 30
0.0
 11
188.047530
 21
223.678424
 31
0.0
  0
LINE
  5
27a
100
AcDbEntity
  8
Layer_1
 62
1
100
AcDbLine
 10
188.047530
 20
229.683383
 30
0.0
 11
188.047530
 21
256.021560
 31
0.0
  0
LINE
  5
27b
100
AcDbEntity
  8
Layer_1
 62
1
100
AcDbLine
 10
190.297520
 20
262.026509
 30
0.0
 11
190.297520
 21
245.852954
 31
0.0
  0
LINE
  5
27c
100
AcDbEntity
  8
Layer_1
 62
1
100
AcDbLine
 10
190.297520
 20
239.847984
 30
0.0
 11
190.297520
 21
213.509817
 31
0.0
  0
LINE
  5
27d
100
AcDbEntity
  8
Layer_1
 62
1
100
AcDbLine
 10
190.297520
 20
207.504847
 30
0.0
 11
190.297520
 21
181.162780
 31
0.0
  0
LINE
  5
27e
100
AcDbEntity
  8
Layer_1
 62
1
100
AcDbLine
 10
190.297520
 20
175.157820
 30
0.0
 11
190.297520
 21
148.819650
 31
0.0
  0
LINE
  5
27f
100
AcDbEntity
  8
Layer_1
 62
1
100
AcDbLine
 10
190.297520
 20
142.814680
 30
0.0
 11
190.297520
 21
116.472610
 31
0.0
  0
LINE
  5
280
100
AcDbEntity
  8
Layer_1
 62
1
100
AcDbLine
 10
190.297520
 20
110.467640
 30
0.0
 11
190.297520
 21
84.129490
 31
0.0
  0
LINE
  5
281
100
AcDbEntity
  8
Layer_1
 62
1
100
AcDbLine
 10
192.547510
 20
78.124510
 30
0.0
 11
192.547510
 21
94.298080
 31
0.0
  0
LINE
  5
282
100
AcDbEntity
  8
Layer_1
 62
1
100
AcDbLine
 10
192.547510
 20
100.303050
 30
0.0
 11
192.547510
 21
126.641220
 31
0.0
  0
LINE
  5
283
100
AcDbEntity
  8
Layer_1
 62
1
100
AcDbLine
 10
192.547510
 20
132.646180
 30
0.0
 11
192.547510
 21
158.988250
 31
0.0
  0
LINE
  5
284
100
AcDbEntity
  8
Layer_1
 62
1
100
AcDbLine
 10
192.547510
 20
164.993220
 30
0.0
 11
192.547510
 21
191.331390
 31
0.0
  0
LINE
  5
285
100
AcDbEntity
  8
Layer_1
 62
1
100
AcDbLine
 10
192.547510
 20
197.336347
 30
0.0
 11
192.547510
 21
223.678424
 31
0.0
  0
LINE
  5
286
100
AcDbEntity
  8
Layer_1
 62
1
100
AcDbLine
 10
192.547510
 20
229.683383
 30
0.0
 11
192.547510
 21
256.021560
 31
0.0
  0
LINE
  5
287
100
AcDbEntity
  8
Layer_1
 62
1
100
AcDbLine
 10
194.797510
 20
262.026509
 30
0.0
 11
194.797510
 21
245.852954
 31
0.0
  0
LINE
  5
288
100
AcDbEntity
  8
Layer_1
 62
1
100
AcDbLine
 10
194.797510
 20
239.847984
 30
0.0
 11
194.797510
 21
213.509817
 31
0.0
  0
LINE
  5
289
100
AcDbEntity
  8
Layer_1
 62
1
100
AcDbLine
 10
194.797510
 20
207.504847
 30
0.0
 11
194.797510
 21
181.162780
 31
0.0
  0
LINE
  5
28a
100
AcDbEntity
  8
Layer_1
 62
1
100
AcDbLine
 10
194.797510
 20
175.157820
 30
0.0
 11
194.797510
 21
148.819650
 31
0.0
  0
LINE
  5
28b
100
AcDbEntity
  8
Layer_1
 62
1
100
AcDbLine
 10
194.797510
 20
142.814680
 30
0.0
 11
194.797510
 21
116.472610
 31
0.0
  0
LINE
  5
28c
100
AcDbEntity
  8
Layer_1
 62
1
100
AcDbLine
 10
194.797510
 20
110.467640
 30
0.0
 11
194.797510
 21
84.129490
 31
0.0
  0
LINE
  5
28d
100
AcDbEntity
  8
Layer_1
 62
1
100
AcDbLine
 10
197.047490
 20
78.124510
 30
0.0
 11
197.047490
 21
94.298080
 31
0.0
  0
LINE
  5
28e
100
AcDbEntity
  8
Layer_1
 62
1
100
AcDbLine
 10
197.047490
 20
100.303050
 30
0.0
 11
197.047490
 21
126.641220
 31
0.0
  0
LINE
  5
28f
100
AcDbEntity
  8
Layer_1
 62
1
100
AcDbLine
 10
197.047490
 20
132.646180
 30
0.0
 11
197.047490
 21
158.988250
 31
0.0
  0
LINE
  5
290
100
AcDbEntity
  8
Layer_1
 62
1
100
AcDbLine
 10
197.047490
 20
164.993220
 30
0.0
 11
197.047490
 21
191.331390
 31
0.0
  0
LINE
  5
291
100
AcDbEntity
  8
Layer_1
 62
1
100
AcDbLine
 10
197.047490
 20
197.336347
 30
0.0
 11
197.047490
 21
223.678424
 31
0.0
  0
LINE
  5
292
100
AcDbEntity
  8
Layer_1
 62
1
100
AcDbLine
 10
197.047490
 20
229.683383
 30
0.0
 11
197.047490
 21
256.021560
 31
0.0
  0
LINE
  5
293
100
AcDbEntity
  8
Layer_1
 62
1
100
AcDbLine
 10
199.297480
 20
262.026509
 30
0.0
 11
199.297480
 21
245.852954
 31
0.0
  0
LINE
  5
294
100
AcDbEntity
  8
Layer_1
 62
1
100
AcDbLine
 10
199.297480
 20
239.847984
 30
0.0
 11
199.297480
 21
213.509817
 31
0.0
  0
LINE
  5
295
100
AcDbEntity
  8
Layer_1
 62
1
100
AcDbLine
 10
199.297480
 20
207.504847
 30
0.0
 11
199.297480
 21
181.162780
 31
0.0
  0
LINE
  5
296
100
AcDbEntity
  8
Layer_1
 62
1
100
AcDbLine
 10
199.297480
 20
175.157820
 30
0.0
 11
199.297480
 21
148.819650
 31
0.0
  0
LINE
  5
297
100
AcDbEntity
  8
Layer_1
 62
1
100
AcDbLine
 10
199.297480
 20
142.814680
 30
0.0
 11
199.297480
 21
116.472610
 31
0.0
  0
LINE
  5
298
100
AcDbEntity
  8
Layer_1
 62
1
100
AcDbLine
 10
199.297480
 20
110.467640
 30
0.0
 11
199.297480
 21
84.129490
 31
0.0
  0
LINE
  5
299
100
AcDbEntity
  8
Layer_1
 62
1
100
AcDbLine
 10
201.547480
 20
78.124510
 30
0.0
 11
201.547480
 21
94.298080
 31
0.0
  0
LINE
  5
29a
100
AcDbEntity
  8
Layer_1
 62
1
100
AcDbLine
 10
201.547480
 20
100.303050
 30
0.0
 11
201.547480
 21
126.641220
 31
0.0
  0
LINE
  5
29b
100
AcDbEntity
  8
Layer_1
 62
1
100
AcDbLine
 10
201.547480
 20
132.646180
 30
0.0
 11
201.547480
 21
158.988250
 31
0.0
  0
LINE
  5
29c
100
AcDbEntity
  8
Layer_1
 62
1
100
AcDbLine
 10
201.547480
 20
164.993220
 30
0.0
 11
201.547480
 21
191.331390
 31
0.0
  0
LINE
  5
29d
100
AcDbEntity
  8
Layer_1
 62
1
100
AcDbLine
 10
201.547480
 20
197.336347
 30
0.0
 11
201.547480
 21
223.678424
 31
0.0
  0
LINE
  5
29e
100
AcDbEntity
  8
Layer_1
 62
1
100
AcDbLine
 10
201.547480
 20
229.683383
 30
0.0
 11
201.547480
 21
256.021560
 31
0.0
  0
LINE
  5
29f
100
AcDbEntity
  8
Layer_1
 62
1
100
AcDbLine
 10
203.797470
 20
262.026509
 30
0.0
 11
203.797470
 21
245.852954
 31
0.0
  0
LINE
  5
2a0
100
AcDbEntity
  8
Layer_1
 62
1
100
AcDbLine
 10
203.797470
 20
239.847984
 30
0.0
 11
203.797470
 21
213.509817
 31
0.0
  0
LINE
  5
2a1
100
AcDbEntity
  8
Layer_1
 62
1
100
AcDbLine
 10
203.797470
 20
207.504847
 30
0.0
 11
203.797470
 21
181.162780
 31
0.0
  0
LINE
  5
2a2
100
AcDbEntity
  8
Layer_1
 62
1
100
AcDbLine
 10
203.797470
 20
175.157820
 30
0.0
 11
203.797470
 21
148.819650
 31
0.0
  0
LINE
  5
2a3
100
AcDbEntity
  8
Layer_1
 62
1
100
AcDbLine
 10
203.797470
 20
142.814680
 30
0.0
 11
203.797470
 21
116.472610
 31
0.0
  0
LINE
  5
2a4
100
AcDbEntity
  8
Layer_1
 62
1
100
AcDbLine
 10
203.797470
 20
110.467640
 30
0.0
 11
203.797470
 21
84.129490
 31
0.0
  0
LINE
  5
2a5
100
AcDbEntity
  8
Layer_1
 62
1
100
AcDbLine
 10
206.047470
 20
78.124510
 30
0.0
 11
206.047470
 21
94.298080
 31
0.0
  0
LINE
  5
2a6
100
AcDbEntity
  8
Layer_1
 62
1
100
AcDbLine
 10
206.047470
 20
100.303050
 30
0.0
 11
206.047470
 21
126.641220
 31
0.0
  0
LINE
  5
2a7
100
AcDbEntity
  8
Layer_1
 62
1
100
AcDbLine
 10
206.047470
 20
132.646180
 30
0.0
 11
206.047470
 21
158.988250
 31
0.0
  0
LINE
  5
2a8
100
AcDbEntity
  8
Layer_1
 62
1
100
AcDbLine
 10
206.047470
 20
164.993220
 30
0.0
 11
206.047470
 21
191.331390
 31
0.0
  0
LINE
  5
2a9
100
AcDbEntity
  8
Layer_1
 62
1
100
AcDbLine
 10
206.047470
 20
197.336347
 30
0.0
 11
206.047470
 21
223.678424
 31
0.0
  0
LINE
  5
2aa
100
AcDbEntity
  8
Layer_1
 62
1
100
AcDbLine
 10
206.047470
 20
229.683383
 30
0.0
 11
206.047470
 21
256.021560
 31
0.0
  0
LINE
  5
2ab
100
AcDbEntity
  8
Layer_1
 62
1
100
AcDbLine
 10
208.297460
 20
262.026509
 30
0.0
 11
208.297460
 21
245.852954
 31
0.0
  0
LINE
  5
2ac
100
AcDbEntity
  8
Layer_1
 62
1
100
AcDbLine
 10
208.297460
 20
239.847984
 30
0.0
 11
208.297460
 21
213.509817
 31
0.0
  0
LINE
  5
2ad
100
AcDbEntity
  8
Layer_1
 62
1
100
AcDbLine
 10
208.297460
 20
207.504847
 30
0.0
 11
208.297460
 21
181.162780
 31
0.0
  0
LINE
  5
2ae
100
AcDbEntity
  8
Layer_1
 62
1
100
AcDbLine
 10
208.297460
 20
175.157820
 30
0.0
 11
208.297460
 21
148.819650
 31
0.0
  0
LINE
  5
2af
100
AcDbEntity
  8
Layer_1
 62
1
100
AcDbLine
 10
208.297460
 20
142.814680
 30
0.0
 11
208.297460
 21
116.472610
 31
0.0
  0
LINE
  5
2b0
100
AcDbEntity
  8
Layer_1
 62
1
100
AcDbLine
 10
208.297460
 20
110.467640
 30
0.0
 11
208.297460
 21
84.129490
 31
0.0
  0
LINE
  5
2b1
100
AcDbEntity
  8
Layer_1
 62
1
100
AcDbLine
 10
210.547450
 20
78.124510
 30
0.0
 11
210.547450
 21
94.298080
 31
0.0
  0
LINE
  5
2b2
100
AcDbEntity
  8
Layer_1
 62
1
100
AcDbLine
 10
210.547450
 20
100.303050
 30
0.0
 11
210.547450
 21
126.641220
 31
0.0
  0
LINE
  5
2b3
100
AcDbEntity
  8
Layer_1
 62
1
100
AcDbLine
 10
210.547450
 20
132.646180
 30
0.0
 11
210.547450
 21
158.988250
 31
0.0
  0
LINE
  5
2b4
100
AcDbEntity
  8
Layer_1
 62
1
100
AcDbLine
 10
210.547450
 20
164.993220
 30
0.0
 11
210.547450
 21
191.331390
 31
0.0
  0
LINE
  5
2b5
100
AcDbEntity
  8
Layer_1
 62
1
100
AcDbLine
 10
210.547450
 20
197.336347
 30
0.0
 11
210.547450
 21
223.678424
 31
0.0
  0
LINE
  5
2b6
100
AcDbEntity
  8
Layer_1
 62
1
100
AcDbLine
 10
210.547450
 20
229.683383
 30
0.0
 11
210.547450
 21
256.021560
 31
0.0
  0
LINE
  5
2b7
100
AcDbEntity
  8
Layer_1
 62
1
100
AcDbLine
 10
212.797440
 20
262.026509
 30
0.0
 11
212.797440
 21
245.852954
 31
0.0
  0
LINE
  5
2b8
100
AcDbEntity
  8
Layer_1
 62
1
100
AcDbLine
 10
212.797440
 20
239.847984
 30
0.0
 11
212.797440
 21
213.509817
 31
0.0
  0
LINE
  5
2b9
100
AcDbEntity
  8
Layer_1
 62
1
100
AcDbLine
 10
212.797440
 20
207.504847
 30
0.0
 11
212.797440
 21
181.162780
 31
0.0
  0
LINE
  5
2ba
100
AcDbEntity
  8
Layer_1
 62
1
100
AcDbLine
 10
212.797440
 20
175.157820
 30
0.0
 11
212.797440
 21
148.819650
 31
0.0
  0
LINE
  5
2bb
100
AcDbEntity
  8
Layer_1
 62
1
100
AcDbLine
 10
212.797440
 20
142.814680
 30
0.0
 11
212.797440
 21
116.472610
 31
0.0
  0
LINE
  5
2bc
100
AcDbEntity
  8
Layer_1
 62
1
100
AcDbLine
 10
212.797440
 20
110.467640
 30
0.0
 11
212.797440
 21
84.129490
 31
0.0
  0
LINE
  5
2bd
100
AcDbEntity
  8
Layer_1
 62
1
100
AcDbLine
 10
215.047430
 20
78.124510
 30
0.0
 11
215.047430
 21
94.298080
 31
0.0
  0
LINE
  5
2be
100
AcDbEntity
  8
Layer_1
 62
1
100
AcDbLine
 10
215.047430
 20
100.303050
 30
0.0
 11
215.047430
 21
126.641220
 31
0.0
  0
LINE
  5
2bf
100
AcDbEntity
  8
Layer_1
 62
1
100
AcDbLine
 10
215.047430
 20
132.646180
 30
0.0
 11
215.047430
 21
158.988250
 31
0.0
  0
LINE
  5
2c0
100
AcDbEntity
  8
Layer_1
 62
1
100
AcDbLine
 10
215.047430
 20
164.993220
 30
0.0
 11
215.047430
 21
191.331390
 31
0.0
  0
LINE
  5
2c1
100
AcDbEntity
  8
Layer_1
 62
1
100
AcDbLine
 10
215.047430
 20
197.336347
 30
0.0
 11
215.047430
 21
223.678424
 31
0.0
  0
LINE
  5
2c2
100
AcDbEntity
  8
Layer_1
 62
1
100
AcDbLine
 10
215.047430
 20
229.683383
 30
0.0
 11
215.047430
 21
256.021560
 31
0.0
  0
LINE
  5
2c3
100
AcDbEntity
  8
Layer_1
 62
1
100
AcDbLine
 10
217.297430
 20
262.026509
 30
0.0
 11
217.297430
 21
245.852954
 31
0.0
  0
LINE
  5
2c4
100
AcDbEntity
  8
Layer_1
 62
1
100
AcDbLine
 10
217.297430
 20
239.847984
 30
0.0
 11
217.297430
 21
213.509817
 31
0.0
  0
LINE
  5
2c5
100
AcDbEntity
  8
Layer_1
 62
1
100
AcDbLine
 10
217.297430
 20
207.504847
 30
0.0
 11
217.297430
 21
181.162780
 31
0.0
  0
LINE
  5
2c6
100
AcDbEntity
  8
Layer_1
 62
1
100
AcDbLine
 10
217.297430
 20
175.157820
 30
0.0
 11
217.297430
 21
148.819650
 31
0.0
  0
LINE
  5
2c7
100
AcDbEntity
  8
Layer_1
 62
1
100
AcDbLine
 10
217.297430
 20
142.814680
 30
0.0
 11
217.297430
 21
116.472610
 31
0.0
  0
LINE
  5
2c8
100
AcDbEntity
  8
Layer_1
 62
1
100
AcDbLine
 10
217.297430
 20
110.467640
 30
0.0
 11
217.297430
 21
84.129490
 31
0.0
  0
LINE
  5
2c9
100
AcDbEntity
  8
Layer_1
 62
1
100
AcDbLine
 10
219.547420
 20
78.124510
 30
0.0
 11
219.547420
 21
94.298080
 31
0.0
  0
LINE
  5
2ca
100
AcDbEntity
  8
Layer_1
 62
1
100
AcDbLine
 10
219.547420
 20
100.303050
 30
0.0
 11
219.547420
 21
126.641220
 31
0.0
  0
LINE
  5
2cb
100
AcDbEntity
  8
Layer_1
 62
1
100
AcDbLine
 10
219.547420
 20
132.646180
 30
0.0
 11
219.547420
 21
158.988250
 31
0.0
  0
LINE
  5
2cc
100
AcDbEntity
  8
Layer_1
 62
1
100
AcDbLine
 10
219.547420
 20
164.993220
 30
0.0
 11
219.547420
 21
191.331390
 31
0.0
  0
LINE
  5
2cd
100
AcDbEntity
  8
Layer_1
 62
1
100
AcDbLine
 10
219.547420
 20
197.336347
 30
0.0
 11
219.547420
 21
223.678424
 31
0.0
  0
LINE
  5
2ce
100
AcDbEntity
  8
Layer_1
 62
1
100
AcDbLine
 10
219.547420
 20
229.683383
 30
0.0
 11
219.547420
 21
256.021560
 31
0.0
  0
LINE
  5
2cf
100
AcDbEntity
  8
Layer_1
 62
1
100
AcDbLine
 10
221.797410
 20
262.026509
 30
0.0
 11
221.797410
 21
245.852954
 31
0.0
  0
LINE
  5
2d0
100
AcDbEntity
  8
Layer_1
 62
1
100
AcDbLine
 10
221.797410
 20
239.847984
 30
0.0
 11
221.797410
 21
213.509817
 31
0.0
  0
LINE
  5
2d1
100
AcDbEntity
  8
Layer_1
 62
1
100
AcDbLine
 10
221.797410
 20
207.504847
 30
0.0
 11
221.797410
 21
181.162780
 31
0.0
  0
LINE
  5
2d2
100
AcDbEntity
  8
Layer_1
 62
1
100
AcDbLine
 10
221.797410
 20
175.157820
 30
0.0
 11
221.797410
 21
148.819650
 31
0.0
  0
LINE
  5
2d3
100
AcDbEntity
  8
Layer_1
 62
1
100
AcDbLine
 10
221.797410
 20
142.814680
 30
0.0
 11
221.797410
 21
116.472610
 31
0.0
  0
LINE
  5
2d4
100
AcDbEntity
  8
Layer_1
 62
1
100
AcDbLine
 10
221.797410
 20
110.467640
 30
0.0
 11
221.797410
 21
84.129490
 31
0.0
  0
LINE
  5
2d5
100
AcDbEntity
  8
Layer_1
 62
1
100
AcDbLine
 10
224.047410
 20
78.124510
 30
0.0
 11
224.047410
 21
94.298080
 31
0.0
  0
LINE
  5
2d6
100
AcDbEntity
  8
Layer_1
 62
1
100
AcDbLine
 10
224.047410
 20
100.303050
 30
0.0
 11
224.047410
 21
126.641220
 31
0.0
  0
LINE
  5
2d7
100
AcDbEntity
  8
Layer_1
 62
1
100
AcDbLine
 10
224.047410
 20
132.646180
 30
0.0
 11
224.047410
 21
158.988250
 31
0.0
  0
LINE
  5
2d8
100
AcDbEntity
  8
Layer_1
 62
1
100
AcDbLine
 10
224.047410
 20
164.993220
 30
0.0
 11
224.047410
 21
191.331390
 31
0.0
  0
LINE
  5
2d9
100
AcDbEntity
  8
Layer_1
 62
1
100
AcDbLine
 10
224.047410
 20
197.336347
 30
0.0
 11
224.047410
 21
223.678424
 31
0.0
  0
LINE
  5
2da
100
AcDbEntity
  8
Layer_1
 62
1
100
AcDbLine
 10
224.047410
 20
229.683383
 30
0.0
 11
224.047410
 21
256.021560
 31
0.0
  0
LINE
  5
2db
100
AcDbEntity
  8
Layer_1
 62
1
100
AcDbLine
 10
226.297400
 20
262.026509
 30
0.0
 11
226.297400
 21
245.852954
 31
0.0
  0
LINE
  5
2dc
100
AcDbEntity
  8
Layer_1
 62
1
100
AcDbLine
 10
226.297400
 20
239.847984
 30
0.0
 11
226.297400
 21
213.509817
 31
0.0
  0
LINE
  5
2dd
100
AcDbEntity
  8
Layer_1
 62
1
100
AcDbLine
 10
226.297400
 20
207.504847
 30
0.0
 11
226.297400
 21
181.162780
 31
0.0
  0
LINE
  5
2de
100
AcDbEntity
  8
Layer_1
 62
1
100
AcDbLine
 10
226.297400
 20
175.157820
 30
0.0
 11
226.297400
 21
148.819650
 31
0.0
  0
LINE
  5
2df
100
AcDbEntity
  8
Layer_1
 62
1
100
AcDbLine
 10
226.297400
 20
142.814680
 30
0.0
 11
226.297400
 21
116.472610
 31
0.0
  0
LINE
  5
2e0
100
AcDbEntity
  8
Layer_1
 62
1
100
AcDbLine
 10
226.297400
 20
110.467640
 30
0.0
 11
226.297400
 21
84.129490
 31
0.0
  0
LINE
  5
2e1
100
AcDbEntity
  8
Layer_1
 62
1
100
AcDbLine
 10
228.547390
 20
78.124510
 30
0.0
 11
228.547390
 21
94.298080
 31
0.0
  0
LINE
  5
2e2
100
AcDbEntity
  8
Layer_1
 62
1
100
AcDbLine
 10
228.547390
 20
100.303050
 30
0.0
 11
228.547390
 21
126.641220
 31
0.0
  0
LINE
  5
2e3
100
AcDbEntity
  8
Layer_1
 62
1
100
AcDbLine
 10
228.547390
 20
132.646180
 30
0.0
 11
228.547390
 21
158.988250
 31
0.0
  0
LINE
  5
2e4
100
AcDbEntity
  8
Layer_1
 62
1
100
AcDbLine
 10
228.547390
 20
164.993220
 30
0.0
 11
228.547390
 21
191.331390
 31
0.0
  0
LINE
  5
2e5
100
AcDbEntity
  8
Layer_1
 62
1
100
AcDbLine
 10
228.547390
 20
197.336347
 30
0.0
 11
228.547390
 21
223.678424
 31
0.0
  0
LINE
  5
2e6
100
AcDbEntity
  8
Layer_1
 62
1
100
AcDbLine
 10
228.547390
 20
229.683383
 30
0.0
 11
228.547390
 21
256.021560
 31
0.0
  0
LINE
  5
2e7
100
AcDbEntity
  8
Layer_1
 62
1
100
AcDbLine
 10
230.797380
 20
262.026509
 30
0.0
 11
230.797380
 21
245.852954
 31
0.0
  0
LINE
  5
2e8
100
AcDbEntity
  8
Layer_1
 62
1
100
AcDbLine
 10
230.797380
 20
239.847984
 30
0.0
 11
230.797380
 21
213.509817
 31
0.0
  0
LINE
  5
2e9
100
AcDbEntity
  8
Layer_1
 62
1
100
AcDbLine
 10
230.797380
 20
207.504847
 30
0.0
 11
230.797380
 21
181.162780
 31
0.0
  0
LINE
  5
2ea
100
AcDbEntity
  8
Layer_1
 62
1
100
AcDbLine
 10
230.797380
 20
175.157820
 30
0.0
 11
230.797380
 21
148.819650
 31
0.0
  0
LINE
  5
2eb
100
AcDbEntity
  8
Layer_1
 62
1
100
AcDbLine
 10
230.797380
 20
142.814680
 30
0.0
 11
230.797380
 21
116.472610
 31
0.0
  0
LINE
  5
2ec
100
AcDbEntity
  8
Layer_1
 62
1
100
AcDbLine
 10
230.797380
 20
110.467640
 30
0.0
 11
230.797380
 21
84.129490
 31
0.0
  0
LINE
  5
2ed
100
AcDbEntity
  8
Layer_1
 62
1
100
AcDbLine
 10
233.047370
 20
78.124510
 30
0.0
 11
233.047370
 21
94.298080
 31
0.0
  0
LINE
  5
2ee
100
AcDbEntity
  8
Layer_1
 62
1
100
AcDbLine
 10
233.047370
 20
100.303050
 30
0.0
 11
233.047370
 21
126.641220
 31
0.0
  0
LINE
  5
2ef
100
AcDbEntity
  8
Layer_1
 62
1
100
AcDbLine
 10
233.047370
 20
132.646180
 30
0.0
 11
233.047370
 21
158.988250
 31
0.0
  0
LINE
  5
2f0
100
AcDbEntity
  8
Layer_1
 62
1
100
AcDbLine
 10
233.047370
 20
164.993220
 30
0.0
 11
233.047370
 21
191.331390
 31
0.0
  0
LINE
  5
2f1
100
AcDbEntity
  8
Layer_1
 62
1
100
AcDbLine
 10
233.047370
 20
197.336347
 30
0.0
 11
233.047370
 21
223.678424
 31
0.0
  0
LINE
  5
2f2
100
AcDbEntity
  8
Layer_1
 62
1
100
AcDbLine
 10
233.047370
 20
229.683383
 30
0.0
 11
233.047370
 21
256.021560
 31
0.0
  0
LINE
  5
2f3
100
AcDbEntity
  8
Layer_1
 62
1
100
AcDbLine
 10
235.297370
 20
262.026509
 30
0.0
 11
235.297370
 21
245.852954
 31
0.0
  0
LINE
  5
2f4
100
AcDbEntity
  8
Layer_1
 62
1
100
AcDbLine
 10
235.297370
 20
239.847984
 30
0.0
 11
235.297370
 21
213.509817
 31
0.0
  0
LINE
  5
2f5
100
AcDbEntity
  8
Layer_1
 62
1
100
AcDbLine
 10
235.297370
 20
207.504847
 30
0.0
 11
235.297370
 21
181.162780
 31
0.0
  0
LINE
  5
2f6
100
AcDbEntity
  8
Layer_1
 62
1
100
AcDbLine
 10
235.297370
 20
175.157820
 30
0.0
 11
235.297370
 21
148.819650
 31
0.0
  0
LINE
  5
2f7
100
AcDbEntity
  8
Layer_1
 62
1
100
AcDbLine
 10
235.297370
 20
142.814680
 30
0.0
 11
235.297370
 21
116.472610
 31
0.0
  0
LINE
  5
2f8
100
AcDbEntity
  8
Layer_1
 62
1
100
AcDbLine
 10
235.297370
 20
110.467640
 30
0.0
 11
235.297370
 21
84.129490
 31
0.0
  0
LINE
  5
2f9
100
AcDbEntity
  8
Layer_1
 62
1
100
AcDbLine
 10
237.547360
 20
78.124510
 30
0.0
 11
237.547360
 21
94.298080
 31
0.0
  0
LINE
  5
2fa
100
AcDbEntity
  8
Layer_1
 62
1
100
AcDbLine
 10
237.547360
 20
100.303050
 30
0.0
 11
237.547360
 21
126.641220
 31
0.0
  0
LINE
  5
2fb
100
AcDbEntity
  8
Layer_1
 62
1
100
AcDbLine
 10
237.547360
 20
132.646180
 30
0.0
 11
237.547360
 21
158.988250
 31
0.0
  0
LINE
  5
2fc
100
AcDbEntity
  8
Layer_1
 62
1
100
AcDbLine
 10
237.547360
 20
164.993220
 30
0.0
 11
237.547360
 21
191.331390
 31
0.0
  0
LINE
  5
2fd
100
AcDbEntity
  8
Layer_1
 62
1
100
AcDbLine
 10
237.547360
 20
197.336347
 30
0.0
 11
237.547360
 21
223.678424
 31
0.0
  0
LINE
  5
2fe
100
AcDbEntity
  8
Layer_1
 62
1
100
AcDbLine
 10
237.547360
 20
229.683383
 30
0.0
 11
237.547360
 21
256.021560
 31
0.0
  0
LINE
  5
2ff
100
AcDbEntity
  8
Layer_1
 62
1
100
AcDbLine
 10
239.797350
 20
262.026509
 30
0.0
 11
239.797350
 21
245.852954
 31
0.0
  0
LINE
  5
300
100
AcDbEntity
  8
Layer_1
 62
1
100
AcDbLine
 10
239.797350
 20
239.847984
 30
0.0
 11
239.797350
 21
213.509817
 31
0.0
  0
LINE
  5
301
100
AcDbEntity
  8
Layer_1
 62
1
100
AcDbLine
 10
239.797350
 20
207.504847
 30
0.0
 11
239.797350
 21
181.162780
 31
0.0
  0
LINE
  5
302
100
AcDbEntity
  8
Layer_1
 62
1
100
AcDbLine
 10
239.797350
 20
175.157820
 30
0.0
 11
239.797350
 21
148.819650
 31
0.0
  0
LINE
  5
303
100
AcDbEntity
  8
Layer_1
 62
1
100
AcDbLine
 10
239.797350
 20
142.814680
 30
0.0
 11
239.797350
 21
116.472610
 31
0.0
  0
LINE
  5
304
100
AcDbEntity
  8
Layer_1
 62
1
100
AcDbLine
 10
239.797350
 20
110.467640
 30
0.0
 11
239.797350
 21
84.129490
 31
0.0
  0
LINE
  5
305
100
AcDbEntity
  8
Layer_1
 62
1
100
AcDbLine
 10
242.047350
 20
78.124510
 30
0.0
 11
242.047350
 21
94.298080
 31
0.0
  0
LINE
  5
306
100
AcDbEntity
  8
Layer_1
 62
1
100
AcDbLine
 10
242.047350
 20
100.303050
 30
0.0
 11
242.047350
 21
126.641220
 31
0.0
  0
LINE
  5
307
100
AcDbEntity
  8
Layer_1
 62
1
100
AcDbLine
 10
242.047350
 20
132.646180
 30
0.0
 11
242.047350
 21
158.988250
 31
0.0
  0
LINE
  5
308
100
AcDbEntity
  8
Layer_1
 62
1
100
AcDbLine
 10
242.047350
 20
164.993220
 30
0.0
 11
242.047350
 21
191.331390
 31
0.0
  0
LINE
  5
309
100
AcDbEntity
  8
Layer_1
 62
1
100
AcDbLine
 10
242.047350
 20
197.336347
 30
0.0
 11
242.047350
 21
223.678424
 31
0.0
  0
LINE
  5
30a
100
AcDbEntity
  8
Layer_1
 62
1
100
AcDbLine
 10
242.047350
 20
229.683383
 30
0.0
 11
242.047350
 21
256.021560
 31
0.0
  0
LINE
  5
30b
100
AcDbEntity
  8
Layer_1
 62
1
100
AcDbLine
 10
244.297340
 20
262.026509
 30
0.0
 11
244.297340
 21
245.852954
 31
0.0
  0
LINE
  5
30c
100
AcDbEntity
  8
Layer_1
 62
1
100
AcDbLine
 10
244.297340
 20
239.847984
 30
0.0
 11
244.297340
 21
213.509817
 31
0.0
  0
LINE
  5
30d
100
AcDbEntity
  8
Layer_1
 62
1
100
AcDbLine
 10
244.297340
 20
207.504847
 30
0.0
 11
244.297340
 21
181.162780
 31
0.0
  0
LINE
  5
30e
100
AcDbEntity
  8
Layer_1
 62
1
100
AcDbLine
 10
244.297340
 20
175.157820
 30
0.0
 11
244.297340
 21
148.819650
 31
0.0
  0
LINE
  5
30f
100
AcDbEntity
  8
Layer_1
 62
1
100
AcDbLine
 10
244.297340
 20
142.814680
 30
0.0
 11
244.297340
 21
116.472610
 31
0.0
  0
LINE
  5
310
100
AcDbEntity
  8
Layer_1
 62
1
100
AcDbLine
 10
244.297340
 20
110.467640
 30
0.0
 11
244.297340
 21
84.129490
 31
0.0
  0
LINE
  5
311
100
AcDbEntity
  8
Layer_1
 62
1
100
AcDbLine
 10
246.547320
 20
78.124510
 30
0.0
 11
246.547320
 21
94.298080
 31
0.0
  0
LINE
  5
312
100
AcDbEntity
  8
Layer_1
 62
1
100
AcDbLine
 10
246.547320
 20
100.303050
 30
0.0
 11
246.547320
 21
126.641220
 31
0.0
  0
LINE
  5
313
100
AcDbEntity
  8
Layer_1
 62
1
100
AcDbLine
 10
246.547320
 20
132.646180
 30
0.0
 11
246.547320
 21
158.988250
 31
0.0
  0
LINE
  5
314
100
AcDbEntity
  8
Layer_1
 62
1
100
AcDbLine
 10
246.547320
 20
164.993220
 30
0.0
 11
246.547320
 21
191.331390
 31
0.0
  0
LINE
  5
315
100
AcDbEntity
  8
Layer_1
 62
1
100
AcDbLine
 10
246.547320
 20
197.336347
 30
0.0
 11
246.547320
 21
223.678424
 31
0.0
  0
LINE
  5
316
100
AcDbEntity
  8
Layer_1
 62
1
100
AcDbLine
 10
246.547320
 20
229.683383
 30
0.0
 11
246.547320
 21
256.021560
 31
0.0
  0
LINE
  5
317
100
AcDbEntity
  8
Layer_1
 62
1
100
AcDbLine
 10
248.797320
 20
262.026509
 30
0.0
 11
248.797320
 21
245.852954
 31
0.0
  0
LINE
  5
318
100
AcDbEntity
  8
Layer_1
 62
1
100
AcDbLine
 10
248.797320
 20
239.847984
 30
0.0
 11
248.797320
 21
213.509817
 31
0.0
  0
LINE
  5
319
100
AcDbEntity
  8
Layer_1
 62
1
100
AcDbLine
 10
248.797320
 20
207.504847
 30
0.0
 11
248.797320
 21
181.162780
 31
0.0
  0
LINE
  5
31a
100
AcDbEntity
  8
Layer_1
 62
1
100
AcDbLine
 10
248.797320
 20
175.157820
 30
0.0
 11
248.797320
 21
148.819650
 31
0.0
  0
LINE
  5
31b
100
AcDbEntity
  8
Layer_1
 62
1
100
AcDbLine
 10
248.797320
 20
142.814680
 30
0.0
 11
248.797320
 21
116.472610
 31
0.0
  0
LINE
  5
31c
100
AcDbEntity
  8
Layer_1
 62
1
100
AcDbLine
 10
248.797320
 20
110.467640
 30
0.0
 11
248.797320
 21
84.129490
 31
0.0
  0
LINE
  5
31d
100
AcDbEntity
  8
Layer_1
 62
1
100
AcDbLine
 10
251.047310
 20
78.124510
 30
0.0
 11
251.047310
 21
94.298080
 31
0.0
  0
LINE
  5
31e
100
AcDbEntity
  8
Layer_1
 62
1
100
AcDbLine
 10
251.047310
 20
100.303050
 30
0.0
 11
251.047310
 21
126.641220
 31
0.0
  0
LINE
  5
31f
100
AcDbEntity
  8
Layer_1
 62
1
100
AcDbLine
 10
251.047310
 20
132.646180
 30
0.0
 11
251.047310
 21
158.988250
 31
0.0
  0
LINE
  5
320
100
AcDbEntity
  8
Layer_1
 62
1
100
AcDbLine
 10
251.047310
 20
164.993220
 30
0.0
 11
251.047310
 21
191.331390
 31
0.0
  0
LINE
  5
321
100
AcDbEntity
  8
Layer_1
 62
1
100
AcDbLine
 10
251.047310
 20
197.336347
 30
0.0
 11
251.047310
 21
223.678424
 31
0.0
  0
LINE
  5
322
100
AcDbEntity
  8
Layer_1
 62
1
100
AcDbLine
 10
251.047310
 20
229.683383
 30
0.0
 11
251.047310
 21
256.021560
 31
0.0
  0
LINE
  5
323
100
AcDbEntity
  8
Layer_1
 62
1
100
AcDbLine
 10
253.297310
 20
262.026509
 30
0.0
 11
253.297310
 21
245.852954
 31
0.0
  0
LINE
  5
324
100
AcDbEntity
  8
Layer_1
 62
1
100
AcDbLine
 10
253.297310
 20
239.847984
 30
0.0
 11
253.297310
 21
213.509817
 31
0.0
  0
LINE
  5
325
100
AcDbEntity
  8
Layer_1
 62
1
100
AcDbLine
 10
253.297310
 20
207.504847
 30
0.0
 11
253.297310
 21
181.162780
 31
0.0
  0
LINE
  5
326
100
AcDbEntity
  8
Layer_1
 62
1
100
AcDbLine
 10
253.297310
 20
175.157820
 30
0.0
 11
253.297310
 21
148.819650
 31
0.0
  0
LINE
  5
327
100
AcDbEntity
  8
Layer_1
 62
1
100
AcDbLine
 10
253.297310
 20
142.814680
 30
0.0
 11
253.297310
 21
116.472610
 31
0.0
  0
LINE
  5
328
100
AcDbEntity
  8
Layer_1
 62
1
100
AcDbLine
 10
253.297310
 20
110.467640
 30
0.0
 11
253.297310
 21
84.129490
 31
0.0
  0
LINE
  5
329
100
AcDbEntity
  8
Layer_1
 62
1
100
AcDbLine
 10
255.547300
 20
78.124510
 30
0.0
 11
255.547300
 21
94.298080
 31
0.0
  0
LINE
  5
32a
100
AcDbEntity
  8
Layer_1
 62
1
100
AcDbLine
 10
255.547300
 20
100.303050
 30
0.0
 11
255.547300
 21
126.641220
 31
0.0
  0
LINE
  5
32b
100
AcDbEntity
  8
Layer_1
 62
1
100
AcDbLine
 10
255.547300
 20
132.646180
 30
0.0
 11
255.547300
 21
158.988250
 31
0.0
  0
LINE
  5
32c
100
AcDbEntity
  8
Layer_1
 62
1
100
AcDbLine
 10
255.547300
 20
164.993220
 30
0.0
 11
255.547300
 21
191.331390
 31
0.0
  0
LINE
  5
32d
100
AcDbEntity
  8
Layer_1
 62
1
100
AcDbLine
 10
255.547300
 20
197.336347
 30
0.0
 11
255.547300
 21
223.678424
 31
0.0
  0
LINE
  5
32e
100
AcDbEntity
  8
Layer_1
 62
1
100
AcDbLine
 10
255.547300
 20
229.683383
 30
0.0
 11
255.547300
 21
256.021560
 31
0.0
  0
LINE
  5
32f
100
AcDbEntity
  8
Layer_1
 62
1
100
AcDbLine
 10
257.797290
 20
262.026509
 30
0.0
 11
257.797290
 21
245.852954
 31
0.0
  0
LINE
  5
330
100
AcDbEntity
  8
Layer_1
 62
1
100
AcDbLine
 10
257.797290
 20
239.847984
 30
0.0
 11
257.797290
 21
213.509817
 31
0.0
  0
LINE
  5
331
100
AcDbEntity
  8
Layer_1
 62
1
100
AcDbLine
 10
257.797290
 20
207.504847
 30
0.0
 11
257.797290
 21
181.162780
 31
0.0
  0
LINE
  5
332
100
AcDbEntity
  8
Layer_1
 62
1
100
AcDbLine
 10
257.797290
 20
175.157820
 30
0.0
 11
257.797290
 21
148.819650
 31
0.0
  0
LINE
  5
333
100
AcDbEntity
  8
Layer_1
 62
1
100
AcDbLine
 10
257.797290
 20
142.814680
 30
0.0
 11
257.797290
 21
116.472610
 31
0.0
  0
LINE
  5
334
100
AcDbEntity
  8
Layer_1
 62
1
100
AcDbLine
 10
257.797290
 20
110.467640
 30
0.0
 11
257.797290
 21
84.129490
 31
0.0
  0
LINE
  5
335
100
AcDbEntity
  8
Layer_1
 62
1
100
AcDbLine
 10
260.047290
 20
78.124510
 30
0.0
 11
260.047290
 21
94.298080
 31
0.0
  0
LINE
  5
336
100
AcDbEntity
  8
Layer_1
 62
1
100
AcDbLine
 10
260.047290
 20
100.303050
 30
0.0
 11
260.047290
 21
126.641220
 31
0.0
  0
LINE
  5
337
100
AcDbEntity
  8
Layer_1
 62
1
100
AcDbLine
 10
260.047290
 20
132.646180
 30
0.0
 11
260.047290
 21
158.988250
 31
0.0
  0
LINE
  5
338
100
AcDbEntity
  8
Layer_1
 62
1
100
AcDbLine
 10
260.047290
 20
164.993220
 30
0.0
 11
260.047290
 21
191.331390
 31
0.0
  0
LINE
  5
339
100
AcDbEntity
  8
Layer_1
 62
1
100
AcDbLine
 10
260.047290
 20
197.336347
 30
0.0
 11
260.047290
 21
223.678424
 31
0.0
  0
LINE
  5
33a
100
AcDbEntity
  8
Layer_1
 62
1
100
AcDbLine
 10
260.047290
 20
229.683383
 30
0.0
 11
260.047290
 21
256.021560
 31
0.0
  0
LINE
  5
33b
100
AcDbEntity
  8
Layer_1
 62
1
100
AcDbLine
 10
262.297270
 20
262.026509
 30
0.0
 11
262.297270
 21
245.852954
 31
0.0
  0
LINE
  5
33c
100
AcDbEntity
  8
Layer_1
 62
1
100
AcDbLine
 10
262.297270
 20
239.847984
 30
0.0
 11
262.297270
 21
213.509817
 31
0.0
  0
LINE
  5
33d
100
AcDbEntity
  8
Layer_1
 62
1
100
AcDbLine
 10
262.297270
 20
207.504847
 30
0.0
 11
262.297270
 21
181.162780
 31
0.0
  0
LINE
  5
33e
100
AcDbEntity
  8
Layer_1
 62
1
100
AcDbLine
 10
262.297270
 20
175.157820
 30
0.0
 11
262.297270
 21
148.819650
 31
0.0
  0
LINE
  5
33f
100
AcDbEntity
  8
Layer_1
 62
1
100
AcDbLine
 10
262.297270
 20
142.814680
 30
0.0
 11
262.297270
 21
116.472610
 31
0.0
  0
LINE
  5
340
100
AcDbEntity
  8
Layer_1
 62
1
100
AcDbLine
 10
262.297270
 20
110.467640
 30
0.0
 11
262.297270
 21
84.129490
 31
0.0
  0
LINE
  5
341
100
AcDbEntity
  8
Layer_1
 62
1
100
AcDbLine
 10
264.547270
 20
78.124510
 30
0.0
 11
264.547270
 21
94.298080
 31
0.0
  0
LINE
  5
342
100
AcDbEntity
  8
Layer_1
 62
1
100
AcDbLine
 10
264.547270
 20
100.303050
 30
0.0
 11
264.547270
 21
126.641220
 31
0.0
  0
LINE
  5
343
100
AcDbEntity
  8
Layer_1
 62
1
100
AcDbLine
 10
264.547270
 20
132.646180
 30
0.0
 11
264.547270
 21
158.988250
 31
0.0
  0
LINE
  5
344
100
AcDbEntity
  8
Layer_1
 62
1
100
AcDbLine
 10
264.547270
 20
164.993220
 30
0.0
 11
264.547270
 21
191.331390
 31
0.0
  0
LINE
  5
345
100
AcDbEntity
  8
Layer_1
 62
1
100
AcDbLine
 10
264.547270
 20
197.336347
 30
0.0
 11
264.547270
 21
223.678424
 31
0.0
  0
LINE
  5
346
100
AcDbEntity
  8
Layer_1
 62
1
100
AcDbLine
 10
264.547270
 20
229.683383
 30
0.0
 11
264.547270
 21
256.021560
 31
0.0
  0
LINE
  5
347
100
AcDbEntity
  8
Layer_1
 62
1
100
AcDbLine
 10
266.797260
 20
262.026509
 30
0.0
 11
266.797260
 21
245.852954
 31
0.0
  0
LINE
  5
348
100
AcDbEntity
  8
Layer_1
 62
1
100
AcDbLine
 10
266.797260
 20
239.847984
 30
0.0
 11
266.797260
 21
213.509817
 31
0.0
  0
LINE
  5
349
100
AcDbEntity
  8
Layer_1
 62
1
100
AcDbLine
 10
266.797260
 20
207.504847
 30
0.0
 11
266.797260
 21
181.162780
 31
0.0
  0
LINE
  5
34a
100
AcDbEntity
  8
Layer_1
 62
1
100
AcDbLine
 10
266.797260
 20
175.157820
 30
0.0
 11
266.797260
 21
148.819650
 31
0.0
  0
LINE
  5
34b
100
AcDbEntity
  8
Layer_1
 62
1
100
AcDbLine
 10
266.797260
 20
142.814680
 30
0.0
 11
266.797260
 21
116.472610
 31
0.0
  0
LINE
  5
34c
100
AcDbEntity
  8
Layer_1
 62
1
100
AcDbLine
 10
266.797260
 20
110.467640
 30
0.0
 11
266.797260
 21
84.129490
 31
0.0
  0
LINE
  5
34d
100
AcDbEntity
  8
Layer_1
 62
1
100
AcDbLine
 10
269.047250
 20
78.124510
 30
0.0
 11
269.047250
 21
94.298080
 31
0.0
  0
LINE
  5
34e
100
AcDbEntity
  8
Layer_1
 62
1
100
AcDbLine
 10
269.047250
 20
100.303050
 30
0.0
 11
269.047250
 21
126.641220
 31
0.0
  0
LINE
  5
34f
100
AcDbEntity
  8
Layer_1
 62
1
100
AcDbLine
 10
269.047250
 20
132.646180
 30
0.0
 11
269.047250
 21
158.988250
 31
0.0
  0
LINE
  5
350
100
AcDbEntity
  8
Layer_1
 62
1
100
AcDbLine
 10
269.047250
 20
164.993220
 30
0.0
 11
269.047250
 21
191.331390
 31
0.0
  0
LINE
  5
351
100
AcDbEntity
  8
Layer_1
 62
1
100
AcDbLine
 10
269.047250
 20
197.336347
 30
0.0
 11
269.047250
 21
223.678424
 31
0.0
  0
LINE
  5
352
100
AcDbEntity
  8
Layer_1
 62
1
100
AcDbLine
 10
269.047250
 20
229.683383
 30
0.0
 11
269.047250
 21
256.021560
 31
0.0
  0
LINE
  5
353
100
AcDbEntity
  8
Layer_1
 62
1
100
AcDbLine
 10
271.297250
 20
262.026509
 30
0.0
 11
271.297250
 21
245.852954
 31
0.0
  0
LINE
  5
354
100
AcDbEntity
  8
Layer_1
 62
1
100
AcDbLine
 10
271.297250
 20
239.847984
 30
0.0
 11
271.297250
 21
213.509817
 31
0.0
  0
LINE
  5
355
100
AcDbEntity
  8
Layer_1
 62
1
100
AcDbLine
 10
271.297250
 20
207.504847
 30
0.0
 11
271.297250
 21
181.162780
 31
0.0
  0
LINE
  5
356
100
AcDbEntity
  8
Layer_1
 62
1
100
AcDbLine
 10
271.297250
 20
175.157820
 30
0.0
 11
271.297250
 21
148.819650
 31
0.0
  0
LINE
  5
357
100
AcDbEntity
  8
Layer_1
 62
1
100
AcDbLine
 10
271.297250
 20
142.814680
 30
0.0
 11
271.297250
 21
116.472610
 31
0.0
  0
LINE
  5
358
100
AcDbEntity
  8
Layer_1
 62
1
100
AcDbLine
 10
271.297250
 20
110.467640
 30
0.0
 11
271.297250
 21
84.129490
 31
0.0
  0
LINE
  5
359
100
AcDbEntity
  8
Layer_1
 62
1
100
AcDbLine
 10
273.547240
 20
78.124510
 30
0.0
 11
273.547240
 21
94.298080
 31
0.0
  0
LINE
  5
35a
100
AcDbEntity
  8
Layer_1
 62
1
100
AcDbLine
 10
273.547240
 20
100.303050
 30
0.0
 11
273.547240
 21
126.641220
 31
0.0
  0
LINE
  5
35b
100
AcDbEntity
  8
Layer_1
 62
1
100
AcDbLine
 10
273.547240
 20
132.646180
 30
0.0
 11
273.547240
 21
158.988250
 31
0.0
  0
LINE
  5
35c
100
AcDbEntity
  8
Layer_1
 62
1
100
AcDbLine
 10
273.547240
 20
164.993220
 30
0.0
 11
273.547240
 21
191.331390
 31
0.0
  0
LINE
  5
35d
100
AcDbEntity
  8
Layer_1
 62
1
100
AcDbLine
 10
273.547240
 20
197.336347
 30
0.0
 11
273.547240
 21
223.678424
 31
0.0
  0
LINE
  5
35e
100
AcDbEntity
  8
Layer_1
 62
1
100
AcDbLine
 10
273.547240
 20
229.683383
 30
0.0
 11
273.547240
 21
256.021560
 31
0.0
  0
LINE
  5
35f
100
AcDbEntity
  8
Layer_1
 62
1
100
AcDbLine
 10
275.797230
 20
262.026509
 30
0.0
 11
275.797230
 21
245.852954
 31
0.0
  0
LINE
  5
360
100
AcDbEntity
  8
Layer_1
 62
1
100
AcDbLine
 10
275.797230
 20
239.847984
 30
0.0
 11
275.797230
 21
213.509817
 31
0.0
  0
LINE
  5
361
100
AcDbEntity
  8
Layer_1
 62
1
100
AcDbLine
 10
275.797230
 20
207.504847
 30
0.0
 11
275.797230
 21
181.162780
 31
0.0
  0
LINE
  5
362
100
AcDbEntity
  8
Layer_1
 62
1
100
AcDbLine
 10
275.797230
 20
175.157820
 30
0.0
 11
275.797230
 21
148.819650
 31
0.0
  0
LINE
  5
363
100
AcDbEntity
  8
Layer_1
 62
1
100
AcDbLine
 10
275.797230
 20
142.814680
 30
0.0
 11
275.797230
 21
116.472610
 31
0.0
  0
LINE
  5
364
100
AcDbEntity
  8
Layer_1
 62
1
100
AcDbLine
 10
275.797230
 20
110.467640
 30
0.0
 11
275.797230
 21
84.129490
 31
0.0
  0
LINE
  5
365
100
AcDbEntity
  8
Layer_1
 62
1
100
AcDbLine
 10
278.047230
 20
78.124510
 30
0.0
 11
278.047230
 21
94.298080
 31
0.0
  0
LINE
  5
366
100
AcDbEntity
  8
Layer_1
 62
1
100
AcDbLine
 10
278.047230
 20
100.303050
 30
0.0
 11
278.047230
 21
126.641220
 31
0.0
  0
LINE
  5
367
100
AcDbEntity
  8
Layer_1
 62
1
100
AcDbLine
 10
278.047230
 20
132.646180
 30
0.0
 11
278.047230
 21
158.988250
 31
0.0
  0
LINE
  5
368
100
AcDbEntity
  8
Layer_1
 62
1
100
AcDbLine
 10
278.047230
 20
164.993220
 30
0.0
 11
278.047230
 21
191.331390
 31
0.0
  0
LINE
  5
369
100
AcDbEntity
  8
Layer_1
 62
1
100
AcDbLine
 10
278.047230
 20
197.336347
 30
0.0
 11
278.047230
 21
223.678424
 31
0.0
  0
LINE
  5
36a
100
AcDbEntity
  8
Layer_1
 62
1
100
AcDbLine
 10
278.047230
 20
229.683383
 30
0.0
 11
278.047230
 21
256.021560
 31
0.0
  0
LINE
  5
36b
100
AcDbEntity
  8
Layer_1
 62
1
100
AcDbLine
 10
280.297210
 20
262.026509
 30
0.0
 11
280.297210
 21
245.852954
 31
0.0
  0
LINE
  5
36c
100
AcDbEntity
  8
Layer_1
 62
1
100
AcDbLine
 10
280.297210
 20
239.847984
 30
0.0
 11
280.297210
 21
213.509817
 31
0.0
  0
LINE
  5
36d
100
AcDbEntity
  8
Layer_1
 62
1
100
AcDbLine
 10
280.297210
 20
207.504847
 30
0.0
 11
280.297210
 21
181.162780
 31
0.0
  0
LINE
  5
36e
100
AcDbEntity
  8
Layer_1
 62
1
100
AcDbLine
 10
280.297210
 20
175.157820
 30
0.0
 11
280.297210
 21
148.819650
 31
0.0
  0
LINE
  5
36f
100
AcDbEntity
  8
Layer_1
 62
1
100
AcDbLine
 10
280.297210
 20
142.814680
 30
0.0
 11
280.297210
 21
116.472610
 31
0.0
  0
LINE
  5
370
100
AcDbEntity
  8
Layer_1
 62
1
100
AcDbLine
 10
280.297210
 20
110.467640
 30
0.0
 11
280.297210
 21
84.129490
 31
0.0
  0
LINE
  5
371
100
AcDbEntity
  8
Layer_1
 62
1
100
AcDbLine
 10
282.547210
 20
78.124510
 30
0.0
 11
282.547210
 21
94.298080
 31
0.0
  0
LINE
  5
372
100
AcDbEntity
  8
Layer_1
 62
1
100
AcDbLine
 10
282.547210
 20
100.303050
 30
0.0
 11
282.547210
 21
126.641220
 31
0.0
  0
LINE
  5
373
100
AcDbEntity
  8
Layer_1
 62
1
100
AcDbLine
 10
282.547210
 20
132.646180
 30
0.0
 11
282.547210
 21
158.988250
 31
0.0
  0
LINE
  5
374
100
AcDbEntity
  8
Layer_1
 62
1
100
AcDbLine
 10
282.547210
 20
164.993220
 30
0.0
 11
282.547210
 21
191.331390
 31
0.0
  0
LINE
  5
375
100
AcDbEntity
  8
Layer_1
 62
1
100
AcDbLine
 10
282.547210
 20
197.336347
 30
0.0
 11
282.547210
 21
223.678424
 31
0.0
  0
LINE
  5
376
100
AcDbEntity
  8
Layer_1
 62
1
100
AcDbLine
 10
282.547210
 20
229.683383
 30
0.0
 11
282.547210
 21
256.021560
 31
0.0
  0
LINE
  5
377
100
AcDbEntity
  8
Layer_1
 62
1
100
AcDbLine
 10
284.797200
 20
262.026509
 30
0.0
 11
284.797200
 21
245.852954
 31
0.0
  0
LINE
  5
378
100
AcDbEntity
  8
Layer_1
 62
1
100
AcDbLine
 10
284.797200
 20
239.847984
 30
0.0
 11
284.797200
 21
213.509817
 31
0.0
  0
LINE
  5
379
100
AcDbEntity
  8
Layer_1
 62
1
100
AcDbLine
 10
284.797200
 20
207.504847
 30
0.0
 11
284.797200
 21
181.162780
 31
0.0
  0
LINE
  5
37a
100
AcDbEntity
  8
Layer_1
 62
1
100
AcDbLine
 10
284.797200
 20
175.157820
 30
0.0
 11
284.797200
 21
148.819650
 31
0.0
  0
LINE
  5
37b
100
AcDbEntity
  8
Layer_1
 62
1
100
AcDbLine
 10
284.797200
 20
142.814680
 30
0.0
 11
284.797200
 21
116.472610
 31
0.0
  0
LINE
  5
37c
100
AcDbEntity
  8
Layer_1
 62
1
100
AcDbLine
 10
284.797200
 20
110.467640
 30
0.0
 11
284.797200
 21
84.129490
 31
0.0
  0
LINE
  5
37d
100
AcDbEntity
  8
Layer_1
 62
1
100
AcDbLine
 10
287.047190
 20
78.124510
 30
0.0
 11
287.047190
 21
94.298080
 31
0.0
  0
LINE
  5
37e
100
AcDbEntity
  8
Layer_1
 62
1
100
AcDbLine
 10
287.047190
 20
100.303050
 30
0.0
 11
287.047190
 21
126.641220
 31
0.0
  0
LINE
  5
37f
100
AcDbEntity
  8
Layer_1
 62
1
100
AcDbLine
 10
287.047190
 20
132.646180
 30
0.0
 11
287.047190
 21
158.988250
 31
0.0
  0
LINE
  5
380
100
AcDbEntity
  8
Layer_1
 62
1
100
AcDbLine
 10
287.047190
 20
164.993220
 30
0.0
 11
287.047190
 21
191.331390
 31
0.0
  0
LINE
  5
381
100
AcDbEntity
  8
Layer_1
 62
1
100
AcDbLine
 10
287.047190
 20
197.336347
 30
0.0
 11
287.047190
 21
223.678424
 31
0.0
  0
LINE
  5
382
100
AcDbEntity
  8
Layer_1
 62
1
100
AcDbLine
 10
287.047190
 20
229.683383
 30
0.0
 11
287.047190
 21
256.021560
 31
0.0
  0
LINE
  5
383
100
AcDbEntity
  8
Layer_1
 62
1
100
AcDbLine
 10
289.297190
 20
262.026509
 30
0.0
 11
289.297190
 21
245.852954
 31
0.0
  0
LINE
  5
384
100
AcDbEntity
  8
Layer_1
 62
1
100
AcDbLine
 10
289.297190
 20
239.847984
 30
0.0
 11
289.297190
 21
213.509817
 31
0.0
  0
LINE
  5
385
100
AcDbEntity
  8
Layer_1
 62
1
100
AcDbLine
 10
289.297190
 20
207.504847
 30
0.0
 11
289.297190
 21
181.162780
 31
0.0
  0
LINE
  5
386
100
AcDbEntity
  8
Layer_1
 62
1
100
AcDbLine
 10
289.297190
 20
175.157820
 30
0.0
 11
289.297190
 21
148.819650
 31
0.0
  0
LINE
  5
387
100
AcDbEntity
  8
Layer_1
 62
1
100
AcDbLine
 10
289.297190
 20
142.814680
 30
0.0
 11
289.297190
 21
116.472610
 31
0.0
  0
LINE
  5
388
100
AcDbEntity
  8
Layer_1
 62
1
100
AcDbLine
 10
289.297190
 20
110.467640
 30
0.0
 11
289.297190
 21
84.129490
 31
0.0
  0
LINE
  5
389
100
AcDbEntity
  8
Layer_1
 62
1
100
AcDbLine
 10
291.547180
 20
78.124510
 30
0.0
 11
291.547180
 21
94.298080
 31
0.0
  0
LINE
  5
38a
100
AcDbEntity
  8
Layer_1
 62
1
100
AcDbLine
 10
291.547180
 20
100.303050
 30
0.0
 11
291.547180
 21
126.641220
 31
0.0
  0
LINE
  5
38b
100
AcDbEntity
  8
Layer_1
 62
1
100
AcDbLine
 10
291.547180
 20
132.646180
 30
0.0
 11
291.547180
 21
158.988250
 31
0.0
  0
LINE
  5
38c
100
AcDbEntity
  8
Layer_1
 62
1
100
AcDbLine
 10
291.547180
 20
164.993220
 30
0.0
 11
291.547180
 21
191.331390
 31
0.0
  0
LINE
  5
38d
100
AcDbEntity
  8
Layer_1
 62
1
100
AcDbLine
 10
291.547180
 20
197.336347
 30
0.0
 11
291.547180
 21
223.678424
 31
0.0
  0
LINE
  5
38e
100
AcDbEntity
  8
Layer_1
 62
1
100
AcDbLine
 10
291.547180
 20
229.683383
 30
0.0
 11
291.547180
 21
256.021560
 31
0.0
  0
LINE
  5
38f
100
AcDbEntity
  8
Layer_1
 62
1
100
AcDbLine
 10
293.797180
 20
262.026509
 30
0.0
 11
293.797180
 21
245.852954
 31
0.0
  0
LINE
  5
390
100
AcDbEntity
  8
Layer_1
 62
1
100
AcDbLine
 10
293.797180
 20
239.847984
 30
0.0
 11
293.797180
 21
213.509817
 31
0.0
  0
LINE
  5
391
100
AcDbEntity
  8
Layer_1
 62
1
100
AcDbLine
 10
293.797180
 20
207.504847
 30
0.0
 11
293.797180
 21
181.162780
 31
0.0
  0
LINE
  5
392
100
AcDbEntity
  8
Layer_1
 62
1
100
AcDbLine
 10
293.797180
 20
175.157820
 30
0.0
 11
293.797180
 21
148.819650
 31
0.0
  0
LINE
  5
393
100
AcDbEntity
  8
Layer_1
 62
1
100
AcDbLine
 10
293.797180
 20
142.814680
 30
0.0
 11
293.797180
 21
116.472610
 31
0.0
  0
LINE
  5
394
100
AcDbEntity
  8
Layer_1
 62
1
100
AcDbLine
 10
293.797180
 20
110.467640
 30
0.0
 11
293.797180
 21
84.129490
 31
0.0
  0
LINE
  5
395
100
AcDbEntity
  8
Layer_1
 62
1
100
AcDbLine
 10
296.047160
 20
78.124510
 30
0.0
 11
296.047160
 21
94.298080
 31
0.0
  0
LINE
  5
396
100
AcDbEntity
  8
Layer_1
 62
1
100
AcDbLine
 10
296.047160
 20
100.303050
 30
0.0
 11
296.047160
 21
126.641220
 31
0.0
  0
LINE
  5
397
100
AcDbEntity
  8
Layer_1
 62
1
100
AcDbLine
 10
296.047160
 20
132.646180
 30
0.0
 11
296.047160
 21
158.988250
 31
0.0
  0
LINE
  5
398
100
AcDbEntity
  8
Layer_1
 62
1
100
AcDbLine
 10
296.047160
 20
164.993220
 30
0.0
 11
296.047160
 21
191.331390
 31
0.0
  0
LINE
  5
399
100
AcDbEntity
  8
Layer_1
 62
1
100
AcDbLine
 10
296.047160
 20
197.336347
 30
0.0
 11
296.047160
 21
223.678424
 31
0.0
  0
LINE
  5
39a
100
AcDbEntity
  8
Layer_1
 62
1
100
AcDbLine
 10
296.047160
 20
229.683383
 30
0.0
 11
296.047160
 21
256.021560
 31
0.0
  0
LINE
  5
39b
100
AcDbEntity
  8
Layer_1
 62
1
100
AcDbLine
 10
298.297150
 20
262.026509
 30
0.0
 11
298.297150
 21
245.852954
 31
0.0
  0
LINE
  5
39c
100
AcDbEntity
  8
Layer_1
 62
1
100
AcDbLine
 10
298.297150
 20
239.847984
 30
0.0
 11
298.297150
 21
213.509817
 31
0.0
  0
LINE
  5
39d
100
AcDbEntity
  8
Layer_1
 62
1
100
AcDbLine
 10
298.297150
 20
207.504847
 30
0.0
 11
298.297150
 21
181.162780
 31
0.0
  0
LINE
  5
39e
100
AcDbEntity
  8
Layer_1
 62
1
100
AcDbLine
 10
298.297150
 20
175.157820
 30
0.0
 11
298.297150
 21
148.819650
 31
0.0
  0
LINE
  5
39f
100
AcDbEntity
  8
Layer_1
 62
1
100
AcDbLine
 10
298.297150
 20
142.814680
 30
0.0
 11
298.297150
 21
116.472610
 31
0.0
  0
LINE
  5
3a0
100
AcDbEntity
  8
Layer_1
 62
1
100
AcDbLine
 10
298.297150
 20
110.467640
 30
0.0
 11
298.297150
 21
84.129490
 31
0.0
  0
LINE
  5
3a1
100
AcDbEntity
  8
Layer_1
 62
1
100
AcDbLine
 10
300.547150
 20
78.124510
 30
0.0
 11
300.547150
 21
94.298080
 31
0.0
  0
LINE
  5
3a2
100
AcDbEntity
  8
Layer_1
 62
1
100
AcDbLine
 10
300.547150
 20
100.303050
 30
0.0
 11
300.547150
 21
126.641220
 31
0.0
  0
LINE
  5
3a3
100
AcDbEntity
  8
Layer_1
 62
1
100
AcDbLine
 10
300.547150
 20
132.646180
 30
0.0
 11
300.547150
 21
158.988250
 31
0.0
  0
LINE
  5
3a4
100
AcDbEntity
  8
Layer_1
 62
1
100
AcDbLine
 10
300.547150
 20
164.993220
 30
0.0
 11
300.547150
 21
191.331390
 31
0.0
  0
LINE
  5
3a5
100
AcDbEntity
  8
Layer_1
 62
1
100
AcDbLine
 10
300.547150
 20
197.336347
 30
0.0
 11
300.547150
 21
223.678424
 31
0.0
  0
LINE
  5
3a6
100
AcDbEntity
  8
Layer_1
 62
1
100
AcDbLine
 10
300.547150
 20
229.683383
 30
0.0
 11
300.547150
 21
256.021560
 31
0.0
  0
LINE
  5
3a7
100
AcDbEntity
  8
Layer_1
 62
1
100
AcDbLine
 10
302.797140
 20
262.026509
 30
0.0
 11
302.797140
 21
245.852954
 31
0.0
  0
LINE
  5
3a8
100
AcDbEntity
  8
Layer_1
 62
1
100
AcDbLine
 10
302.797140
 20
239.847984
 30
0.0
 11
302.797140
 21
213.509817
 31
0.0
  0
LINE
  5
3a9
100
AcDbEntity
  8
Layer_1
 62
1
100
AcDbLine
 10
302.797140
 20
207.504847
 30
0.0
 11
302.797140
 21
181.162780
 31
0.0
  0
LINE
  5
3aa
100
AcDbEntity
  8
Layer_1
 62
1
100
AcDbLine
 10
302.797140
 20
175.157820
 30
0.0
 11
302.797140
 21
148.819650
 31
0.0
  0
LINE
  5
3ab
100
AcDbEntity
  8
Layer_1
 62
1
100
AcDbLine
 10
302.797140
 20
142.814680
 30
0.0
 11
302.797140
 21
116.472610
 31
0.0
  0
LINE
  5
3ac
100
AcDbEntity
  8
Layer_1
 62
1
100
AcDbLine
 10
302.797140
 20
110.467640
 30
0.0
 11
302.797140
 21
84.129490
 31
0.0
  0
LINE
  5
3ad
100
AcDbEntity
  8
Layer_1
 62
1
100
AcDbLine
 10
305.047130
 20
78.124510
 30
0.0
 11
305.047130
 21
94.298080
 31
0.0
  0
LINE
  5
3ae
100
AcDbEntity
  8
Layer_1
 62
1
100
AcDbLine
 10
305.047130
 20
100.303050
 30
0.0
 11
305.047130
 21
126.641220
 31
0.0
  0
LINE
  5
3af
100
AcDbEntity
  8
Layer_1
 62
1
100
AcDbLine
 10
305.047130
 20
132.646180
 30
0.0
 11
305.047130
 21
158.988250
 31
0.0
  0
LINE
  5
3b0
100
AcDbEntity
  8
Layer_1
 62
1
100
AcDbLine
 10
305.047130
 20
164.993220
 30
0.0
 11
305.047130
 21
191.331390
 31
0.0
  0
LINE
  5
3b1
100
AcDbEntity
  8
Layer_1
 62
1
100
AcDbLine
 10
305.047130
 20
197.336347
 30
0.0
 11
305.047130
 21
223.678424
 31
0.0
  0
LINE
  5
3b2
100
AcDbEntity
  8
Layer_1
 62
1
100
AcDbLine
 10
305.047130
 20
229.683383
 30
0.0
 11
305.047130
 21
256.021560
 31
0.0
  0
LINE
  5
3b3
100
AcDbEntity
  8
Layer_1
 62
1
100
AcDbLine
 10
307.297130
 20
262.026509
 30
0.0
 11
307.297130
 21
245.852954
 31
0.0
  0
LINE
  5
3b4
100
AcDbEntity
  8
Layer_1
 62
1
100
AcDbLine
 10
307.297130
 20
239.847984
 30
0.0
 11
307.297130
 21
213.509817
 31
0.0
  0
LINE
  5
3b5
100
AcDbEntity
  8
Layer_1
 62
1
100
AcDbLine
 10
307.297130
 20
207.504847
 30
0.0
 11
307.297130
 21
181.162780
 31
0.0
  0
LINE
  5
3b6
100
AcDbEntity
  8
Layer_1
 62
1
100
AcDbLine
 10
307.297130
 20
175.157820
 30
0.0
 11
307.297130
 21
148.819650
 31
0.0
  0
LINE
  5
3b7
100
AcDbEntity
  8
Layer_1
 62
1
100
AcDbLine
 10
307.297130
 20
142.814680
 30
0.0
 11
307.297130
 21
116.472610
 31
0.0
  0
LINE
  5
3b8
100
AcDbEntity
  8
Layer_1
 62
1
100
AcDbLine
 10
307.297130
 20
110.467640
 30
0.0
 11
307.297130
 21
84.129490
 31
0.0
  0
LINE
  5
3b9
100
AcDbEntity
  8
Layer_1
 62
1
100
AcDbLine
 10
309.547120
 20
78.124510
 30
0.0
 11
309.547120
 21
94.298080
 31
0.0
  0
LINE
  5
3ba
100
AcDbEntity
  8
Layer_1
 62
1
100
AcDbLine
 10
309.547120
 20
100.303050
 30
0.0
 11
309.547120
 21
126.641220
 31
0.0
  0
LINE
  5
3bb
100
AcDbEntity
  8
Layer_1
 62
1
100
AcDbLine
 10
309.547120
 20
132.646180
 30
0.0
 11
309.547120
 21
158.988250
 31
0.0
  0
LINE
  5
3bc
100
AcDbEntity
  8
Layer_1
 62
1
100
AcDbLine
 10
309.547120
 20
164.993220
 30
0.0
 11
309.547120
 21
191.331390
 31
0.0
  0
LINE
  5
3bd
100
AcDbEntity
  8
Layer_1
 62
1
100
AcDbLine
 10
309.547120
 20
197.336347
 30
0.0
 11
309.547120
 21
223.678424
 31
0.0
  0
LINE
  5
3be
100
AcDbEntity
  8
Layer_1
 62
1
100
AcDbLine
 10
309.547120
 20
229.683383
 30
0.0
 11
309.547120
 21
256.021560
 31
0.0
  0
LINE
  5
3bf
100
AcDbEntity
  8
Layer_1
 62
1
100
AcDbLine
 10
90.801760
 20
78.124510
 30
0.0
 11
312.297110
 21
78.124510
 31
0.0
  0
SPLINE
  5
3c0
100
AcDbEntity
  8
Layer_1
 62
1
100
AcDbSpline
 70
8
 71
3
 72
8
 73
4
 74
0
 40
0
 40
0
 40
0
 40
0
 40
1
 40
1
 40
1
 40
1
 10
312.297110
 20
78.124510
 30
0.0
 10
312.351810
 20
78.124510
 30
0.0
 10
312.398680
 20
78.167510
 30
0.0
 10
312.398680
 20
78.226200
 30
0.0
  0
LINE
  5
3c1
100
AcDbEntity
  8
Layer_1
 62
1
100
AcDbLine
 10
312.398680
 20
78.226200
 30
0.0
 11
312.398680
 21
261.928745
 31
0.0
  0
SPLINE
  5
3c2
100
AcDbEntity
  8
Layer_1
 62
1
100
AcDbSpline
 70
8
 71
3
 72
8
 73
4
 74
0
 40
0
 40
0
 40
0
 40
0
 40
1
 40
1
 40
1
 40
1
 10
312.398680
 20
261.928745
 30
0.0
 10
312.398680
 20
261.983745
 30
0.0
 10
312.355680
 20
262.030423
 30
0.0
 10
312.297110
 20
262.030423
 30
0.0
  0
LINE
  5
3c3
100
AcDbEntity
  8
Layer_1
 62
1
100
AcDbLine
 10
312.297110
 20
262.030423
 30
0.0
 11
84.801790
 21
262.030423
 31
0.0
  0
SPLINE
  5
3c4
100
AcDbEntity
  8
Layer_1
 62
1
100
AcDbSpline
 70
8
 71
3
 72
8
 73
4
 74
0
 40
0
 40
0
 40
0
 40
0
 40
1
 40
1
 40
1
 40
1
 10
84.801790
 20
262.030423
 30
0.0
 10
84.747090
 20
262.030423
 30
0.0
 10
84.700230
 20
261.987423
 30
0.0
 10
84.700230
 20
261.928745
 30
0.0
  0
LINE
  5
3c5
100
AcDbEntity
  8
Layer_1
 62
1
100
AcDbLine
 10
84.700230
 20
261.928745
 30
0.0
 11
84.700230
 21
78.226200
 31
0.0
  0
SPLINE
  5
3c6
100
AcDbEntity
  8
Layer_1
 62
1
100
AcDbSpline
 70
8
 71
3
 72
8
 73
4
 74
0
 40
0
 40
0
 40
0
 40
0
 40
1
 40
1
 40
1
 40
1
 10
84.700230
 20
78.226200
 30
0.0
 10
84.700230
 20
78.171200
 30
0.0
 10
84.743230
 20
78.124510
 30
0.0
 10
84.801790
 20
78.124510
 30
0.0
  0
LINE
  5
3c7
100
AcDbEntity
  8
Layer_1
 62
1
100
AcDbLine
 10
57.514801
 20
255.761996
 30
0.0
 11
60.514801
 21
255.761996
 31
0.0
  0
SPLINE
  5
3c8
100
AcDbEntity
  8
Layer_1
 62
1
100
AcDbSpline
 70
8
 71
3
 72
8
 73
4
 74
0
 40
0
 40
0
 40
0
 40
0
 40
1
 40
1
 40
1
 40
1
 10
60.514801
 20
255.761996
 30
0.0
 10
60.460101
 20
255.761996
 30
0.0
 10
60.413241
 20
255.804996
 30
0.0
 10
60.413241
 20
255.863596
 30
0.0
  0
LINE
  5
3c9
100
AcDbEntity
  8
Layer_1
 62
1
100
AcDbLine
 10
60.413241
 20
255.863596
 30
0.0
 11
60.413241
 21
249.863596
 31
0.0
  0
SPLINE
  5
3ca
100
AcDbEntity
  8
Layer_1
 62
1
100
AcDbSpline
 70
8
 71
3
 72
8
 73
4
 74
0
 40
0
 40
0
 40
0
 40
0
 40
1
 40
1
 40
1
 40
1
 10
60.413241
 20
249.863596
 30
0.0
 10
60.413241
 20
249.918596
 30
0.0
 10
60.456241
 20
249.965196
 30
0.0
 10
60.514801
 20
249.965196
 30
0.0
  0
LINE
  5
3cb
100
AcDbEntity
  8
Layer_1
 62
1
100
AcDbLine
 10
60.514801
 20
249.965196
 30
0.0
 11
57.514801
 21
249.965196
 31
0.0
  0
SPLINE
  5
3cc
100
AcDbEntity
  8
Layer_1
 62
1
100
AcDbSpline
 70
8
 71
3
 72
8
 73
4
 74
0
 40
0
 40
0
 40
0
 40
0
 40
1
 40
1
 40
1
 40
1
 10
57.514801
 20
249.965196
 30
0.0
 10
57.460101
 20
249.965196
 30
0.0
 10
57.413241
 20
249.922196
 30
0.0
 10
57.413241
 20
249.863596
 30
0.0
  0
LINE
  5
3cd
100
AcDbEntity
  8
Layer_1
 62
1
100
AcDbLine
 10
57.413241
 20
249.863596
 30
0.0
 11
57.413241
 21
243.863596
 31
0.0
  0
SPLINE
  5
3ce
100
AcDbEntity
  8
Layer_1
 62
1
100
AcDbSpline
 70
8
 71
3
 72
8
 73
4
 74
0
 40
0
 40
0
 40
0
 40
0
 40
1
 40
1
 40
1
 40
1
 10
57.413241
 20
243.863596
 30
0.0
 10
57.413241
 20
243.808596
 30
0.0
 10
57.456241
 20
243.761996
 30
0.0
 10
57.514801
 20
243.761996
 30
0.0
  0
LINE
  5
3cf
100
AcDbEntity
  8
Layer_1
 62
1
100
AcDbLine
 10
57.514801
 20
243.761996
 30
0.0
 11
60.514801
 21
243.761996
 31
0.0
  0
SPLINE
  5
3d0
100
AcDbEntity
  8
Layer_1
 62
1
100
AcDbSpline
 70
8
 71
3
 72
8
 73
4
 74
0
 40
0
 40
0
 40
0
 40
0
 40
1
 40
1
 40
1
 40
1
 10
60.514801
 20
243.761996
 30
0.0
 10
60.460101
 20
243.761996
 30
0.0
 10
60.413241
 20
243.804996
 30
0.0
 10
60.413241
 20
243.863596
 30
0.0
  0
LINE
  5
3d1
100
AcDbEntity
  8
Layer_1
 62
1
100
AcDbLine
 10
60.413241
 20
243.863596
 30
0.0
 11
60.413241
 21
237.863596
 31
0.0
  0
SPLINE
  5
3d2
100
AcDbEntity
  8
Layer_1
 62
1
100
AcDbSpline
 70
8
 71
3
 72
8
 73
4
 74
0
 40
0
 40
0
 40
0
 40
0
 40
1
 40
1
 40
1
 40
1
 10
60.413241
 20
237.863596
 30
0.0
 10
60.413241
 20
237.918596
 30
0.0
 10
60.456241
 20
237.965196
 30
0.0
 10
60.514801
 20
237.965196
 30
0.0
  0
LINE
  5
3d3
100
AcDbEntity
  8
Layer_1
 62
1
100
AcDbLine
 10
60.514801
 20
237.965196
 30
0.0
 11
57.514801
 21
237.965196
 31
0.0
  0
SPLINE
  5
3d4
100
AcDbEntity
  8
Layer_1
 62
1
100
AcDbSpline
 70
8
 71
3
 72
8
 73
4
 74
0
 40
0
 40
0
 40
0
 40
0
 40
1
 40
1
 40
1
 40
1
 10
57.514801
 20
237.965196
 30
0.0
 10
57.460101
 20
237.965196
 30
0.0
 10
57.413241
 20
237.922196
 30
0.0
 10
57.413241
 20
237.863596
 30
0.0
  0
LINE
  5
3d5
100
AcDbEntity
  8
Layer_1
 62
1
100
AcDbLine
 10
57.413241
 20
237.863596
 30
0.0
 11
57.413241
 21
231.863596
 31
0.0
  0
SPLINE
  5
3d6
100
AcDbEntity
  8
Layer_1
 62
1
100
AcDbSpline
 70
8
 71
3
 72
8
 73
4
 74
0
 40
0
 40
0
 40
0
 40
0
 40
1
 40
1
 40
1
 40
1
 10
57.413241
 20
231.863596
 30
0.0
 10
57.413241
 20
231.808596
 30
0.0
 10
57.456241
 20
231.761996
 30
0.0
 10
57.514801
 20
231.761996
 30
0.0
  0
LINE
  5
3d7
100
AcDbEntity
  8
Layer_1
 62
1
100
AcDbLine
 10
57.514801
 20
231.761996
 30
0.0
 11
60.514801
 21
231.761996
 31
0.0
  0
SPLINE
  5
3d8
100
AcDbEntity
  8
Layer_1
 62
1
100
AcDbSpline
 70
8
 71
3
 72
8
 73
4
 74
0
 40
0
 40
0
 40
0
 40
0
 40
1
 40
1
 40
1
 40
1
 10
60.514801
 20
231.761996
 30
0.0
 10
60.460101
 20
231.761996
 30
0.0
 10
60.413241
 20
231.804996
 30
0.0
 10
60.413241
 20
231.863596
 30
0.0
  0
LINE
  5
3d9
100
AcDbEntity
  8
Layer_1
 62
1
100
AcDbLine
 10
60.413241
 20
231.863596
 30
0.0
 11
60.413241
 21
225.863597
 31
0.0
  0
SPLINE
  5
3da
100
AcDbEntity
  8
Layer_1
 62
1
100
AcDbSpline
 70
8
 71
3
 72
8
 73
4
 74
0
 40
0
 40
0
 40
0
 40
0
 40
1
 40
1
 40
1
 40
1
 10
60.413241
 20
225.863597
 30
0.0
 10
60.413241
 20
225.918597
 30
0.0
 10
60.456241
 20
225.965197
 30
0.0
 10
60.514801
 20
225.965197
 30
0.0
  0
LINE
  5
3db
100
AcDbEntity
  8
Layer_1
 62
1
100
AcDbLine
 10
60.514801
 20
225.965197
 30
0.0
 11
57.514801
 21
225.965197
 31
0.0
  0
SPLINE
  5
3dc
100
AcDbEntity
  8
Layer_1
 62
1
100
AcDbSpline
 70
8
 71
3
 72
8
 73
4
 74
0
 40
0
 40
0
 40
0
 40
0
 40
1
 40
1
 40
1
 40
1
 10
57.514801
 20
225.965197
 30
0.0
 10
57.460101
 20
225.965197
 30
0.0
 10
57.413241
 20
225.922197
 30
0.0
 10
57.413241
 20
225.863597
 30
0.0
  0
LINE
  5
3dd
100
AcDbEntity
  8
Layer_1
 62
1
100
AcDbLine
 10
57.413241
 20
225.863597
 30
0.0
 11
57.413241
 21
219.863596
 31
0.0
  0
SPLINE
  5
3de
100
AcDbEntity
  8
Layer_1
 62
1
100
AcDbSpline
 70
8
 71
3
 72
8
 73
4
 74
0
 40
0
 40
0
 40
0
 40
0
 40
1
 40
1
 40
1
 40
1
 10
57.413241
 20
219.863596
 30
0.0
 10
57.413241
 20
219.808596
 30
0.0
 10
57.456241
 20
219.761996
 30
0.0
 10
57.514801
 20
219.761996
 30
0.0
  0
LINE
  5
3df
100
AcDbEntity
  8
Layer_1
 62
1
100
AcDbLine
 10
57.514801
 20
219.761996
 30
0.0
 11
60.514801
 21
219.761996
 31
0.0
  0
SPLINE
  5
3e0
100
AcDbEntity
  8
Layer_1
 62
1
100
AcDbSpline
 70
8
 71
3
 72
8
 73
4
 74
0
 40
0
 40
0
 40
0
 40
0
 40
1
 40
1
 40
1
 40
1
 10
60.514801
 20
219.761996
 30
0.0
 10
60.460101
 20
219.761996
 30
0.0
 10
60.413241
 20
219.804996
 30
0.0
 10
60.413241
 20
219.863596
 30
0.0
  0
LINE
  5
3e1
100
AcDbEntity
  8
Layer_1
 62
1
100
AcDbLine
 10
60.413241
 20
219.863596
 30
0.0
 11
60.413241
 21
213.863597
 31
0.0
  0
SPLINE
  5
3e2
100
AcDbEntity
  8
Layer_1
 62
1
100
AcDbSpline
 70
8
 71
3
 72
8
 73
4
 74
0
 40
0
 40
0
 40
0
 40
0
 40
1
 40
1
 40
1
 40
1
 10
60.413241
 20
213.863597
 30
0.0
 10
60.413241
 20
213.918597
 30
0.0
 10
60.456241
 20
213.965197
 30
0.0
 10
60.514801
 20
213.965197
 30
0.0
  0
LINE
  5
3e3
100
AcDbEntity
  8
Layer_1
 62
1
100
AcDbLine
 10
60.514801
 20
213.965197
 30
0.0
 11
57.514801
 21
213.965197
 31
0.0
  0
SPLINE
  5
3e4
100
AcDbEntity
  8
Layer_1
 62
1
100
AcDbSpline
 70
8
 71
3
 72
8
 73
4
 74
0
 40
0
 40
0
 40
0
 40
0
 40
1
 40
1
 40
1
 40
1
 10
57.514801
 20
213.965197
 30
0.0
 10
57.460101
 20
213.965197
 30
0.0
 10
57.413241
 20
213.922197
 30
0.0
 10
57.413241
 20
213.863597
 30
0.0
  0
LINE
  5
3e5
100
AcDbEntity
  8
Layer_1
 62
1
100
AcDbLine
 10
57.413241
 20
213.863597
 30
0.0
 11
57.413241
 21
207.863597
 31
0.0
  0
SPLINE
  5
3e6
100
AcDbEntity
  8
Layer_1
 62
1
100
AcDbSpline
 70
8
 71
3
 72
8
 73
4
 74
0
 40
0
 40
0
 40
0
 40
0
 40
1
 40
1
 40
1
 40
1
 10
57.413241
 20
207.863597
 30
0.0
 10
57.413241
 20
207.808597
 30
0.0
 10
57.456241
 20
207.761997
 30
0.0
 10
57.514801
 20
207.761997
 30
0.0
  0
LINE
  5
3e7
100
AcDbEntity
  8
Layer_1
 62
1
100
AcDbLine
 10
57.514801
 20
207.761997
 30
0.0
 11
60.514801
 21
207.761997
 31
0.0
  0
SPLINE
  5
3e8
100
AcDbEntity
  8
Layer_1
 62
1
100
AcDbSpline
 70
8
 71
3
 72
8
 73
4
 74
0
 40
0
 40
0
 40
0
 40
0
 40
1
 40
1
 40
1
 40
1
 10
60.514801
 20
207.761997
 30
0.0
 10
60.460101
 20
207.761997
 30
0.0
 10
60.413241
 20
207.804997
 30
0.0
 10
60.413241
 20
207.863597
 30
0.0
  0
LINE
  5
3e9
100
AcDbEntity
  8
Layer_1
 62
1
100
AcDbLine
 10
60.413241
 20
207.863597
 30
0.0
 11
60.413241
 21
201.863597
 31
0.0
  0
SPLINE
  5
3ea
100
AcDbEntity
  8
Layer_1
 62
1
100
AcDbSpline
 70
8
 71
3
 72
8
 73
4
 74
0
 40
0
 40
0
 40
0
 40
0
 40
1
 40
1
 40
1
 40
1
 10
60.413241
 20
201.863597
 30
0.0
 10
60.413241
 20
201.918597
 30
0.0
 10
60.456241
 20
201.965197
 30
0.0
 10
60.514801
 20
201.965197
 30
0.0
  0
LINE
  5
3eb
100
AcDbEntity
  8
Layer_1
 62
1
100
AcDbLine
 10
60.514801
 20
201.965197
 30
0.0
 11
57.514801
 21
201.965197
 31
0.0
  0
SPLINE
  5
3ec
100
AcDbEntity
  8
Layer_1
 62
1
100
AcDbSpline
 70
8
 71
3
 72
8
 73
4
 74
0
 40
0
 40
0
 40
0
 40
0
 40
1
 40
1
 40
1
 40
1
 10
57.514801
 20
201.965197
 30
0.0
 10
57.460101
 20
201.965197
 30
0.0
 10
57.413241
 20
201.922197
 30
0.0
 10
57.413241
 20
201.863597
 30
0.0
  0
LINE
  5
3ed
100
AcDbEntity
  8
Layer_1
 62
1
100
AcDbLine
 10
57.413241
 20
201.863597
 30
0.0
 11
57.413241
 21
195.863600
 31
0.0
  0
SPLINE
  5
3ee
100
AcDbEntity
  8
Layer_1
 62
1
100
AcDbSpline
 70
8
 71
3
 72
8
 73
4
 74
0
 40
0
 40
0
 40
0
 40
0
 40
1
 40
1
 40
1
 40
1
 10
57.413241
 20
195.863600
 30
0.0
 10
57.413241
 20
195.808600
 30
0.0
 10
57.456241
 20
195.762000
 30
0.0
 10
57.514801
 20
195.762000
 30
0.0
  0
LINE
  5
3ef
100
AcDbEntity
  8
Layer_1
 62
1
100
AcDbLine
 10
57.514801
 20
195.762000
 30
0.0
 11
60.514801
 21
195.762000
 31
0.0
  0
SPLINE
  5
3f0
100
AcDbEntity
  8
Layer_1
 62
1
100
AcDbSpline
 70
8
 71
3
 72
8
 73
4
 74
0
 40
0
 40
0
 40
0
 40
0
 40
1
 40
1
 40
1
 40
1
 10
60.514801
 20
195.762000
 30
0.0
 10
60.460101
 20
195.762000
 30
0.0
 10
60.413241
 20
195.805000
 30
0.0
 10
60.413241
 20
195.863600
 30
0.0
  0
LINE
  5
3f1
100
AcDbEntity
  8
Layer_1
 62
1
100
AcDbLine
 10
60.413241
 20
195.863600
 30
0.0
 11
60.413241
 21
189.863600
 31
0.0
  0
SPLINE
  5
3f2
100
AcDbEntity
  8
Layer_1
 62
1
100
AcDbSpline
 70
8
 71
3
 72
8
 73
4
 74
0
 40
0
 40
0
 40
0
 40
0
 40
1
 40
1
 40
1
 40
1
 10
60.413241
 20
189.863600
 30
0.0
 10
60.413241
 20
189.918600
 30
0.0
 10
60.456241
 20
189.965200
 30
0.0
 10
60.514801
 20
189.965200
 30
0.0
  0
LINE
  5
3f3
100
AcDbEntity
  8
Layer_1
 62
1
100
AcDbLine
 10
60.514801
 20
189.965200
 30
0.0
 11
57.514801
 21
189.965200
 31
0.0
  0
SPLINE
  5
3f4
100
AcDbEntity
  8
Layer_1
 62
1
100
AcDbSpline
 70
8
 71
3
 72
8
 73
4
 74
0
 40
0
 40
0
 40
0
 40
0
 40
1
 40
1
 40
1
 40
1
 10
57.514801
 20
189.965200
 30
0.0
 10
57.460101
 20
189.965200
 30
0.0
 10
57.413241
 20
189.922200
 30
0.0
 10
57.413241
 20
189.863600
 30
0.0
  0
LINE
  5
3f5
100
AcDbEntity
  8
Layer_1
 62
1
100
AcDbLine
 10
57.413241
 20
189.863600
 30
0.0
 11
57.413241
 21
183.863600
 31
0.0
  0
SPLINE
  5
3f6
100
AcDbEntity
  8
Layer_1
 62
1
100
AcDbSpline
 70
8
 71
3
 72
8
 73
4
 74
0
 40
0
 40
0
 40
0
 40
0
 40
1
 40
1
 40
1
 40
1
 10
57.413241
 20
183.863600
 30
0.0
 10
57.413241
 20
183.808600
 30
0.0
 10
57.456241
 20
183.762000
 30
0.0
 10
57.514801
 20
183.762000
 30
0.0
  0
LINE
  5
3f7
100
AcDbEntity
  8
Layer_1
 62
1
100
AcDbLine
 10
57.514801
 20
183.762000
 30
0.0
 11
60.514801
 21
183.762000
 31
0.0
  0
SPLINE
  5
3f8
100
AcDbEntity
  8
Layer_1
 62
1
100
AcDbSpline
 70
8
 71
3
 72
8
 73
4
 74
0
 40
0
 40
0
 40
0
 40
0
 40
1
 40
1
 40
1
 40
1
 10
60.514801
 20
183.762000
 30
0.0
 10
60.460101
 20
183.762000
 30
0.0
 10
60.413241
 20
183.805000
 30
0.0
 10
60.413241
 20
183.863600
 30
0.0
  0
LINE
  5
3f9
100
AcDbEntity
  8
Layer_1
 62
1
100
AcDbLine
 10
60.413241
 20
183.863600
 30
0.0
 11
60.413241
 21
177.863600
 31
0.0
  0
SPLINE
  5
3fa
100
AcDbEntity
  8
Layer_1
 62
1
100
AcDbSpline
 70
8
 71
3
 72
8
 73
4
 74
0
 40
0
 40
0
 40
0
 40
0
 40
1
 40
1
 40
1
 40
1
 10
60.413241
 20
177.863600
 30
0.0
 10
60.413241
 20
177.918600
 30
0.0
 10
60.456241
 20
177.965200
 30
0.0
 10
60.514801
 20
177.965200
 30
0.0
  0
LINE
  5
3fb
100
AcDbEntity
  8
Layer_1
 62
1
100
AcDbLine
 10
60.514801
 20
177.965200
 30
0.0
 11
57.514801
 21
177.965200
 31
0.0
  0
SPLINE
  5
3fc
100
AcDbEntity
  8
Layer_1
 62
1
100
AcDbSpline
 70
8
 71
3
 72
8
 73
4
 74
0
 40
0
 40
0
 40
0
 40
0
 40
1
 40
1
 40
1
 40
1
 10
57.514801
 20
177.965200
 30
0.0
 10
57.460101
 20
177.965200
 30
0.0
 10
57.413241
 20
177.922200
 30
0.0
 10
57.413241
 20
177.863600
 30
0.0
  0
LINE
  5
3fd
100
AcDbEntity
  8
Layer_1
 62
1
100
AcDbLine
 10
57.413241
 20
177.863600
 30
0.0
 11
57.413241
 21
171.863600
 31
0.0
  0
SPLINE
  5
3fe
100
AcDbEntity
  8
Layer_1
 62
1
100
AcDbSpline
 70
8
 71
3
 72
8
 73
4
 74
0
 40
0
 40
0
 40
0
 40
0
 40
1
 40
1
 40
1
 40
1
 10
57.413241
 20
171.863600
 30
0.0
 10
57.413241
 20
171.808600
 30
0.0
 10
57.456241
 20
171.762000
 30
0.0
 10
57.514801
 20
171.762000
 30
0.0
  0
LINE
  5
3ff
100
AcDbEntity
  8
Layer_1
 62
1
100
AcDbLine
 10
57.514801
 20
171.762000
 30
0.0
 11
60.514801
 21
171.762000
 31
0.0
  0
SPLINE
  5
400
100
AcDbEntity
  8
Layer_1
 62
1
100
AcDbSpline
 70
8
 71
3
 72
8
 73
4
 74
0
 40
0
 40
0
 40
0
 40
0
 40
1
 40
1
 40
1
 40
1
 10
60.514801
 20
171.762000
 30
0.0
 10
60.460101
 20
171.762000
 30
0.0
 10
60.413241
 20
171.805000
 30
0.0
 10
60.413241
 20
171.863600
 30
0.0
  0
LINE
  5
401
100
AcDbEntity
  8
Layer_1
 62
1
100
AcDbLine
 10
60.413241
 20
171.863600
 30
0.0
 11
60.413241
 21
165.863600
 31
0.0
  0
SPLINE
  5
402
100
AcDbEntity
  8
Layer_1
 62
1
100
AcDbSpline
 70
8
 71
3
 72
8
 73
4
 74
0
 40
0
 40
0
 40
0
 40
0
 40
1
 40
1
 40
1
 40
1
 10
60.413241
 20
165.863600
 30
0.0
 10
60.413241
 20
165.918600
 30
0.0
 10
60.456241
 20
165.965200
 30
0.0
 10
60.514801
 20
165.965200
 30
0.0
  0
LINE
  5
403
100
AcDbEntity
  8
Layer_1
 62
1
100
AcDbLine
 10
60.514801
 20
165.965200
 30
0.0
 11
57.514801
 21
165.965200
 31
0.0
  0
SPLINE
  5
404
100
AcDbEntity
  8
Layer_1
 62
1
100
AcDbSpline
 70
8
 71
3
 72
8
 73
4
 74
0
 40
0
 40
0
 40
0
 40
0
 40
1
 40
1
 40
1
 40
1
 10
57.514801
 20
165.965200
 30
0.0
 10
57.460101
 20
165.965200
 30
0.0
 10
57.413241
 20
165.922200
 30
0.0
 10
57.413241
 20
165.863600
 30
0.0
  0
LINE
  5
405
100
AcDbEntity
  8
Layer_1
 62
1
100
AcDbLine
 10
57.413241
 20
165.863600
 30
0.0
 11
57.413241
 21
159.863600
 31
0.0
  0
SPLINE
  5
406
100
AcDbEntity
  8
Layer_1
 62
1
100
AcDbSpline
 70
8
 71
3
 72
8
 73
4
 74
0
 40
0
 40
0
 40
0
 40
0
 40
1
 40
1
 40
1
 40
1
 10
57.413241
 20
159.863600
 30
0.0
 10
57.413241
 20
159.808600
 30
0.0
 10
57.456241
 20
159.762000
 30
0.0
 10
57.514801
 20
159.762000
 30
0.0
  0
LINE
  5
407
100
AcDbEntity
  8
Layer_1
 62
1
100
AcDbLine
 10
57.514801
 20
159.762000
 30
0.0
 11
60.514801
 21
159.762000
 31
0.0
  0
SPLINE
  5
408
100
AcDbEntity
  8
Layer_1
 62
1
100
AcDbSpline
 70
8
 71
3
 72
8
 73
4
 74
0
 40
0
 40
0
 40
0
 40
0
 40
1
 40
1
 40
1
 40
1
 10
60.514801
 20
159.762000
 30
0.0
 10
60.460101
 20
159.762000
 30
0.0
 10
60.413241
 20
159.805000
 30
0.0
 10
60.413241
 20
159.863600
 30
0.0
  0
LINE
  5
409
100
AcDbEntity
  8
Layer_1
 62
1
100
AcDbLine
 10
60.413241
 20
159.863600
 30
0.0
 11
60.413241
 21
153.863600
 31
0.0
  0
SPLINE
  5
40a
100
AcDbEntity
  8
Layer_1
 62
1
100
AcDbSpline
 70
8
 71
3
 72
8
 73
4
 74
0
 40
0
 40
0
 40
0
 40
0
 40
1
 40
1
 40
1
 40
1
 10
60.413241
 20
153.863600
 30
0.0
 10
60.413241
 20
153.918600
 30
0.0
 10
60.456241
 20
153.965200
 30
0.0
 10
60.514801
 20
153.965200
 30
0.0
  0
LINE
  5
40b
100
AcDbEntity
  8
Layer_1
 62
1
100
AcDbLine
 10
60.514801
 20
153.965200
 30
0.0
 11
57.514801
 21
153.965200
 31
0.0
  0
SPLINE
  5
40c
100
AcDbEntity
  8
Layer_1
 62
1
100
AcDbSpline
 70
8
 71
3
 72
8
 73
4
 74
0
 40
0
 40
0
 40
0
 40
0
 40
1
 40
1
 40
1
 40
1
 10
57.514801
 20
153.965200
 30
0.0
 10
57.460101
 20
153.965200
 30
0.0
 10
57.413241
 20
153.922200
 30
0.0
 10
57.413241
 20
153.863600
 30
0.0
  0
LINE
  5
40d
100
AcDbEntity
  8
Layer_1
 62
1
100
AcDbLine
 10
57.413241
 20
153.863600
 30
0.0
 11
57.413241
 21
147.863600
 31
0.0
  0
SPLINE
  5
40e
100
AcDbEntity
  8
Layer_1
 62
1
100
AcDbSpline
 70
8
 71
3
 72
8
 73
4
 74
0
 40
0
 40
0
 40
0
 40
0
 40
1
 40
1
 40
1
 40
1
 10
57.413241
 20
147.863600
 30
0.0
 10
57.413241
 20
147.808600
 30
0.0
 10
57.456241
 20
147.762000
 30
0.0
 10
57.514801
 20
147.762000
 30
0.0
  0
LINE
  5
40f
100
AcDbEntity
  8
Layer_1
 62
1
100
AcDbLine
 10
57.514801
 20
147.762000
 30
0.0
 11
60.514801
 21
147.762000
 31
0.0
  0
SPLINE
  5
410
100
AcDbEntity
  8
Layer_1
 62
1
100
AcDbSpline
 70
8
 71
3
 72
8
 73
4
 74
0
 40
0
 40
0
 40
0
 40
0
 40
1
 40
1
 40
1
 40
1
 10
60.514801
 20
147.762000
 30
0.0
 10
60.460101
 20
147.762000
 30
0.0
 10
60.413241
 20
147.805000
 30
0.0
 10
60.413241
 20
147.863600
 30
0.0
  0
LINE
  5
411
100
AcDbEntity
  8
Layer_1
 62
1
100
AcDbLine
 10
60.413241
 20
147.863600
 30
0.0
 11
60.413241
 21
141.863600
 31
0.0
  0
SPLINE
  5
412
100
AcDbEntity
  8
Layer_1
 62
1
100
AcDbSpline
 70
8
 71
3
 72
8
 73
4
 74
0
 40
0
 40
0
 40
0
 40
0
 40
1
 40
1
 40
1
 40
1
 10
60.413241
 20
141.863600
 30
0.0
 10
60.413241
 20
141.918600
 30
0.0
 10
60.456241
 20
141.965200
 30
0.0
 10
60.514801
 20
141.965200
 30
0.0
  0
LINE
  5
413
100
AcDbEntity
  8
Layer_1
 62
1
100
AcDbLine
 10
60.514801
 20
141.965200
 30
0.0
 11
57.514801
 21
141.965200
 31
0.0
  0
SPLINE
  5
414
100
AcDbEntity
  8
Layer_1
 62
1
100
AcDbSpline
 70
8
 71
3
 72
8
 73
4
 74
0
 40
0
 40
0
 40
0
 40
0
 40
1
 40
1
 40
1
 40
1
 10
57.514801
 20
141.965200
 30
0.0
 10
57.460101
 20
141.965200
 30
0.0
 10
57.413241
 20
141.922200
 30
0.0
 10
57.413241
 20
141.863600
 30
0.0
  0
LINE
  5
415
100
AcDbEntity
  8
Layer_1
 62
1
100
AcDbLine
 10
57.413241
 20
141.863600
 30
0.0
 11
57.413241
 21
135.863600
 31
0.0
  0
SPLINE
  5
416
100
AcDbEntity
  8
Layer_1
 62
1
100
AcDbSpline
 70
8
 71
3
 72
8
 73
4
 74
0
 40
0
 40
0
 40
0
 40
0
 40
1
 40
1
 40
1
 40
1
 10
57.413241
 20
135.863600
 30
0.0
 10
57.413241
 20
135.808600
 30
0.0
 10
57.456241
 20
135.762000
 30
0.0
 10
57.514801
 20
135.762000
 30
0.0
  0
LINE
  5
417
100
AcDbEntity
  8
Layer_1
 62
1
100
AcDbLine
 10
57.514801
 20
135.762000
 30
0.0
 11
60.514801
 21
135.762000
 31
0.0
  0
SPLINE
  5
418
100
AcDbEntity
  8
Layer_1
 62
1
100
AcDbSpline
 70
8
 71
3
 72
8
 73
4
 74
0
 40
0
 40
0
 40
0
 40
0
 40
1
 40
1
 40
1
 40
1
 10
60.514801
 20
135.762000
 30
0.0
 10
60.460101
 20
135.762000
 30
0.0
 10
60.413241
 20
135.805000
 30
0.0
 10
60.413241
 20
135.863600
 30
0.0
  0
LINE
  5
419
100
AcDbEntity
  8
Layer_1
 62
1
100
AcDbLine
 10
60.413241
 20
135.863600
 30
0.0
 11
60.413241
 21
129.863600
 31
0.0
  0
SPLINE
  5
41a
100
AcDbEntity
  8
Layer_1
 62
1
100
AcDbSpline
 70
8
 71
3
 72
8
 73
4
 74
0
 40
0
 40
0
 40
0
 40
0
 40
1
 40
1
 40
1
 40
1
 10
60.413241
 20
129.863600
 30
0.0
 10
60.413241
 20
129.918600
 30
0.0
 10
60.456241
 20
129.965200
 30
0.0
 10
60.514801
 20
129.965200
 30
0.0
  0
LINE
  5
41b
100
AcDbEntity
  8
Layer_1
 62
1
100
AcDbLine
 10
60.514801
 20
129.965200
 30
0.0
 11
57.514801
 21
129.965200
 31
0.0
  0
SPLINE
  5
41c
100
AcDbEntity
  8
Layer_1
 62
1
100
AcDbSpline
 70
8
 71
3
 72
8
 73
4
 74
0
 40
0
 40
0
 40
0
 40
0
 40
1
 40
1
 40
1
 40
1
 10
57.514801
 20
129.965200
 30
0.0
 10
57.460101
 20
129.965200
 30
0.0
 10
57.413241
 20
129.922200
 30
0.0
 10
57.413241
 20
129.863600
 30
0.0
  0
LINE
  5
41d
100
AcDbEntity
  8
Layer_1
 62
1
100
AcDbLine
 10
57.413241
 20
129.863600
 30
0.0
 11
57.413241
 21
123.863600
 31
0.0
  0
SPLINE
  5
41e
100
AcDbEntity
  8
Layer_1
 62
1
100
AcDbSpline
 70
8
 71
3
 72
8
 73
4
 74
0
 40
0
 40
0
 40
0
 40
0
 40
1
 40
1
 40
1
 40
1
 10
57.413241
 20
123.863600
 30
0.0
 10
57.413241
 20
123.808600
 30
0.0
 10
57.456241
 20
123.762000
 30
0.0
 10
57.514801
 20
123.762000
 30
0.0
  0
LINE
  5
41f
100
AcDbEntity
  8
Layer_1
 62
1
100
AcDbLine
 10
57.514801
 20
123.762000
 30
0.0
 11
60.514801
 21
123.762000
 31
0.0
  0
SPLINE
  5
420
100
AcDbEntity
  8
Layer_1
 62
1
100
AcDbSpline
 70
8
 71
3
 72
8
 73
4
 74
0
 40
0
 40
0
 40
0
 40
0
 40
1
 40
1
 40
1
 40
1
 10
60.514801
 20
123.762000
 30
0.0
 10
60.460101
 20
123.762000
 30
0.0
 10
60.413241
 20
123.805000
 30
0.0
 10
60.413241
 20
123.863600
 30
0.0
  0
LINE
  5
421
100
AcDbEntity
  8
Layer_1
 62
1
100
AcDbLine
 10
60.413241
 20
123.863600
 30
0.0
 11
60.413241
 21
117.863600
 31
0.0
  0
SPLINE
  5
422
100
AcDbEntity
  8
Layer_1
 62
1
100
AcDbSpline
 70
8
 71
3
 72
8
 73
4
 74
0
 40
0
 40
0
 40
0
 40
0
 40
1
 40
1
 40
1
 40
1
 10
60.413241
 20
117.863600
 30
0.0
 10
60.413241
 20
117.918600
 30
0.0
 10
60.456241
 20
117.965200
 30
0.0
 10
60.514801
 20
117.965200
 30
0.0
  0
LINE
  5
423
100
AcDbEntity
  8
Layer_1
 62
1
100
AcDbLine
 10
60.514801
 20
117.965200
 30
0.0
 11
57.514801
 21
117.965200
 31
0.0
  0
SPLINE
  5
424
100
AcDbEntity
  8
Layer_1
 62
1
100
AcDbSpline
 70
8
 71
3
 72
8
 73
4
 74
0
 40
0
 40
0
 40
0
 40
0
 40
1
 40
1
 40
1
 40
1
 10
57.514801
 20
117.965200
 30
0.0
 10
57.460101
 20
117.965200
 30
0.0
 10
57.413241
 20
117.922200
 30
0.0
 10
57.413241
 20
117.863600
 30
0.0
  0
LINE
  5
425
100
AcDbEntity
  8
Layer_1
 62
1
100
AcDbLine
 10
57.413241
 20
117.863600
 30
0.0
 11
57.413241
 21
111.863600
 31
0.0
  0
SPLINE
  5
426
100
AcDbEntity
  8
Layer_1
 62
1
100
AcDbSpline
 70
8
 71
3
 72
8
 73
4
 74
0
 40
0
 40
0
 40
0
 40
0
 40
1
 40
1
 40
1
 40
1
 10
57.413241
 20
111.863600
 30
0.0
 10
57.413241
 20
111.808600
 30
0.0
 10
57.456241
 20
111.762000
 30
0.0
 10
57.514801
 20
111.762000
 30
0.0
  0
LINE
  5
427
100
AcDbEntity
  8
Layer_1
 62
1
100
AcDbLine
 10
57.514801
 20
111.762000
 30
0.0
 11
60.514801
 21
111.762000
 31
0.0
  0
SPLINE
  5
428
100
AcDbEntity
  8
Layer_1
 62
1
100
AcDbSpline
 70
8
 71
3
 72
8
 73
4
 74
0
 40
0
 40
0
 40
0
 40
0
 40
1
 40
1
 40
1
 40
1
 10
60.514801
 20
111.762000
 30
0.0
 10
60.460101
 20
111.762000
 30
0.0
 10
60.413241
 20
111.805000
 30
0.0
 10
60.413241
 20
111.863600
 30
0.0
  0
LINE
  5
429
100
AcDbEntity
  8
Layer_1
 62
1
100
AcDbLine
 10
60.413241
 20
111.863600
 30
0.0
 11
60.413241
 21
105.863590
 31
0.0
  0
SPLINE
  5
42a
100
AcDbEntity
  8
Layer_1
 62
1
100
AcDbSpline
 70
8
 71
3
 72
8
 73
4
 74
0
 40
0
 40
0
 40
0
 40
0
 40
1
 40
1
 40
1
 40
1
 10
60.413241
 20
105.863590
 30
0.0
 10
60.413241
 20
105.918590
 30
0.0
 10
60.456241
 20
105.965190
 30
0.0
 10
60.514801
 20
105.965190
 30
0.0
  0
LINE
  5
42b
100
AcDbEntity
  8
Layer_1
 62
1
100
AcDbLine
 10
60.514801
 20
105.965190
 30
0.0
 11
57.514801
 21
105.965190
 31
0.0
  0
SPLINE
  5
42c
100
AcDbEntity
  8
Layer_1
 62
1
100
AcDbSpline
 70
8
 71
3
 72
8
 73
4
 74
0
 40
0
 40
0
 40
0
 40
0
 40
1
 40
1
 40
1
 40
1
 10
57.514801
 20
105.965190
 30
0.0
 10
57.460101
 20
105.965190
 30
0.0
 10
57.413241
 20
105.922190
 30
0.0
 10
57.413241
 20
105.863590
 30
0.0
  0
LINE
  5
42d
100
AcDbEntity
  8
Layer_1
 62
1
100
AcDbLine
 10
57.413241
 20
105.863590
 30
0.0
 11
57.413241
 21
99.863600
 31
0.0
  0
SPLINE
  5
42e
100
AcDbEntity
  8
Layer_1
 62
1
100
AcDbSpline
 70
8
 71
3
 72
8
 73
4
 74
0
 40
0
 40
0
 40
0
 40
0
 40
1
 40
1
 40
1
 40
1
 10
57.413241
 20
99.863600
 30
0.0
 10
57.413241
 20
99.808600
 30
0.0
 10
57.456241
 20
99.762000
 30
0.0
 10
57.514801
 20
99.762000
 30
0.0
  0
LINE
  5
42f
100
AcDbEntity
  8
Layer_1
 62
1
100
AcDbLine
 10
57.514801
 20
99.762000
 30
0.0
 11
60.514801
 21
99.762000
 31
0.0
  0
SPLINE
  5
430
100
AcDbEntity
  8
Layer_1
 62
1
100
AcDbSpline
 70
8
 71
3
 72
8
 73
4
 74
0
 40
0
 40
0
 40
0
 40
0
 40
1
 40
1
 40
1
 40
1
 10
60.514801
 20
99.762000
 30
0.0
 10
60.460101
 20
99.762000
 30
0.0
 10
60.413241
 20
99.805000
 30
0.0
 10
60.413241
 20
99.863600
 30
0.0
  0
LINE
  5
431
100
AcDbEntity
  8
Layer_1
 62
1
100
AcDbLine
 10
60.413241
 20
99.863600
 30
0.0
 11
60.413241
 21
93.863590
 31
0.0
  0
SPLINE
  5
432
100
AcDbEntity
  8
Layer_1
 62
1
100
AcDbSpline
 70
8
 71
3
 72
8
 73
4
 74
0
 40
0
 40
0
 40
0
 40
0
 40
1
 40
1
 40
1
 40
1
 10
60.413241
 20
93.863590
 30
0.0
 10
60.413241
 20
93.918590
 30
0.0
 10
60.456241
 20
93.965190
 30
0.0
 10
60.514801
 20
93.965190
 30
0.0
  0
LINE
  5
433
100
AcDbEntity
  8
Layer_1
 62
1
100
AcDbLine
 10
60.514801
 20
93.965190
 30
0.0
 11
57.514801
 21
93.965190
 31
0.0
  0
SPLINE
  5
434
100
AcDbEntity
  8
Layer_1
 62
1
100
AcDbSpline
 70
8
 71
3
 72
8
 73
4
 74
0
 40
0
 40
0
 40
0
 40
0
 40
1
 40
1
 40
1
 40
1
 10
57.514801
 20
93.965190
 30
0.0
 10
57.460101
 20
93.965190
 30
0.0
 10
57.413241
 20
93.922190
 30
0.0
 10
57.413241
 20
93.863590
 30
0.0
  0
LINE
  5
435
100
AcDbEntity
  8
Layer_1
 62
1
100
AcDbLine
 10
57.413241
 20
93.863590
 30
0.0
 11
57.413241
 21
87.863600
 31
0.0
  0
LINE
  5
436
100
AcDbEntity
  8
Layer_1
 62
1
100
AcDbLine
 10
57.413241
 20
87.863600
 30
0.0
 11
64.490481
 21
87.866600
 31
0.0
  0
SPLINE
  5
437
100
AcDbEntity
  8
Layer_1
 62
1
100
AcDbSpline
 70
8
 71
3
 72
8
 73
4
 74
0
 40
0
 40
0
 40
0
 40
0
 40
1
 40
1
 40
1
 40
1
 10
64.490481
 20
87.866600
 30
0.0
 10
65.669921
 20
87.869600
 30
0.0
 10
66.621811
 20
88.821320
 30
0.0
 10
66.619221
 20
90.000740
 30
0.0
  0
LINE
  5
438
100
AcDbEntity
  8
Layer_1
 62
1
100
AcDbLine
 10
66.619221
 20
90.000740
 30
0.0
 11
66.621221
 21
127.716260
 31
0.0
  0
SPLINE
  5
439
100
AcDbEntity
  8
Layer_1
 62
1
100
AcDbSpline
 70
8
 71
3
 72
8
 73
4
 74
0
 40
0
 40
0
 40
0
 40
0
 40
1
 40
1
 40
1
 40
1
 10
66.621221
 20
127.716260
 30
0.0
 10
66.626221
 20
128.669280
 30
0.0
 10
67.304731
 20
129.502220
 30
0.0
 10
68.220121
 20
129.754430
 30
0.0
  0
SPLINE
  5
43a
100
AcDbEntity
  8
Layer_1
 62
1
100
AcDbSpline
 70
8
 71
3
 72
8
 73
4
 74
0
 40
0
 40
0
 40
0
 40
0
 40
1
 40
1
 40
1
 40
1
 10
68.220121
 20
129.754430
 30
0.0
 10
71.705931
 20
130.584630
 30
0.0
 10
74.304641
 20
133.713830
 30
0.0
 10
74.304641
 20
137.450010
 30
0.0
  0
LINE
  5
43b
100
AcDbEntity
  8
Layer_1
 62
1
100
AcDbLine
 10
74.304641
 20
137.450010
 30
0.0
 11
74.304641
 21
211.062017
 31
0.0
  0
SPLINE
  5
43c
100
AcDbEntity
  8
Layer_1
 62
1
100
AcDbSpline
 70
8
 71
3
 72
8
 73
4
 74
0
 40
0
 40
0
 40
0
 40
0
 40
1
 40
1
 40
1
 40
1
 10
74.304641
 20
211.062017
 30
0.0
 10
74.304641
 20
214.796857
 30
0.0
 10
71.707771
 20
217.925175
 30
0.0
 10
68.221161
 20
218.739835
 30
0.0
  0
SPLINE
  5
43d
100
AcDbEntity
  8
Layer_1
 62
1
100
AcDbSpline
 70
8
 71
3
 72
8
 73
4
 74
0
 40
0
 40
0
 40
0
 40
0
 40
1
 40
1
 40
1
 40
1
 10
68.221161
 20
218.739835
 30
0.0
 10
67.303111
 20
218.975145
 30
0.0
 10
66.624521
 20
219.808086
 30
0.0
 10
66.620411
 20
220.765285
 30
0.0
  0
LINE
  5
43e
100
AcDbEntity
  8
Layer_1
 62
1
100
AcDbLine
 10
66.620411
 20
220.765285
 30
0.0
 11
66.592811
 21
259.720756
 31
0.0
  0
SPLINE
  5
43f
100
AcDbEntity
  8
Layer_1
 62
1
100
AcDbSpline
 70
8
 71
3
 72
8
 73
4
 74
0
 40
0
 40
0
 40
0
 40
0
 40
1
 40
1
 40
1
 40
1
 10
66.592811
 20
259.720756
 30
0.0
 10
66.585811
 20
260.886646
 30
0.0
 10
65.633691
 20
261.838536
 30
0.0
 10
64.454611
 20
261.844756
 30
0.0
  0
LINE
  5
440
100
AcDbEntity
  8
Layer_1
 62
1
100
AcDbLine
 10
64.454611
 20
261.844756
 30
0.0
 11
57.413181
 21
261.863756
 31
0.0
  0
LINE
  5
441
100
AcDbEntity
  8
Layer_1
 62
1
100
AcDbLine
 10
57.413181
 20
261.863756
 30
0.0
 11
57.413181
 21
255.863756
 31
0.0
  0
SPLINE
  5
442
100
AcDbEntity
  8
Layer_1
 62
1
100
AcDbSpline
 70
8
 71
3
 72
8
 73
4
 74
0
 40
0
 40
0
 40
0
 40
0
 40
1
 40
1
 40
1
 40
1
 10
57.413181
 20
255.863756
 30
0.0
 10
57.413181
 20
255.808756
 30
0.0
 10
57.456181
 20
255.762156
 30
0.0
 10
57.514741
 20
255.762156
 30
0.0
  0
ENDSEC
  0
SECTION
  2
OBJECTS
  0
DICTIONARY
  5
C
330
0
100
AcDbDictionary
  3
ACAD_GROUP
350
D
  3
ACAD_MLINESTYLE
350
17
  0
DICTIONARY
  5
D
330
C
100
AcDbDictionary
  0
DICTIONARY
  5
1A
330
C
100
AcDbDictionary
  0
DICTIONARY
  5
17
330
C
100
AcDbDictionary
  3
STANDARD
350
18
  0
DICTIONARY
  5
19
330
C
100
AcDbDictionary
  0
ENDSEC
  0
EOF
