  0
SECTION
  2
HEADER
  9
$ACADVER
  1
AC1015
  9
$ACADMAINTVER
 70
     6
  9
$DWGCODEPAGE
  3
ANSI_932
  9
$INSBASE
 10
0.0
 20
0.0
 30
0.0
  9
$EXTMIN
 10
1.000000000000000E+20
 20
1.000000000000000E+20
 30
1.000000000000000E+20
  9
$EXTMAX
 10
-1.000000000000000E+20
 20
-1.000000000000000E+20
 30
-1.000000000000000E+20
  9
$LIMMIN
 10
0.0
 20
0.0
  9
$LIMMAX
 10
12.0
 20
9.0
  9
$ORTHOMODE
 70
     0
  9
$REGENMODE
 70
     1
  9
$FILLMODE
 70
     1
  9
$QTEXTMODE
 70
     0
  9
$MIRRTEXT
 70
     1
  9
$LTSCALE
 40
1.0
  9
$ATTMODE
 70
     1
  9
$TEXTSIZE
 40
0.2
  9
$TRACEWID
 40
0.05
  9
$TEXTSTYLE
  7
Standard
  9
$CLAYER
  8
0
  9
$CELTYPE
  6
ByLayer
  9
$CECOLOR
 62
   256
  9
$CELTSCALE
 40
1.0
  9
$DISPSILH
 70
     0
  9
$DIMSCALE
 40
1.0
  9
$DIMASZ
 40
0.18
  9
$DIMEXO
 40
0.0625
  9
$DIMDLI
 40
0.38
  9
$DIMRND
 40
0.0
  9
$DIMDLE
 40
0.0
  9
$DIMEXE
 40
0.18
  9
$DIMTP
 40
0.0
  9
$DIMTM
 40
0.0
  9
$DIMTXT
 40
0.18
  9
$DIMCEN
 40
0.09
  9
$DIMTSZ
 40
0.0
  9
$DIMTOL
 70
     0
  9
$DIMLIM
 70
     0
  9
$DIMTIH
 70
     1
  9
$DIMTOH
 70
     1
  9
$DIMSE1
 70
     0
  9
$DIMSE2
 70
     0
  9
$DIMTAD
 70
     0
  9
$DIMZIN
 70
     0
  9
$DIMBLK
  1

  9
$DIMASO
 70
     1
  9
$DIMSHO
 70
     1
  9
$DIMPOST
  1

  9
$DIMAPOST
  1

  9
$DIMALT
 70
     0
  9
$DIMALTD
 70
     2
  9
$DIMALTF
 40
25.4
  9
$DIMLFAC
 40
1.0
  9
$DIMTOFL
 70
     0
  9
$DIMTVP
 40
0.0
  9
$DIMTIX
 70
     0
  9
$DIMSOXD
 70
     0
  9
$DIMSAH
 70
     0
  9
$DIMBLK1
  1

  9
$DIMBLK2
  1

  9
$DIMSTYLE
  2
Standard
  9
$DIMCLRD
 70
     0
  9
$DIMCLRE
 70
     0
  9
$DIMCLRT
 70
     0
  9
$DIMTFAC
 40
1.0
  9
$DIMGAP
 40
0.09
  9
$DIMJUST
 70
     0
  9
$DIMSD1
 70
     0
  9
$DIMSD2
 70
     0
  9
$DIMTOLJ
 70
     1
  9
$DIMTZIN
 70
     0
  9
$DIMALTZ
 70
     0
  9
$DIMALTTZ
 70
     0
  9
$DIMUPT
 70
     0
  9
$DIMDEC
 70
     4
  9
$DIMTDEC
 70
     4
  9
$DIMALTU
 70
     2
  9
$DIMALTTD
 70
     2
  9
$DIMTXSTY
  7
Standard
  9
$DIMAUNIT
 70
     0
  9
$DIMADEC
 70
     0
  9
$DIMALTRND
 40
0.0
  9
$DIMAZIN
 70
     0
  9
$DIMDSEP
 70
    46
  9
$DIMATFIT
 70
     3
  9
$DIMFRAC
 70
     0
  9
$DIMLDRBLK
  1

  9
$DIMLUNIT
 70
     2
  9
$DIMLWD
 70
    -2
  9
$DIMLWE
 70
    -2
  9
$DIMTMOVE
 70
     0
  9
$LUNITS
 70
     2
  9
$LUPREC
 70
     4
  9
$SKETCHINC
 40
0.1
  9
$FILLETRAD
 40
0.5
  9
$AUNITS
 70
     0
  9
$AUPREC
 70
     0
  9
$MENU
  1
.
  9
$ELEVATION
 40
0.0
  9
$PELEVATION
 40
0.0
  9
$THICKNESS
 40
0.0
  9
$LIMCHECK
 70
     0
  9
$CHAMFERA
 40
0.5
  9
$CHAMFERB
 40
0.5
  9
$CHAMFERC
 40
1.0
  9
$CHAMFERD
 40
0.0
  9
$SKPOLY
 70
     0
  9
$TDCREATE
 40
2458821.396481481
  9
$TDUCREATE
 40
2458821.354814815
  9
$TDUPDATE
 40
2458821.396481493
  9
$TDUUPDATE
 40
2458821.354814827
  9
$TDINDWG
 40
0.0000000116
  9
$TDUSRTIMER
 40
0.0000000116
  9
$USRTIMER
 70
     1
  9
$ANGBASE
 50
0.0
  9
$ANGDIR
 70
     0
  9
$PDMODE
 70
     0
  9
$PDSIZE
 40
0.0
  9
$PLINEWID
 40
0.0
  9
$SPLFRAME
 70
     0
  9
$SPLINETYPE
 70
     6
  9
$SPLINESEGS
 70
     8
  9
$HANDSEED
  5
3C3
  9
$SURFTAB1
 70
     6
  9
$SURFTAB2
 70
     6
  9
$SURFTYPE
 70
     6
  9
$SURFU
 70
     6
  9
$SURFV
 70
     6
  9
$UCSBASE
  2

  9
$UCSNAME
  2

  9
$UCSORG
 10
0.0
 20
0.0
 30
0.0
  9
$UCSXDIR
 10
1.0
 20
0.0
 30
0.0
  9
$UCSYDIR
 10
0.0
 20
1.0
 30
0.0
  9
$UCSORTHOREF
  2

  9
$UCSORTHOVIEW
 70
     0
  9
$UCSORGTOP
 10
0.0
 20
0.0
 30
0.0
  9
$UCSORGBOTTOM
 10
0.0
 20
0.0
 30
0.0
  9
$UCSORGLEFT
 10
0.0
 20
0.0
 30
0.0
  9
$UCSORGRIGHT
 10
0.0
 20
0.0
 30
0.0
  9
$UCSORGFRONT
 10
0.0
 20
0.0
 30
0.0
  9
$UCSORGBACK
 10
0.0
 20
0.0
 30
0.0
  9
$PUCSBASE
  2

  9
$PUCSNAME
  2

  9
$PUCSORG
 10
0.0
 20
0.0
 30
0.0
  9
$PUCSXDIR
 10
1.0
 20
0.0
 30
0.0
  9
$PUCSYDIR
 10
0.0
 20
1.0
 30
0.0
  9
$PUCSORTHOREF
  2

  9
$PUCSORTHOVIEW
 70
     0
  9
$PUCSORGTOP
 10
0.0
 20
0.0
 30
0.0
  9
$PUCSORGBOTTOM
 10
0.0
 20
0.0
 30
0.0
  9
$PUCSORGLEFT
 10
0.0
 20
0.0
 30
0.0
  9
$PUCSORGRIGHT
 10
0.0
 20
0.0
 30
0.0
  9
$PUCSORGFRONT
 10
0.0
 20
0.0
 30
0.0
  9
$PUCSORGBACK
 10
0.0
 20
0.0
 30
0.0
  9
$USERI1
 70
     0
  9
$USERI2
 70
     0
  9
$USERI3
 70
     0
  9
$USERI4
 70
     0
  9
$USERI5
 70
     0
  9
$USERR1
 40
0.0
  9
$USERR2
 40
0.0
  9
$USERR3
 40
0.0
  9
$USERR4
 40
0.0
  9
$USERR5
 40
0.0
  9
$WORLDVIEW
 70
     1
  9
$SHADEDGE
 70
     3
  9
$SHADEDIF
 70
    70
  9
$TILEMODE
 70
     1
  9
$MAXACTVP
 70
    64
  9
$PINSBASE
 10
0.0
 20
0.0
 30
0.0
  9
$PLIMCHECK
 70
     0
  9
$PEXTMIN
 10
1.000000000000000E+20
 20
1.000000000000000E+20
 30
1.000000000000000E+20
  9
$PEXTMAX
 10
-1.000000000000000E+20
 20
-1.000000000000000E+20
 30
-1.000000000000000E+20
  9
$PLIMMIN
 10
0.0
 20
0.0
  9
$PLIMMAX
 10
12.0
 20
9.0
  9
$UNITMODE
 70
     0
  9
$VISRETAIN
 70
     1
  9
$PLINEGEN
 70
     0
  9
$PSLTSCALE
 70
     1
  9
$TREEDEPTH
 70
  3020
  9
$CMLSTYLE
  2
Standard
  9
$CMLJUST
 70
     0
  9
$CMLSCALE
 40
1.0
  9
$PROXYGRAPHICS
 70
     1
  9
$MEASUREMENT
 70
     0
  9
$CELWEIGHT
370
    -1
  9
$ENDCAPS
280
     0
  9
$JOINSTYLE
280
     0
  9
$LWDISPLAY
290
     1
  9
$INSUNITS
 70
     1
  9
$HYPERLINKBASE
  1

  9
$STYLESHEET
  1

  9
$XEDIT
290
     1
  9
$CEPSNTYPE
380
     0
  9
$PSTYLEMODE
290
     1
  9
$FINGERPRINTGUID
  2
{708ADC0E-5F12-5AD0-7DE8-3B2240E3E4A8}
  9
$VERSIONGUID
  2
{FAEB1C32-E019-11D5-929B-00C0DF256EC4}
  9
$EXTNAMES
290
     1
  9
$PSVPSCALE
 40
0.0
  9
$OLESTARTUP
290
     0
  0
ENDSEC
  0
SECTION
  2
CLASSES
  0
CLASS
  1
ACDBDICTIONARYWDFLT
  2
AcDbDictionaryWithDefault
  3
ObjectDBX Classes
 90
        0
280
     0
281
     0
  0
CLASS
  1
VISUALSTYLE
  2
AcDbVisualStyle
  3
ObjectDBX Classes
 90
     4095
280
     0
281
     0
  0
CLASS
  1
ACDBPLACEHOLDER
  2
AcDbPlaceHolder
  3
ObjectDBX Classes
 90
        0
280
     0
281
     0
  0
CLASS
  1
LAYOUT
  2
AcDbLayout
  3
ObjectDBX Classes
 90
        0
280
     0
281
     0
  0
ENDSEC
  0
SECTION
  2
TABLES
  0
TABLE
  2
VPORT
  5
8
330
0
100
AcDbSymbolTable
 70
     1
  0
VPORT
  5
29
330
8
100
AcDbSymbolTableRecord
100
AcDbViewportTableRecord
  2
*Active
 70
     0
 10
0.0
 20
0.0
 11
1.0
 21
1.0
 12
0.0
 22
0.0
 13
0.0
 23
0.0
 14
0.5
 24
0.5
 15
0.5
 25
0.5
 16
0.0
 26
0.0
 36
1.0
 17
210.391636774659
 27
-148.5917914125048
 37
0.0
 40
280.2502494959097
 41
0.6253337529318628
 42
50.0
 43
0.0
 44
0.0
 50
0.0
 51
0.0
 71
     0
 72
   100
 73
     1
 74
     3
 75
     0
 76
     0
 77
     0
 78
     0
281
     0
 65
     1
110
0.0
120
0.0
130
0.0
111
1.0
121
0.0
131
0.0
112
0.0
122
1.0
132
0.0
 79
     0
146
0.0
  0
ENDTAB
  0
TABLE
  2
LTYPE
  5
5
330
0
100
AcDbSymbolTable
 70
     1
  0
LTYPE
  5
14
330
5
100
AcDbSymbolTableRecord
100
AcDbLinetypeTableRecord
  2
ByBlock
 70
     0
  3

 72
    65
 73
     0
 40
0.0
  0
LTYPE
  5
15
330
5
100
AcDbSymbolTableRecord
100
AcDbLinetypeTableRecord
  2
ByLayer
 70
     0
  3

 72
    65
 73
     0
 40
0.0
  0
LTYPE
  5
16
330
5
100
AcDbSymbolTableRecord
100
AcDbLinetypeTableRecord
  2
Continuous
 70
     0
  3
Solid line
 72
    65
 73
     0
 40
0.0
  0
ENDTAB
  0
TABLE
  2
LAYER
  5
2
330
0
100
AcDbSymbolTable
 70
     3
  0
LAYER
  5
10
330
2
100
AcDbSymbolTableRecord
100
AcDbLayerTableRecord
  2
0
 70
     0
 62
     7
  6
Continuous
370
    -3
390
F
  0
LAYER
  5
3B
330
2
100
AcDbSymbolTableRecord
100
AcDbLayerTableRecord
  2
Ebene 1
 70
     0
 62
     7
  6
Continuous
370
    -3
390
F
  0
LAYER
  5
3C0
330
2
100
AcDbSymbolTableRecord
100
AcDbLayerTableRecord
  2
Ebene 2
 70
     0
 62
     7
  6
Continuous
370
    -3
390
F
  0
ENDTAB
  0
TABLE
  2
STYLE
  5
3
330
0
100
AcDbSymbolTable
 70
     1
  0
STYLE
  5
11
330
3
100
AcDbSymbolTableRecord
100
AcDbTextStyleTableRecord
  2
Standard
 70
     0
 40
0.0
 41
1.0
 50
0.0
 71
     0
 42
0.2
  3
txt
  4

  0
ENDTAB
  0
TABLE
  2
VIEW
  5
6
330
0
100
AcDbSymbolTable
 70
     0
  0
ENDTAB
  0
TABLE
  2
UCS
  5
7
330
0
100
AcDbSymbolTable
 70
     0
  0
ENDTAB
  0
TABLE
  2
APPID
  5
9
330
0
100
AcDbSymbolTable
 70
     1
  0
APPID
  5
12
330
9
100
AcDbSymbolTableRecord
100
AcDbRegAppTableRecord
  2
ACAD
 70
     0
  0
ENDTAB
  0
TABLE
  2
DIMSTYLE
  5
A
330
0
100
AcDbSymbolTable
 70
     1
100
AcDbDimStyleTable
  0
DIMSTYLE
105
27
330
A
100
AcDbSymbolTableRecord
100
AcDbDimStyleTableRecord
  2
Standard
 70
     0
340
11
  0
ENDTAB
  0
TABLE
  2
BLOCK_RECORD
  5
1
330
0
100
AcDbSymbolTable
 70
   109
  0
BLOCK_RECORD
  5
1F
330
1
100
AcDbSymbolTableRecord
100
AcDbBlockTableRecord
  2
*Model_Space
340
22
  0
BLOCK_RECORD
  5
1B
330
1
100
AcDbSymbolTableRecord
100
AcDbBlockTableRecord
  2
*Paper_Space
340
1E
  0
BLOCK_RECORD
  5
23
330
1
100
AcDbSymbolTableRecord
100
AcDbBlockTableRecord
  2
*Paper_Space0
340
26
  0
BLOCK_RECORD
  5
3C
330
1
100
AcDbSymbolTableRecord
100
AcDbBlockTableRecord
  2
block 2
340
0
102
{BLKREFS
331
3D
102
}
  0
BLOCK_RECORD
  5
47
330
1
100
AcDbSymbolTableRecord
100
AcDbBlockTableRecord
  2
block 3
340
0
102
{BLKREFS
331
48
102
}
  0
BLOCK_RECORD
  5
52
330
1
100
AcDbSymbolTableRecord
100
AcDbBlockTableRecord
  2
block 4
340
0
102
{BLKREFS
331
53
102
}
  0
BLOCK_RECORD
  5
5D
330
1
100
AcDbSymbolTableRecord
100
AcDbBlockTableRecord
  2
block 5
340
0
102
{BLKREFS
331
5E
102
}
  0
BLOCK_RECORD
  5
68
330
1
100
AcDbSymbolTableRecord
100
AcDbBlockTableRecord
  2
block 6
340
0
102
{BLKREFS
331
69
102
}
  0
BLOCK_RECORD
  5
73
330
1
100
AcDbSymbolTableRecord
100
AcDbBlockTableRecord
  2
block 7
340
0
102
{BLKREFS
331
74
102
}
  0
BLOCK_RECORD
  5
7E
330
1
100
AcDbSymbolTableRecord
100
AcDbBlockTableRecord
  2
block 8
340
0
102
{BLKREFS
331
7F
102
}
  0
BLOCK_RECORD
  5
89
330
1
100
AcDbSymbolTableRecord
100
AcDbBlockTableRecord
  2
block 9
340
0
102
{BLKREFS
331
8A
102
}
  0
BLOCK_RECORD
  5
94
330
1
100
AcDbSymbolTableRecord
100
AcDbBlockTableRecord
  2
block 10
340
0
102
{BLKREFS
331
95
102
}
  0
BLOCK_RECORD
  5
9F
330
1
100
AcDbSymbolTableRecord
100
AcDbBlockTableRecord
  2
block 11
340
0
102
{BLKREFS
331
A0
102
}
  0
BLOCK_RECORD
  5
AA
330
1
100
AcDbSymbolTableRecord
100
AcDbBlockTableRecord
  2
block 12
340
0
102
{BLKREFS
331
AB
102
}
  0
BLOCK_RECORD
  5
B5
330
1
100
AcDbSymbolTableRecord
100
AcDbBlockTableRecord
  2
block 13
340
0
102
{BLKREFS
331
B6
102
}
  0
BLOCK_RECORD
  5
C0
330
1
100
AcDbSymbolTableRecord
100
AcDbBlockTableRecord
  2
block 14
340
0
102
{BLKREFS
331
C1
102
}
  0
BLOCK_RECORD
  5
CB
330
1
100
AcDbSymbolTableRecord
100
AcDbBlockTableRecord
  2
block 15
340
0
102
{BLKREFS
331
CC
102
}
  0
BLOCK_RECORD
  5
D6
330
1
100
AcDbSymbolTableRecord
100
AcDbBlockTableRecord
  2
block 16
340
0
102
{BLKREFS
331
D7
102
}
  0
BLOCK_RECORD
  5
E1
330
1
100
AcDbSymbolTableRecord
100
AcDbBlockTableRecord
  2
block 17
340
0
102
{BLKREFS
331
E2
102
}
  0
BLOCK_RECORD
  5
EC
330
1
100
AcDbSymbolTableRecord
100
AcDbBlockTableRecord
  2
block 18
340
0
102
{BLKREFS
331
ED
102
}
  0
BLOCK_RECORD
  5
F7
330
1
100
AcDbSymbolTableRecord
100
AcDbBlockTableRecord
  2
block 19
340
0
102
{BLKREFS
331
F8
102
}
  0
BLOCK_RECORD
  5
102
330
1
100
AcDbSymbolTableRecord
100
AcDbBlockTableRecord
  2
block 20
340
0
102
{BLKREFS
331
103
102
}
  0
BLOCK_RECORD
  5
10D
330
1
100
AcDbSymbolTableRecord
100
AcDbBlockTableRecord
  2
block 21
340
0
102
{BLKREFS
331
10E
102
}
  0
BLOCK_RECORD
  5
112
330
1
100
AcDbSymbolTableRecord
100
AcDbBlockTableRecord
  2
block 22
340
0
102
{BLKREFS
331
113
102
}
  0
BLOCK_RECORD
  5
117
330
1
100
AcDbSymbolTableRecord
100
AcDbBlockTableRecord
  2
block 23
340
0
102
{BLKREFS
331
118
102
}
  0
BLOCK_RECORD
  5
11F
330
1
100
AcDbSymbolTableRecord
100
AcDbBlockTableRecord
  2
block 24
340
0
102
{BLKREFS
331
120
102
}
  0
BLOCK_RECORD
  5
124
330
1
100
AcDbSymbolTableRecord
100
AcDbBlockTableRecord
  2
block 25
340
0
102
{BLKREFS
331
125
102
}
  0
BLOCK_RECORD
  5
12C
330
1
100
AcDbSymbolTableRecord
100
AcDbBlockTableRecord
  2
block 26
340
0
102
{BLKREFS
331
12D
102
}
  0
BLOCK_RECORD
  5
131
330
1
100
AcDbSymbolTableRecord
100
AcDbBlockTableRecord
  2
block 27
340
0
102
{BLKREFS
331
132
102
}
  0
BLOCK_RECORD
  5
139
330
1
100
AcDbSymbolTableRecord
100
AcDbBlockTableRecord
  2
block 28
340
0
102
{BLKREFS
331
13A
102
}
  0
BLOCK_RECORD
  5
13E
330
1
100
AcDbSymbolTableRecord
100
AcDbBlockTableRecord
  2
block 29
340
0
102
{BLKREFS
331
13F
102
}
  0
BLOCK_RECORD
  5
146
330
1
100
AcDbSymbolTableRecord
100
AcDbBlockTableRecord
  2
block 30
340
0
102
{BLKREFS
331
147
102
}
  0
BLOCK_RECORD
  5
14B
330
1
100
AcDbSymbolTableRecord
100
AcDbBlockTableRecord
  2
block 31
340
0
102
{BLKREFS
331
14C
102
}
  0
BLOCK_RECORD
  5
153
330
1
100
AcDbSymbolTableRecord
100
AcDbBlockTableRecord
  2
block 32
340
0
102
{BLKREFS
331
154
102
}
  0
BLOCK_RECORD
  5
158
330
1
100
AcDbSymbolTableRecord
100
AcDbBlockTableRecord
  2
block 33
340
0
102
{BLKREFS
331
159
102
}
  0
BLOCK_RECORD
  5
160
330
1
100
AcDbSymbolTableRecord
100
AcDbBlockTableRecord
  2
block 34
340
0
102
{BLKREFS
331
161
102
}
  0
BLOCK_RECORD
  5
165
330
1
100
AcDbSymbolTableRecord
100
AcDbBlockTableRecord
  2
block 35
340
0
102
{BLKREFS
331
166
102
}
  0
BLOCK_RECORD
  5
16D
330
1
100
AcDbSymbolTableRecord
100
AcDbBlockTableRecord
  2
block 36
340
0
102
{BLKREFS
331
16E
102
}
  0
BLOCK_RECORD
  5
172
330
1
100
AcDbSymbolTableRecord
100
AcDbBlockTableRecord
  2
block 37
340
0
102
{BLKREFS
331
173
102
}
  0
BLOCK_RECORD
  5
17A
330
1
100
AcDbSymbolTableRecord
100
AcDbBlockTableRecord
  2
block 38
340
0
102
{BLKREFS
331
17B
102
}
  0
BLOCK_RECORD
  5
17F
330
1
100
AcDbSymbolTableRecord
100
AcDbBlockTableRecord
  2
block 39
340
0
102
{BLKREFS
331
180
102
}
  0
BLOCK_RECORD
  5
187
330
1
100
AcDbSymbolTableRecord
100
AcDbBlockTableRecord
  2
block 40
340
0
102
{BLKREFS
331
188
102
}
  0
BLOCK_RECORD
  5
18C
330
1
100
AcDbSymbolTableRecord
100
AcDbBlockTableRecord
  2
block 41
340
0
102
{BLKREFS
331
18D
102
}
  0
BLOCK_RECORD
  5
194
330
1
100
AcDbSymbolTableRecord
100
AcDbBlockTableRecord
  2
block 42
340
0
102
{BLKREFS
331
195
102
}
  0
BLOCK_RECORD
  5
199
330
1
100
AcDbSymbolTableRecord
100
AcDbBlockTableRecord
  2
block 43
340
0
102
{BLKREFS
331
19A
102
}
  0
BLOCK_RECORD
  5
1A1
330
1
100
AcDbSymbolTableRecord
100
AcDbBlockTableRecord
  2
block 44
340
0
102
{BLKREFS
331
1A2
102
}
  0
BLOCK_RECORD
  5
1A6
330
1
100
AcDbSymbolTableRecord
100
AcDbBlockTableRecord
  2
block 45
340
0
102
{BLKREFS
331
1A7
102
}
  0
BLOCK_RECORD
  5
1AE
330
1
100
AcDbSymbolTableRecord
100
AcDbBlockTableRecord
  2
block 46
340
0
102
{BLKREFS
331
1AF
102
}
  0
BLOCK_RECORD
  5
1B3
330
1
100
AcDbSymbolTableRecord
100
AcDbBlockTableRecord
  2
block 47
340
0
102
{BLKREFS
331
1B4
102
}
  0
BLOCK_RECORD
  5
1BB
330
1
100
AcDbSymbolTableRecord
100
AcDbBlockTableRecord
  2
block 48
340
0
102
{BLKREFS
331
1BC
102
}
  0
BLOCK_RECORD
  5
1C0
330
1
100
AcDbSymbolTableRecord
100
AcDbBlockTableRecord
  2
block 49
340
0
102
{BLKREFS
331
1C1
102
}
  0
BLOCK_RECORD
  5
1C8
330
1
100
AcDbSymbolTableRecord
100
AcDbBlockTableRecord
  2
block 50
340
0
102
{BLKREFS
331
1C9
102
}
  0
BLOCK_RECORD
  5
1D3
330
1
100
AcDbSymbolTableRecord
100
AcDbBlockTableRecord
  2
block 51
340
0
102
{BLKREFS
331
1D4
102
}
  0
BLOCK_RECORD
  5
1DE
330
1
100
AcDbSymbolTableRecord
100
AcDbBlockTableRecord
  2
block 52
340
0
102
{BLKREFS
331
1DF
102
}
  0
BLOCK_RECORD
  5
1E9
330
1
100
AcDbSymbolTableRecord
100
AcDbBlockTableRecord
  2
block 53
340
0
102
{BLKREFS
331
1EA
102
}
  0
BLOCK_RECORD
  5
1F4
330
1
100
AcDbSymbolTableRecord
100
AcDbBlockTableRecord
  2
block 54
340
0
102
{BLKREFS
331
1F5
102
}
  0
BLOCK_RECORD
  5
1F9
330
1
100
AcDbSymbolTableRecord
100
AcDbBlockTableRecord
  2
block 55
340
0
102
{BLKREFS
331
1FA
102
}
  0
BLOCK_RECORD
  5
1FE
330
1
100
AcDbSymbolTableRecord
100
AcDbBlockTableRecord
  2
block 56
340
0
102
{BLKREFS
331
1FF
102
}
  0
BLOCK_RECORD
  5
209
330
1
100
AcDbSymbolTableRecord
100
AcDbBlockTableRecord
  2
block 57
340
0
102
{BLKREFS
331
20A
102
}
  0
BLOCK_RECORD
  5
214
330
1
100
AcDbSymbolTableRecord
100
AcDbBlockTableRecord
  2
block 58
340
0
102
{BLKREFS
331
215
102
}
  0
BLOCK_RECORD
  5
21F
330
1
100
AcDbSymbolTableRecord
100
AcDbBlockTableRecord
  2
block 59
340
0
102
{BLKREFS
331
220
102
}
  0
BLOCK_RECORD
  5
22A
330
1
100
AcDbSymbolTableRecord
100
AcDbBlockTableRecord
  2
block 60
340
0
102
{BLKREFS
331
22B
102
}
  0
BLOCK_RECORD
  5
235
330
1
100
AcDbSymbolTableRecord
100
AcDbBlockTableRecord
  2
block 61
340
0
102
{BLKREFS
331
236
102
}
  0
BLOCK_RECORD
  5
240
330
1
100
AcDbSymbolTableRecord
100
AcDbBlockTableRecord
  2
block 62
340
0
102
{BLKREFS
331
241
102
}
  0
BLOCK_RECORD
  5
24B
330
1
100
AcDbSymbolTableRecord
100
AcDbBlockTableRecord
  2
block 63
340
0
102
{BLKREFS
331
24C
102
}
  0
BLOCK_RECORD
  5
256
330
1
100
AcDbSymbolTableRecord
100
AcDbBlockTableRecord
  2
block 64
340
0
102
{BLKREFS
331
257
102
}
  0
BLOCK_RECORD
  5
261
330
1
100
AcDbSymbolTableRecord
100
AcDbBlockTableRecord
  2
block 65
340
0
102
{BLKREFS
331
262
102
}
  0
BLOCK_RECORD
  5
26C
330
1
100
AcDbSymbolTableRecord
100
AcDbBlockTableRecord
  2
block 66
340
0
102
{BLKREFS
331
26D
102
}
  0
BLOCK_RECORD
  5
277
330
1
100
AcDbSymbolTableRecord
100
AcDbBlockTableRecord
  2
block 67
340
0
102
{BLKREFS
331
278
102
}
  0
BLOCK_RECORD
  5
282
330
1
100
AcDbSymbolTableRecord
100
AcDbBlockTableRecord
  2
block 68
340
0
102
{BLKREFS
331
283
102
}
  0
BLOCK_RECORD
  5
28D
330
1
100
AcDbSymbolTableRecord
100
AcDbBlockTableRecord
  2
block 69
340
0
102
{BLKREFS
331
28E
102
}
  0
BLOCK_RECORD
  5
298
330
1
100
AcDbSymbolTableRecord
100
AcDbBlockTableRecord
  2
block 70
340
0
102
{BLKREFS
331
299
102
}
  0
BLOCK_RECORD
  5
2A3
330
1
100
AcDbSymbolTableRecord
100
AcDbBlockTableRecord
  2
block 71
340
0
102
{BLKREFS
331
2A4
102
}
  0
BLOCK_RECORD
  5
2AE
330
1
100
AcDbSymbolTableRecord
100
AcDbBlockTableRecord
  2
block 72
340
0
102
{BLKREFS
331
2AF
102
}
  0
BLOCK_RECORD
  5
2B9
330
1
100
AcDbSymbolTableRecord
100
AcDbBlockTableRecord
  2
block 73
340
0
102
{BLKREFS
331
2BA
102
}
  0
BLOCK_RECORD
  5
2C4
330
1
100
AcDbSymbolTableRecord
100
AcDbBlockTableRecord
  2
block 74
340
0
102
{BLKREFS
331
2C5
102
}
  0
BLOCK_RECORD
  5
2CF
330
1
100
AcDbSymbolTableRecord
100
AcDbBlockTableRecord
  2
block 75
340
0
102
{BLKREFS
331
2D0
102
}
  0
BLOCK_RECORD
  5
2D4
330
1
100
AcDbSymbolTableRecord
100
AcDbBlockTableRecord
  2
block 76
340
0
102
{BLKREFS
331
2D5
102
}
  0
BLOCK_RECORD
  5
2D9
330
1
100
AcDbSymbolTableRecord
100
AcDbBlockTableRecord
  2
block 77
340
0
102
{BLKREFS
331
2DA
102
}
  0
BLOCK_RECORD
  5
2E1
330
1
100
AcDbSymbolTableRecord
100
AcDbBlockTableRecord
  2
block 78
340
0
102
{BLKREFS
331
2E2
102
}
  0
BLOCK_RECORD
  5
2E6
330
1
100
AcDbSymbolTableRecord
100
AcDbBlockTableRecord
  2
block 79
340
0
102
{BLKREFS
331
2E7
102
}
  0
BLOCK_RECORD
  5
2EE
330
1
100
AcDbSymbolTableRecord
100
AcDbBlockTableRecord
  2
block 80
340
0
102
{BLKREFS
331
2EF
102
}
  0
BLOCK_RECORD
  5
2F3
330
1
100
AcDbSymbolTableRecord
100
AcDbBlockTableRecord
  2
block 81
340
0
102
{BLKREFS
331
2F4
102
}
  0
BLOCK_RECORD
  5
2FB
330
1
100
AcDbSymbolTableRecord
100
AcDbBlockTableRecord
  2
block 82
340
0
102
{BLKREFS
331
2FC
102
}
  0
BLOCK_RECORD
  5
300
330
1
100
AcDbSymbolTableRecord
100
AcDbBlockTableRecord
  2
block 83
340
0
102
{BLKREFS
331
301
102
}
  0
BLOCK_RECORD
  5
308
330
1
100
AcDbSymbolTableRecord
100
AcDbBlockTableRecord
  2
block 84
340
0
102
{BLKREFS
331
309
102
}
  0
BLOCK_RECORD
  5
30D
330
1
100
AcDbSymbolTableRecord
100
AcDbBlockTableRecord
  2
block 85
340
0
102
{BLKREFS
331
30E
102
}
  0
BLOCK_RECORD
  5
315
330
1
100
AcDbSymbolTableRecord
100
AcDbBlockTableRecord
  2
block 86
340
0
102
{BLKREFS
331
316
102
}
  0
BLOCK_RECORD
  5
31A
330
1
100
AcDbSymbolTableRecord
100
AcDbBlockTableRecord
  2
block 87
340
0
102
{BLKREFS
331
31B
102
}
  0
BLOCK_RECORD
  5
322
330
1
100
AcDbSymbolTableRecord
100
AcDbBlockTableRecord
  2
block 88
340
0
102
{BLKREFS
331
323
102
}
  0
BLOCK_RECORD
  5
327
330
1
100
AcDbSymbolTableRecord
100
AcDbBlockTableRecord
  2
block 89
340
0
102
{BLKREFS
331
328
102
}
  0
BLOCK_RECORD
  5
32F
330
1
100
AcDbSymbolTableRecord
100
AcDbBlockTableRecord
  2
block 90
340
0
102
{BLKREFS
331
330
102
}
  0
BLOCK_RECORD
  5
334
330
1
100
AcDbSymbolTableRecord
100
AcDbBlockTableRecord
  2
block 91
340
0
102
{BLKREFS
331
335
102
}
  0
BLOCK_RECORD
  5
33C
330
1
100
AcDbSymbolTableRecord
100
AcDbBlockTableRecord
  2
block 92
340
0
102
{BLKREFS
331
33D
102
}
  0
BLOCK_RECORD
  5
341
330
1
100
AcDbSymbolTableRecord
100
AcDbBlockTableRecord
  2
block 93
340
0
102
{BLKREFS
331
342
102
}
  0
BLOCK_RECORD
  5
349
330
1
100
AcDbSymbolTableRecord
100
AcDbBlockTableRecord
  2
block 94
340
0
102
{BLKREFS
331
34A
102
}
  0
BLOCK_RECORD
  5
34E
330
1
100
AcDbSymbolTableRecord
100
AcDbBlockTableRecord
  2
block 95
340
0
102
{BLKREFS
331
34F
102
}
  0
BLOCK_RECORD
  5
356
330
1
100
AcDbSymbolTableRecord
100
AcDbBlockTableRecord
  2
block 96
340
0
102
{BLKREFS
331
357
102
}
  0
BLOCK_RECORD
  5
35B
330
1
100
AcDbSymbolTableRecord
100
AcDbBlockTableRecord
  2
block 97
340
0
102
{BLKREFS
331
35C
102
}
  0
BLOCK_RECORD
  5
363
330
1
100
AcDbSymbolTableRecord
100
AcDbBlockTableRecord
  2
block 98
340
0
102
{BLKREFS
331
364
102
}
  0
BLOCK_RECORD
  5
368
330
1
100
AcDbSymbolTableRecord
100
AcDbBlockTableRecord
  2
block 99
340
0
102
{BLKREFS
331
369
102
}
  0
BLOCK_RECORD
  5
370
330
1
100
AcDbSymbolTableRecord
100
AcDbBlockTableRecord
  2
block 100
340
0
102
{BLKREFS
331
371
102
}
  0
BLOCK_RECORD
  5
375
330
1
100
AcDbSymbolTableRecord
100
AcDbBlockTableRecord
  2
block 101
340
0
102
{BLKREFS
331
376
102
}
  0
BLOCK_RECORD
  5
37D
330
1
100
AcDbSymbolTableRecord
100
AcDbBlockTableRecord
  2
block 102
340
0
102
{BLKREFS
331
37E
102
}
  0
BLOCK_RECORD
  5
382
330
1
100
AcDbSymbolTableRecord
100
AcDbBlockTableRecord
  2
block 103
340
0
102
{BLKREFS
331
383
102
}
  0
BLOCK_RECORD
  5
38A
330
1
100
AcDbSymbolTableRecord
100
AcDbBlockTableRecord
  2
block 104
340
0
102
{BLKREFS
331
38B
102
}
  0
BLOCK_RECORD
  5
395
330
1
100
AcDbSymbolTableRecord
100
AcDbBlockTableRecord
  2
block 105
340
0
102
{BLKREFS
331
396
102
}
  0
BLOCK_RECORD
  5
3A0
330
1
100
AcDbSymbolTableRecord
100
AcDbBlockTableRecord
  2
block 106
340
0
102
{BLKREFS
331
3A1
102
}
  0
BLOCK_RECORD
  5
3AB
330
1
100
AcDbSymbolTableRecord
100
AcDbBlockTableRecord
  2
block 107
340
0
102
{BLKREFS
331
3AC
102
}
  0
BLOCK_RECORD
  5
3B6
330
1
100
AcDbSymbolTableRecord
100
AcDbBlockTableRecord
  2
block 108
340
0
102
{BLKREFS
331
3B7
102
}
  0
BLOCK_RECORD
  5
3BB
330
1
100
AcDbSymbolTableRecord
100
AcDbBlockTableRecord
  2
block 109
340
0
102
{BLKREFS
331
3BC
102
}
  0
ENDTAB
  0
ENDSEC
  0
SECTION
  2
BLOCKS
  0
BLOCK
  5
20
330
1F
100
AcDbEntity
  8
0
100
AcDbBlockBegin
  2
*Model_Space
 70
     0
 71
     0
 10
0.0
 20
0.0
 30
0.0
  3
*Model_Space
  1

  0
ENDBLK
  5
21
330
1F
100
AcDbEntity
  8
0
100
AcDbBlockEnd
  0
BLOCK
  5
1C
330
1B
100
AcDbEntity
 67
     1
  8
0
100
AcDbBlockBegin
  2
*Paper_Space
 70
     0
 71
     0
 10
0.0
 20
0.0
 30
0.0
  3
*Paper_Space
  1

  0
ENDBLK
  5
1D
330
1B
100
AcDbEntity
 67
     1
  8
0
100
AcDbBlockEnd
  0
BLOCK
  5
24
330
23
100
AcDbEntity
  8
0
100
AcDbBlockBegin
  2
*Paper_Space0
 70
     0
 71
     0
 10
0.0
 20
0.0
 30
0.0
  3
*Paper_Space0
  1

  0
ENDBLK
  5
25
330
23
100
AcDbEntity
  8
0
100
AcDbBlockEnd
  0
BLOCK
  5
3E
330
3C
100
AcDbEntity
  8
0
100
AcDbBlockBegin
  2
block 2
 70
     0
 71
     0
 10
0.0
 20
0.0
 30
0.0
  3
block 2
  1

  0
POLYLINE
  5
40
330
3C
100
AcDbEntity
  8
Ebene 1
 62
     7
370
    25
100
AcDb2dPolyline
 66
     1
 10
0.0
 20
0.0
 30
0.0
  0
VERTEX
  5
41
330
40
100
AcDbEntity
  8
Ebene 1
 62
     7
370
    25
100
AcDbVertex
100
AcDb2dVertex
 10
175.3917059565861
 20
-282.7417425508423
 30
0.0
  0
VERTEX
  5
42
330
40
100
AcDbEntity
  8
Ebene 1
 62
     7
370
    25
100
AcDbVertex
100
AcDb2dVertex
 10
175.3917059565861
 20
-285.5918700457896
 30
0.0
  0
VERTEX
  5
43
330
40
100
AcDbEntity
  8
Ebene 1
 62
     7
370
    25
100
AcDbVertex
100
AcDb2dVertex
 10
185.3916123668465
 20
-285.5918700457896
 30
0.0
  0
VERTEX
  5
44
330
40
100
AcDbEntity
  8
Ebene 1
 62
     7
370
    25
100
AcDbVertex
100
AcDb2dVertex
 10
185.3916123668465
 20
-282.7417425508423
 30
0.0
  0
VERTEX
  5
45
330
40
100
AcDbEntity
  8
Ebene 1
 62
     7
370
    25
100
AcDbVertex
100
AcDb2dVertex
 10
175.3917059565861
 20
-282.7417425508423
 30
0.0
  0
SEQEND
  5
46
330
40
100
AcDbEntity
  8
Ebene 1
370
    25
  0
ENDBLK
  5
3F
330
3C
100
AcDbEntity
  8
0
100
AcDbBlockEnd
  0
BLOCK
  5
49
330
47
100
AcDbEntity
  8
0
100
AcDbBlockBegin
  2
block 3
 70
     0
 71
     0
 10
0.0
 20
0.0
 30
0.0
  3
block 3
  1

  0
POLYLINE
  5
4B
330
47
100
AcDbEntity
  8
Ebene 1
 62
     7
370
    25
100
AcDb2dPolyline
 66
     1
 10
0.0
 20
0.0
 30
0.0
  0
VERTEX
  5
4C
330
4B
100
AcDbEntity
  8
Ebene 1
 62
     7
370
    25
100
AcDbVertex
100
AcDb2dVertex
 10
127.8915906798327
 20
-282.7417425508423
 30
0.0
  0
VERTEX
  5
4D
330
4B
100
AcDbEntity
  8
Ebene 1
 62
     7
370
    25
100
AcDbVertex
100
AcDb2dVertex
 10
127.8915906798327
 20
-285.5918700457896
 30
0.0
  0
VERTEX
  5
4E
330
4B
100
AcDbEntity
  8
Ebene 1
 62
     7
370
    25
100
AcDbVertex
100
AcDb2dVertex
 10
137.8916693448674
 20
-285.5918700457896
 30
0.0
  0
VERTEX
  5
4F
330
4B
100
AcDbEntity
  8
Ebene 1
 62
     7
370
    25
100
AcDbVertex
100
AcDb2dVertex
 10
137.8916693448674
 20
-282.7417425508423
 30
0.0
  0
VERTEX
  5
50
330
4B
100
AcDbEntity
  8
Ebene 1
 62
     7
370
    25
100
AcDbVertex
100
AcDb2dVertex
 10
127.8915906798327
 20
-282.7417425508423
 30
0.0
  0
SEQEND
  5
51
330
4B
100
AcDbEntity
  8
Ebene 1
370
    25
  0
ENDBLK
  5
4A
330
47
100
AcDbEntity
  8
0
100
AcDbBlockEnd
  0
BLOCK
  5
54
330
52
100
AcDbEntity
  8
0
100
AcDbBlockBegin
  2
block 4
 70
     0
 71
     0
 10
0.0
 20
0.0
 30
0.0
  3
block 4
  1

  0
POLYLINE
  5
56
330
52
100
AcDbEntity
  8
Ebene 1
 62
     7
370
    25
100
AcDb2dPolyline
 66
     1
 10
0.0
 20
0.0
 30
0.0
  0
VERTEX
  5
57
330
56
100
AcDbEntity
  8
Ebene 1
 62
     7
370
    25
100
AcDbVertex
100
AcDb2dVertex
 10
151.6415621908222
 20
-282.7417425508423
 30
0.0
  0
VERTEX
  5
58
330
56
100
AcDbEntity
  8
Ebene 1
 62
     7
370
    25
100
AcDbVertex
100
AcDb2dVertex
 10
151.6415621908222
 20
-285.5918700457896
 30
0.0
  0
VERTEX
  5
59
330
56
100
AcDbEntity
  8
Ebene 1
 62
     7
370
    25
100
AcDbVertex
100
AcDb2dVertex
 10
161.641640855857
 20
-285.5918700457896
 30
0.0
  0
VERTEX
  5
5A
330
56
100
AcDbEntity
  8
Ebene 1
 62
     7
370
    25
100
AcDbVertex
100
AcDb2dVertex
 10
161.641640855857
 20
-282.7417425508423
 30
0.0
  0
VERTEX
  5
5B
330
56
100
AcDbEntity
  8
Ebene 1
 62
     7
370
    25
100
AcDbVertex
100
AcDb2dVertex
 10
151.6415621908222
 20
-282.7417425508423
 30
0.0
  0
SEQEND
  5
5C
330
56
100
AcDbEntity
  8
Ebene 1
370
    25
  0
ENDBLK
  5
55
330
52
100
AcDbEntity
  8
0
100
AcDbBlockEnd
  0
BLOCK
  5
5F
330
5D
100
AcDbEntity
  8
0
100
AcDbBlockBegin
  2
block 5
 70
     0
 71
     0
 10
0.0
 20
0.0
 30
0.0
  3
block 5
  1

  0
POLYLINE
  5
61
330
5D
100
AcDbEntity
  8
Ebene 1
 62
     7
370
    25
100
AcDb2dPolyline
 66
     1
 10
0.0
 20
0.0
 30
0.0
  0
VERTEX
  5
62
330
61
100
AcDbEntity
  8
Ebene 1
 62
     7
370
    25
100
AcDbVertex
100
AcDb2dVertex
 10
282.8916042044507
 20
-253.4167452708472
 30
0.0
  0
VERTEX
  5
63
330
61
100
AcDbEntity
  8
Ebene 1
 62
     7
370
    25
100
AcDbVertex
100
AcDb2dVertex
 10
282.8916042044507
 20
-256.2668727657944
 30
0.0
  0
VERTEX
  5
64
330
61
100
AcDbEntity
  8
Ebene 1
 62
     7
370
    25
100
AcDbVertex
100
AcDb2dVertex
 10
292.8916828694854
 20
-256.2668727657944
 30
0.0
  0
VERTEX
  5
65
330
61
100
AcDbEntity
  8
Ebene 1
 62
     7
370
    25
100
AcDbVertex
100
AcDb2dVertex
 10
292.8916828694854
 20
-253.4167452708472
 30
0.0
  0
VERTEX
  5
66
330
61
100
AcDbEntity
  8
Ebene 1
 62
     7
370
    25
100
AcDbVertex
100
AcDb2dVertex
 10
282.8916042044507
 20
-253.4167452708472
 30
0.0
  0
SEQEND
  5
67
330
61
100
AcDbEntity
  8
Ebene 1
370
    25
  0
ENDBLK
  5
60
330
5D
100
AcDbEntity
  8
0
100
AcDbBlockEnd
  0
BLOCK
  5
6A
330
68
100
AcDbEntity
  8
0
100
AcDbBlockBegin
  2
block 6
 70
     0
 71
     0
 10
0.0
 20
0.0
 30
0.0
  3
block 6
  1

  0
POLYLINE
  5
6C
330
68
100
AcDbEntity
  8
Ebene 1
 62
     7
370
    25
100
AcDb2dPolyline
 66
     1
 10
0.0
 20
0.0
 30
0.0
  0
VERTEX
  5
6D
330
6C
100
AcDbEntity
  8
Ebene 1
 62
     7
370
    25
100
AcDbVertex
100
AcDb2dVertex
 10
235.3916611824716
 20
-253.4167452708472
 30
0.0
  0
VERTEX
  5
6E
330
6C
100
AcDbEntity
  8
Ebene 1
 62
     7
370
    25
100
AcDbVertex
100
AcDb2dVertex
 10
235.3916611824716
 20
-256.2668727657944
 30
0.0
  0
VERTEX
  5
6F
330
6C
100
AcDbEntity
  8
Ebene 1
 62
     7
370
    25
100
AcDbVertex
100
AcDb2dVertex
 10
245.3917398475062
 20
-256.2668727657944
 30
0.0
  0
VERTEX
  5
70
330
6C
100
AcDbEntity
  8
Ebene 1
 62
     7
370
    25
100
AcDbVertex
100
AcDb2dVertex
 10
245.3917398475062
 20
-253.4167452708472
 30
0.0
  0
VERTEX
  5
71
330
6C
100
AcDbEntity
  8
Ebene 1
 62
     7
370
    25
100
AcDbVertex
100
AcDb2dVertex
 10
235.3916611824716
 20
-253.4167452708472
 30
0.0
  0
SEQEND
  5
72
330
6C
100
AcDbEntity
  8
Ebene 1
370
    25
  0
ENDBLK
  5
6B
330
68
100
AcDbEntity
  8
0
100
AcDbBlockEnd
  0
BLOCK
  5
75
330
73
100
AcDbEntity
  8
0
100
AcDbBlockBegin
  2
block 7
 70
     0
 71
     0
 10
0.0
 20
0.0
 30
0.0
  3
block 7
  1

  0
POLYLINE
  5
77
330
73
100
AcDbEntity
  8
Ebene 1
 62
     7
370
    25
100
AcDb2dPolyline
 66
     1
 10
0.0
 20
0.0
 30
0.0
  0
VERTEX
  5
78
330
77
100
AcDbEntity
  8
Ebene 1
 62
     7
370
    25
100
AcDbVertex
100
AcDb2dVertex
 10
205.3915974421417
 20
-253.4167452708472
 30
0.0
  0
VERTEX
  5
79
330
77
100
AcDbEntity
  8
Ebene 1
 62
     7
370
    25
100
AcDbVertex
100
AcDb2dVertex
 10
205.3915974421417
 20
-256.2668727657944
 30
0.0
  0
VERTEX
  5
7A
330
77
100
AcDbEntity
  8
Ebene 1
 62
     7
370
    25
100
AcDbVertex
100
AcDb2dVertex
 10
215.3915038524021
 20
-256.2668727657944
 30
0.0
  0
VERTEX
  5
7B
330
77
100
AcDbEntity
  8
Ebene 1
 62
     7
370
    25
100
AcDbVertex
100
AcDb2dVertex
 10
215.3915038524021
 20
-253.4167452708472
 30
0.0
  0
VERTEX
  5
7C
330
77
100
AcDbEntity
  8
Ebene 1
 62
     7
370
    25
100
AcDbVertex
100
AcDb2dVertex
 10
205.3915974421417
 20
-253.4167452708472
 30
0.0
  0
SEQEND
  5
7D
330
77
100
AcDbEntity
  8
Ebene 1
370
    25
  0
ENDBLK
  5
76
330
73
100
AcDbEntity
  8
0
100
AcDbBlockEnd
  0
BLOCK
  5
80
330
7E
100
AcDbEntity
  8
0
100
AcDbBlockBegin
  2
block 8
 70
     0
 71
     0
 10
0.0
 20
0.0
 30
0.0
  3
block 8
  1

  0
POLYLINE
  5
82
330
7E
100
AcDbEntity
  8
Ebene 1
 62
     7
370
    25
100
AcDb2dPolyline
 66
     1
 10
0.0
 20
0.0
 30
0.0
  0
VERTEX
  5
83
330
82
100
AcDbEntity
  8
Ebene 1
 62
     7
370
    25
100
AcDbVertex
100
AcDb2dVertex
 10
175.3917059565861
 20
-253.4167452708472
 30
0.0
  0
VERTEX
  5
84
330
82
100
AcDbEntity
  8
Ebene 1
 62
     7
370
    25
100
AcDbVertex
100
AcDb2dVertex
 10
175.3917059565861
 20
-256.2668727657944
 30
0.0
  0
VERTEX
  5
85
330
82
100
AcDbEntity
  8
Ebene 1
 62
     7
370
    25
100
AcDbVertex
100
AcDb2dVertex
 10
185.3916123668465
 20
-256.2668727657944
 30
0.0
  0
VERTEX
  5
86
330
82
100
AcDbEntity
  8
Ebene 1
 62
     7
370
    25
100
AcDbVertex
100
AcDb2dVertex
 10
185.3916123668465
 20
-253.4167452708472
 30
0.0
  0
VERTEX
  5
87
330
82
100
AcDbEntity
  8
Ebene 1
 62
     7
370
    25
100
AcDbVertex
100
AcDb2dVertex
 10
175.3917059565861
 20
-253.4167452708472
 30
0.0
  0
SEQEND
  5
88
330
82
100
AcDbEntity
  8
Ebene 1
370
    25
  0
ENDBLK
  5
81
330
7E
100
AcDbEntity
  8
0
100
AcDbBlockEnd
  0
BLOCK
  5
8B
330
89
100
AcDbEntity
  8
0
100
AcDbBlockBegin
  2
block 9
 70
     0
 71
     0
 10
0.0
 20
0.0
 30
0.0
  3
block 9
  1

  0
POLYLINE
  5
8D
330
89
100
AcDbEntity
  8
Ebene 1
 62
     7
370
    25
100
AcDb2dPolyline
 66
     1
 10
0.0
 20
0.0
 30
0.0
  0
VERTEX
  5
8E
330
8D
100
AcDbEntity
  8
Ebene 1
 62
     7
370
    25
100
AcDbVertex
100
AcDb2dVertex
 10
127.8915906798327
 20
-253.4167452708472
 30
0.0
  0
VERTEX
  5
8F
330
8D
100
AcDbEntity
  8
Ebene 1
 62
     7
370
    25
100
AcDbVertex
100
AcDb2dVertex
 10
127.8915906798327
 20
-256.2668727657944
 30
0.0
  0
VERTEX
  5
90
330
8D
100
AcDbEntity
  8
Ebene 1
 62
     7
370
    25
100
AcDbVertex
100
AcDb2dVertex
 10
137.8916693448674
 20
-256.2668727657944
 30
0.0
  0
VERTEX
  5
91
330
8D
100
AcDbEntity
  8
Ebene 1
 62
     7
370
    25
100
AcDbVertex
100
AcDb2dVertex
 10
137.8916693448674
 20
-253.4167452708472
 30
0.0
  0
VERTEX
  5
92
330
8D
100
AcDbEntity
  8
Ebene 1
 62
     7
370
    25
100
AcDbVertex
100
AcDb2dVertex
 10
127.8915906798327
 20
-253.4167452708472
 30
0.0
  0
SEQEND
  5
93
330
8D
100
AcDbEntity
  8
Ebene 1
370
    25
  0
ENDBLK
  5
8C
330
89
100
AcDbEntity
  8
0
100
AcDbBlockEnd
  0
BLOCK
  5
96
330
94
100
AcDbEntity
  8
0
100
AcDbBlockBegin
  2
block 10
 70
     0
 71
     0
 10
0.0
 20
0.0
 30
0.0
  3
block 10
  1

  0
POLYLINE
  5
98
330
94
100
AcDbEntity
  8
Ebene 1
 62
     7
370
    25
100
AcDb2dPolyline
 66
     1
 10
0.0
 20
0.0
 30
0.0
  0
VERTEX
  5
99
330
98
100
AcDbEntity
  8
Ebene 1
 62
     7
370
    25
100
AcDbVertex
100
AcDb2dVertex
 10
255.5416801661493
 20
-93.09181990945274
 30
0.0
  0
VERTEX
  5
9A
330
98
100
AcDbEntity
  8
Ebene 1
 62
     7
370
    25
100
AcDbVertex
100
AcDb2dVertex
 10
255.5416801661493
 20
-103.0917263197132
 30
0.0
  0
VERTEX
  5
9B
330
98
100
AcDbEntity
  8
Ebene 1
 62
     7
370
    25
100
AcDbVertex
100
AcDb2dVertex
 10
258.391463151548
 20
-103.0917263197132
 30
0.0
  0
VERTEX
  5
9C
330
98
100
AcDbEntity
  8
Ebene 1
 62
     7
370
    25
100
AcDbVertex
100
AcDb2dVertex
 10
258.391463151548
 20
-93.09181990945274
 30
0.0
  0
VERTEX
  5
9D
330
98
100
AcDbEntity
  8
Ebene 1
 62
     7
370
    25
100
AcDbVertex
100
AcDb2dVertex
 10
255.5416801661493
 20
-93.09181990945274
 30
0.0
  0
SEQEND
  5
9E
330
98
100
AcDbEntity
  8
Ebene 1
370
    25
  0
ENDBLK
  5
97
330
94
100
AcDbEntity
  8
0
100
AcDbBlockEnd
  0
BLOCK
  5
A1
330
9F
100
AcDbEntity
  8
0
100
AcDbBlockBegin
  2
block 11
 70
     0
 71
     0
 10
0.0
 20
0.0
 30
0.0
  3
block 11
  1

  0
POLYLINE
  5
A3
330
9F
100
AcDbEntity
  8
Ebene 1
 62
     7
370
    25
100
AcDb2dPolyline
 66
     1
 10
0.0
 20
0.0
 30
0.0
  0
VERTEX
  5
A4
330
A3
100
AcDbEntity
  8
Ebene 1
 62
     7
370
    25
100
AcDbVertex
100
AcDb2dVertex
 10
277.3915092622494
 20
-221.0917588422965
 30
0.0
  0
VERTEX
  5
A5
330
A3
100
AcDbEntity
  8
Ebene 1
 62
     7
370
    25
100
AcDbVertex
100
AcDb2dVertex
 10
277.3915092622494
 20
-231.0918375073312
 30
0.0
  0
VERTEX
  5
A6
330
A3
100
AcDbEntity
  8
Ebene 1
 62
     7
370
    25
100
AcDbVertex
100
AcDb2dVertex
 10
280.2416367571965
 20
-231.0918375073312
 30
0.0
  0
VERTEX
  5
A7
330
A3
100
AcDbEntity
  8
Ebene 1
 62
     7
370
    25
100
AcDbVertex
100
AcDb2dVertex
 10
280.2416367571965
 20
-221.0917588422965
 30
0.0
  0
VERTEX
  5
A8
330
A3
100
AcDbEntity
  8
Ebene 1
 62
     7
370
    25
100
AcDbVertex
100
AcDb2dVertex
 10
277.3915092622494
 20
-221.0917588422965
 30
0.0
  0
SEQEND
  5
A9
330
A3
100
AcDbEntity
  8
Ebene 1
370
    25
  0
ENDBLK
  5
A2
330
9F
100
AcDbEntity
  8
0
100
AcDbBlockEnd
  0
BLOCK
  5
AC
330
AA
100
AcDbEntity
  8
0
100
AcDbBlockBegin
  2
block 12
 70
     0
 71
     0
 10
0.0
 20
0.0
 30
0.0
  3
block 12
  1

  0
POLYLINE
  5
AE
330
AA
100
AcDbEntity
  8
Ebene 1
 62
     7
370
    25
100
AcDb2dPolyline
 66
     1
 10
0.0
 20
0.0
 30
0.0
  0
VERTEX
  5
AF
330
AE
100
AcDbEntity
  8
Ebene 1
 62
     7
370
    25
100
AcDbVertex
100
AcDb2dVertex
 10
212.3915147038466
 20
-197.0918456538521
 30
0.0
  0
VERTEX
  5
B0
330
AE
100
AcDbEntity
  8
Ebene 1
 62
     7
370
    25
100
AcDbVertex
100
AcDb2dVertex
 10
212.3915147038466
 20
-207.0919243188868
 30
0.0
  0
VERTEX
  5
B1
330
AE
100
AcDbEntity
  8
Ebene 1
 62
     7
370
    25
100
AcDbVertex
100
AcDb2dVertex
 10
215.2416421987938
 20
-207.0919243188868
 30
0.0
  0
VERTEX
  5
B2
330
AE
100
AcDbEntity
  8
Ebene 1
 62
     7
370
    25
100
AcDbVertex
100
AcDb2dVertex
 10
215.2416421987938
 20
-197.0918456538521
 30
0.0
  0
VERTEX
  5
B3
330
AE
100
AcDbEntity
  8
Ebene 1
 62
     7
370
    25
100
AcDbVertex
100
AcDb2dVertex
 10
212.3915147038466
 20
-197.0918456538521
 30
0.0
  0
SEQEND
  5
B4
330
AE
100
AcDbEntity
  8
Ebene 1
370
    25
  0
ENDBLK
  5
AD
330
AA
100
AcDbEntity
  8
0
100
AcDbBlockEnd
  0
BLOCK
  5
B7
330
B5
100
AcDbEntity
  8
0
100
AcDbBlockBegin
  2
block 13
 70
     0
 71
     0
 10
0.0
 20
0.0
 30
0.0
  3
block 13
  1

  0
POLYLINE
  5
B9
330
B5
100
AcDbEntity
  8
Ebene 1
 62
     7
370
    25
100
AcDb2dPolyline
 66
     1
 10
0.0
 20
0.0
 30
0.0
  0
VERTEX
  5
BA
330
B9
100
AcDbEntity
  8
Ebene 1
 62
     7
370
    25
100
AcDbVertex
100
AcDb2dVertex
 10
255.5416801661493
 20
-221.0917588422965
 30
0.0
  0
VERTEX
  5
BB
330
B9
100
AcDbEntity
  8
Ebene 1
 62
     7
370
    25
100
AcDbVertex
100
AcDb2dVertex
 10
255.5416801661493
 20
-231.0918375073312
 30
0.0
  0
VERTEX
  5
BC
330
B9
100
AcDbEntity
  8
Ebene 1
 62
     7
370
    25
100
AcDbVertex
100
AcDb2dVertex
 10
258.391463151548
 20
-231.0918375073312
 30
0.0
  0
VERTEX
  5
BD
330
B9
100
AcDbEntity
  8
Ebene 1
 62
     7
370
    25
100
AcDbVertex
100
AcDb2dVertex
 10
258.391463151548
 20
-221.0917588422965
 30
0.0
  0
VERTEX
  5
BE
330
B9
100
AcDbEntity
  8
Ebene 1
 62
     7
370
    25
100
AcDbVertex
100
AcDb2dVertex
 10
255.5416801661493
 20
-221.0917588422965
 30
0.0
  0
SEQEND
  5
BF
330
B9
100
AcDbEntity
  8
Ebene 1
370
    25
  0
ENDBLK
  5
B8
330
B5
100
AcDbEntity
  8
0
100
AcDbBlockEnd
  0
BLOCK
  5
C2
330
C0
100
AcDbEntity
  8
0
100
AcDbBlockBegin
  2
block 14
 70
     0
 71
     0
 10
0.0
 20
0.0
 30
0.0
  3
block 14
  1

  0
POLYLINE
  5
C4
330
C0
100
AcDbEntity
  8
Ebene 1
 62
     7
370
    25
100
AcDb2dPolyline
 66
     1
 10
0.0
 20
0.0
 30
0.0
  0
VERTEX
  5
C5
330
C4
100
AcDbEntity
  8
Ebene 1
 62
     7
370
    25
100
AcDbVertex
100
AcDb2dVertex
 10
162.3916381429958
 20
-221.0917588422965
 30
0.0
  0
VERTEX
  5
C6
330
C4
100
AcDbEntity
  8
Ebene 1
 62
     7
370
    25
100
AcDbVertex
100
AcDb2dVertex
 10
162.3916381429958
 20
-231.0918375073312
 30
0.0
  0
VERTEX
  5
C7
330
C4
100
AcDbEntity
  8
Ebene 1
 62
     7
370
    25
100
AcDbVertex
100
AcDb2dVertex
 10
165.2415933831688
 20
-231.0918375073312
 30
0.0
  0
VERTEX
  5
C8
330
C4
100
AcDbEntity
  8
Ebene 1
 62
     7
370
    25
100
AcDbVertex
100
AcDb2dVertex
 10
165.2415933831688
 20
-221.0917588422965
 30
0.0
  0
VERTEX
  5
C9
330
C4
100
AcDbEntity
  8
Ebene 1
 62
     7
370
    25
100
AcDbVertex
100
AcDb2dVertex
 10
162.3916381429958
 20
-221.0917588422965
 30
0.0
  0
SEQEND
  5
CA
330
C4
100
AcDbEntity
  8
Ebene 1
370
    25
  0
ENDBLK
  5
C3
330
C0
100
AcDbEntity
  8
0
100
AcDbBlockEnd
  0
BLOCK
  5
CD
330
CB
100
AcDbEntity
  8
0
100
AcDbBlockBegin
  2
block 15
 70
     0
 71
     0
 10
0.0
 20
0.0
 30
0.0
  3
block 15
  1

  0
POLYLINE
  5
CF
330
CB
100
AcDbEntity
  8
Ebene 1
 62
     7
370
    25
100
AcDb2dPolyline
 66
     1
 10
0.0
 20
0.0
 30
0.0
  0
VERTEX
  5
D0
330
CF
100
AcDbEntity
  8
Ebene 1
 62
     7
370
    25
100
AcDbVertex
100
AcDb2dVertex
 10
140.5416367921216
 20
-221.0917588422965
 30
0.0
  0
VERTEX
  5
D1
330
CF
100
AcDbEntity
  8
Ebene 1
 62
     7
370
    25
100
AcDbVertex
100
AcDb2dVertex
 10
140.5416367921216
 20
-231.0918375073312
 30
0.0
  0
VERTEX
  5
D2
330
CF
100
AcDbEntity
  8
Ebene 1
 62
     7
370
    25
100
AcDbVertex
100
AcDb2dVertex
 10
143.3915920322945
 20
-231.0918375073312
 30
0.0
  0
VERTEX
  5
D3
330
CF
100
AcDbEntity
  8
Ebene 1
 62
     7
370
    25
100
AcDbVertex
100
AcDb2dVertex
 10
143.3915920322945
 20
-221.0917588422965
 30
0.0
  0
VERTEX
  5
D4
330
CF
100
AcDbEntity
  8
Ebene 1
 62
     7
370
    25
100
AcDbVertex
100
AcDb2dVertex
 10
140.5416367921216
 20
-221.0917588422965
 30
0.0
  0
SEQEND
  5
D5
330
CF
100
AcDbEntity
  8
Ebene 1
370
    25
  0
ENDBLK
  5
CE
330
CB
100
AcDbEntity
  8
0
100
AcDbBlockEnd
  0
BLOCK
  5
D8
330
D6
100
AcDbEntity
  8
0
100
AcDbBlockBegin
  2
block 16
 70
     0
 71
     0
 10
0.0
 20
0.0
 30
0.0
  3
block 16
  1

  0
POLYLINE
  5
DA
330
D6
100
AcDbEntity
  8
Ebene 1
 62
     7
370
    25
100
AcDb2dPolyline
 66
     1
 10
0.0
 20
0.0
 30
0.0
  0
VERTEX
  5
DB
330
DA
100
AcDbEntity
  8
Ebene 1
 62
     7
370
    25
100
AcDbVertex
100
AcDb2dVertex
 10
137.8916693448674
 20
-93.09181990945274
 30
0.0
  0
VERTEX
  5
DC
330
DA
100
AcDbEntity
  8
Ebene 1
 62
     7
370
    25
100
AcDbVertex
100
AcDb2dVertex
 10
137.8916693448674
 20
-103.0917263197132
 30
0.0
  0
VERTEX
  5
DD
330
DA
100
AcDbEntity
  8
Ebene 1
 62
     7
370
    25
100
AcDbVertex
100
AcDb2dVertex
 10
140.7416245850403
 20
-103.0917263197132
 30
0.0
  0
VERTEX
  5
DE
330
DA
100
AcDbEntity
  8
Ebene 1
 62
     7
370
    25
100
AcDbVertex
100
AcDb2dVertex
 10
140.7416245850403
 20
-93.09181990945274
 30
0.0
  0
VERTEX
  5
DF
330
DA
100
AcDbEntity
  8
Ebene 1
 62
     7
370
    25
100
AcDbVertex
100
AcDb2dVertex
 10
137.8916693448674
 20
-93.09181990945274
 30
0.0
  0
SEQEND
  5
E0
330
DA
100
AcDbEntity
  8
Ebene 1
370
    25
  0
ENDBLK
  5
D9
330
D6
100
AcDbEntity
  8
0
100
AcDbBlockEnd
  0
BLOCK
  5
E3
330
E1
100
AcDbEntity
  8
0
100
AcDbBlockBegin
  2
block 17
 70
     0
 71
     0
 10
0.0
 20
0.0
 30
0.0
  3
block 17
  1

  0
POLYLINE
  5
E5
330
E1
100
AcDbEntity
  8
Ebene 1
 62
     7
370
    25
100
AcDb2dPolyline
 66
     1
 10
0.0
 20
0.0
 30
0.0
  0
VERTEX
  5
E6
330
E5
100
AcDbEntity
  8
Ebene 1
 62
     7
370
    25
100
AcDbVertex
100
AcDb2dVertex
 10
205.5416313505243
 20
-78.09170191190069
 30
0.0
  0
VERTEX
  5
E7
330
E5
100
AcDbEntity
  8
Ebene 1
 62
     7
370
    25
100
AcDbVertex
100
AcDb2dVertex
 10
205.5416313505243
 20
-88.09178057693539
 30
0.0
  0
VERTEX
  5
E8
330
E5
100
AcDbEntity
  8
Ebene 1
 62
     7
370
    25
100
AcDbVertex
100
AcDb2dVertex
 10
208.3915865906972
 20
-88.09178057693539
 30
0.0
  0
VERTEX
  5
E9
330
E5
100
AcDbEntity
  8
Ebene 1
 62
     7
370
    25
100
AcDbVertex
100
AcDb2dVertex
 10
208.3915865906972
 20
-78.09170191190069
 30
0.0
  0
VERTEX
  5
EA
330
E5
100
AcDbEntity
  8
Ebene 1
 62
     7
370
    25
100
AcDbVertex
100
AcDb2dVertex
 10
205.5416313505243
 20
-78.09170191190069
 30
0.0
  0
SEQEND
  5
EB
330
E5
100
AcDbEntity
  8
Ebene 1
370
    25
  0
ENDBLK
  5
E4
330
E1
100
AcDbEntity
  8
0
100
AcDbBlockEnd
  0
BLOCK
  5
EE
330
EC
100
AcDbEntity
  8
0
100
AcDbBlockBegin
  2
block 18
 70
     0
 71
     0
 10
0.0
 20
0.0
 30
0.0
  3
block 18
  1

  0
POLYLINE
  5
F0
330
EC
100
AcDbEntity
  8
Ebene 1
 62
     7
370
    25
100
AcDb2dPolyline
 66
     1
 10
0.0
 20
0.0
 30
0.0
  0
VERTEX
  5
F1
330
F0
100
AcDbEntity
  8
Ebene 1
 62
     7
370
    25
100
AcDbVertex
100
AcDb2dVertex
 10
277.3915092622494
 20
-93.09181990945274
 30
0.0
  0
VERTEX
  5
F2
330
F0
100
AcDbEntity
  8
Ebene 1
 62
     7
370
    25
100
AcDbVertex
100
AcDb2dVertex
 10
277.3915092622494
 20
-103.0917263197132
 30
0.0
  0
VERTEX
  5
F3
330
F0
100
AcDbEntity
  8
Ebene 1
 62
     7
370
    25
100
AcDbVertex
100
AcDb2dVertex
 10
280.2416367571965
 20
-103.0917263197132
 30
0.0
  0
VERTEX
  5
F4
330
F0
100
AcDbEntity
  8
Ebene 1
 62
     7
370
    25
100
AcDbVertex
100
AcDb2dVertex
 10
280.2416367571965
 20
-93.09181990945274
 30
0.0
  0
VERTEX
  5
F5
330
F0
100
AcDbEntity
  8
Ebene 1
 62
     7
370
    25
100
AcDbVertex
100
AcDb2dVertex
 10
277.3915092622494
 20
-93.09181990945274
 30
0.0
  0
SEQEND
  5
F6
330
F0
100
AcDbEntity
  8
Ebene 1
370
    25
  0
ENDBLK
  5
EF
330
EC
100
AcDbEntity
  8
0
100
AcDbBlockEnd
  0
BLOCK
  5
F9
330
F7
100
AcDbEntity
  8
0
100
AcDbBlockBegin
  2
block 19
 70
     0
 71
     0
 10
0.0
 20
0.0
 30
0.0
  3
block 19
  1

  0
POLYLINE
  5
FB
330
F7
100
AcDbEntity
  8
Ebene 1
 62
     7
370
    25
100
AcDb2dPolyline
 66
     1
 10
0.0
 20
0.0
 30
0.0
  0
VERTEX
  5
FC
330
FB
100
AcDbEntity
  8
Ebene 1
 62
     7
370
    25
100
AcDbVertex
100
AcDb2dVertex
 10
272.891525539416
 20
-16.59175211173748
 30
0.0
  0
VERTEX
  5
FD
330
FB
100
AcDbEntity
  8
Ebene 1
 62
     7
370
    25
100
AcDbVertex
100
AcDb2dVertex
 10
272.891525539416
 20
-19.44170735191041
 30
0.0
  0
VERTEX
  5
FE
330
FB
100
AcDbEntity
  8
Ebene 1
 62
     7
370
    25
100
AcDbVertex
100
AcDb2dVertex
 10
282.8916042044507
 20
-19.44170735191041
 30
0.0
  0
VERTEX
  5
FF
330
FB
100
AcDbEntity
  8
Ebene 1
 62
     7
370
    25
100
AcDbVertex
100
AcDb2dVertex
 10
282.8916042044507
 20
-16.59175211173748
 30
0.0
  0
VERTEX
  5
100
330
FB
100
AcDbEntity
  8
Ebene 1
 62
     7
370
    25
100
AcDbVertex
100
AcDb2dVertex
 10
272.891525539416
 20
-16.59175211173748
 30
0.0
  0
SEQEND
  5
101
330
FB
100
AcDbEntity
  8
Ebene 1
370
    25
  0
ENDBLK
  5
FA
330
F7
100
AcDbEntity
  8
0
100
AcDbBlockEnd
  0
BLOCK
  5
104
330
102
100
AcDbEntity
  8
0
100
AcDbBlockBegin
  2
block 20
 70
     0
 71
     0
 10
0.0
 20
0.0
 30
0.0
  3
block 20
  1

  0
POLYLINE
  5
106
330
102
100
AcDbEntity
  8
Ebene 1
 62
     7
370
    25
100
AcDb2dPolyline
 66
     1
 10
0.0
 20
0.0
 30
0.0
  0
VERTEX
  5
107
330
106
100
AcDbEntity
  8
Ebene 1
 62
     7
370
    25
100
AcDbVertex
100
AcDb2dVertex
 10
137.8916693448674
 20
-16.59175211173748
 30
0.0
  0
VERTEX
  5
108
330
106
100
AcDbEntity
  8
Ebene 1
 62
     7
370
    25
100
AcDbVertex
100
AcDb2dVertex
 10
137.8916693448674
 20
-19.44170735191041
 30
0.0
  0
VERTEX
  5
109
330
106
100
AcDbEntity
  8
Ebene 1
 62
     7
370
    25
100
AcDbVertex
100
AcDb2dVertex
 10
147.8915757551278
 20
-19.44170735191041
 30
0.0
  0
VERTEX
  5
10A
330
106
100
AcDbEntity
  8
Ebene 1
 62
     7
370
    25
100
AcDbVertex
100
AcDb2dVertex
 10
147.8915757551278
 20
-16.59175211173748
 30
0.0
  0
VERTEX
  5
10B
330
106
100
AcDbEntity
  8
Ebene 1
 62
     7
370
    25
100
AcDbVertex
100
AcDb2dVertex
 10
137.8916693448674
 20
-16.59175211173748
 30
0.0
  0
SEQEND
  5
10C
330
106
100
AcDbEntity
  8
Ebene 1
370
    25
  0
ENDBLK
  5
105
330
102
100
AcDbEntity
  8
0
100
AcDbBlockEnd
  0
BLOCK
  5
10F
330
10D
100
AcDbEntity
  8
0
100
AcDbBlockBegin
  2
block 21
 70
     0
 71
     0
 10
0.0
 20
0.0
 30
0.0
  3
block 21
  1

  0
SPLINE
  5
111
330
10D
100
AcDbEntity
  8
Ebene 1
 62
     7
370
    25
100
AcDbSpline
210
0.0
220
0.0
230
1.0
 70
    11
 71
     3
 72
   122
 73
   118
 74
     0
 42
0.0000000001
 43
0.0000000001
 40
0.0
 40
0.0
 40
0.0
 40
0.0
 40
1.0
 40
1.0
 40
1.0
 40
2.0
 40
2.0
 40
2.0
 40
3.0
 40
3.0
 40
3.0
 40
4.0
 40
4.0
 40
4.0
 40
5.0
 40
5.0
 40
5.0
 40
6.0
 40
6.0
 40
6.0
 40
7.0
 40
7.0
 40
7.0
 40
8.0
 40
8.0
 40
8.0
 40
9.0
 40
9.0
 40
9.0
 40
10.0
 40
10.0
 40
10.0
 40
11.0
 40
11.0
 40
11.0
 40
12.0
 40
12.0
 40
12.0
 40
13.0
 40
13.0
 40
13.0
 40
14.0
 40
14.0
 40
14.0
 40
15.0
 40
15.0
 40
15.0
 40
16.0
 40
16.0
 40
16.0
 40
17.0
 40
17.0
 40
17.0
 40
18.0
 40
18.0
 40
18.0
 40
19.0
 40
19.0
 40
19.0
 40
20.0
 40
20.0
 40
20.0
 40
21.0
 40
21.0
 40
21.0
 40
22.0
 40
22.0
 40
22.0
 40
23.0
 40
23.0
 40
23.0
 40
24.0
 40
24.0
 40
24.0
 40
25.0
 40
25.0
 40
25.0
 40
26.0
 40
26.0
 40
26.0
 40
27.0
 40
27.0
 40
27.0
 40
28.0
 40
28.0
 40
28.0
 40
29.0
 40
29.0
 40
29.0
 40
30.0
 40
30.0
 40
30.0
 40
31.0
 40
31.0
 40
31.0
 40
32.0
 40
32.0
 40
32.0
 40
33.0
 40
33.0
 40
33.0
 40
34.0
 40
34.0
 40
34.0
 40
35.0
 40
35.0
 40
35.0
 40
36.0
 40
36.0
 40
36.0
 40
37.0
 40
37.0
 40
37.0
 40
38.0
 40
38.0
 40
38.0
 40
39.0
 40
39.0
 40
39.0
 40
39.0
 10
297.8915499472285
 20
-261.5919568573451
 30
0.0
 10
297.8915499472285
 20
-261.5919568573451
 30
0.0
 10
148.3916313648118
 20
-261.5919568573451
 30
0.0
 10
148.3916313648118
 20
-261.5919568573451
 30
0.0
 10
146.7347126911809
 20
-261.5919568573451
 30
0.0
 10
145.3916422162563
 20
-262.9348550774955
 30
0.0
 10
145.3916422162563
 20
-264.5919460059006
 30
0.0
 10
145.3916422162563
 20
-264.5919460059006
 30
0.0
 10
145.3916422162563
 20
-279.5918917486784
 30
0.0
 10
145.3916422162563
 20
-279.5918917486784
 30
0.0
 10
145.3916422162563
 20
-279.5918917486784
 30
0.0
 10
190.3916516993639
 20
-279.5918917486784
 30
0.0
 10
190.3916516993639
 20
-279.5918917486784
 30
0.0
 10
190.3916516993639
 20
-279.5918917486784
 30
0.0
 10
190.3916516993639
 20
-288.5918591943451
 30
0.0
 10
190.3916516993639
 20
-288.5918591943451
 30
0.0
 10
190.3916516993639
 20
-288.5918591943451
 30
0.0
 10
122.8917236020896
 20
-288.5918591943451
 30
0.0
 10
122.8917236020896
 20
-288.5918591943451
 30
0.0
 10
122.8917236020896
 20
-288.5918591943451
 30
0.0
 10
122.8917236020896
 20
-8.59172363066457
 30
0.0
 10
122.8917236020896
 20
-8.59172363066457
 30
0.0
 10
122.8917236020896
 20
-8.59172363066457
 30
0.0
 10
165.3916272915514
 20
-8.59172363066457
 30
0.0
 10
165.3916272915514
 20
-8.59172363066457
 30
0.0
 10
165.3916272915514
 20
-8.59172363066457
 30
0.0
 10
165.3916272915514
 20
-23.59184162821662
 30
0.0
 10
165.3916272915514
 20
-23.59184162821662
 30
0.0
 10
165.3916272915514
 20
-23.59184162821662
 30
0.0
 10
265.3915526680271
 20
-23.59184162821662
 30
0.0
 10
265.3915526680271
 20
-23.59184162821662
 30
0.0
 10
265.3915526680271
 20
-23.59184162821662
 30
0.0
 10
265.3915526680271
 20
-8.59172363066457
 30
0.0
 10
265.3915526680271
 20
-8.59172363066457
 30
0.0
 10
265.3915526680271
 20
-8.59172363066457
 30
0.0
 10
297.8915499472285
 20
-8.59172363066457
 30
0.0
 10
297.8915499472285
 20
-8.59172363066457
 30
0.0
 10
297.8915499472285
 20
-8.59172363066457
 30
0.0
 10
297.8915499472285
 20
-233.0917154365187
 30
0.0
 10
297.8915499472285
 20
-233.0917154365187
 30
0.0
 10
297.8915499472285
 20
-233.0917154365187
 30
0.0
 10
278.3916204816174
 20
-233.0917154365187
 30
0.0
 10
278.3916204816174
 20
-233.0917154365187
 30
0.0
 10
276.7348740627608
 20
-233.0917154365187
 30
0.0
 10
275.3916313330618
 20
-231.7488172163684
 30
0.0
 10
275.3916313330618
 20
-230.0917262879632
 30
0.0
 10
275.3916313330618
 20
-230.0917262879632
 30
0.0
 10
275.3916313330618
 20
-88.5918361866194
 30
0.0
 10
275.3916313330618
 20
-88.5918361866194
 30
0.0
 10
275.3916313330618
 20
-81.68820934372725
 30
0.0
 10
269.7950737172735
 20
-76.09182398271315
 30
0.0
 10
262.8917913839298
 20
-76.09182398271315
 30
0.0
 10
262.8917913839298
 20
-76.09182398271315
 30
0.0
 10
213.3916259232146
 20
-76.09182398271315
 30
0.0
 10
213.3916259232146
 20
-76.09182398271315
 30
0.0
 10
211.734879504358
 20
-76.09182398271315
 30
0.0
 10
210.391636774659
 20
-77.43489445763781
 30
0.0
 10
210.391636774659
 20
-79.09181313126872
 30
0.0
 10
210.391636774659
 20
-79.09181313126872
 30
0.0
 10
210.391636774659
 20
-88.09178057693539
 30
0.0
 10
210.391636774659
 20
-88.09178057693539
 30
0.0
 10
210.391636774659
 20
-89.7486992505663
 30
0.0
 10
211.734879504358
 20
-91.09176972549095
 30
0.0
 10
213.3916259232146
 20
-91.09176972549095
 30
0.0
 10
213.3916259232146
 20
-91.09176972549095
 30
0.0
 10
257.3916964417285
 20
-91.09176972549095
 30
0.0
 10
257.3916964417285
 20
-91.09176972549095
 30
0.0
 10
259.0484428605851
 20
-91.09176972549095
 30
0.0
 10
260.3916855902841
 20
-92.43501245518986
 30
0.0
 10
260.3916855902841
 20
-94.0917588740465
 30
0.0
 10
260.3916855902841
 20
-94.0917588740465
 30
0.0
 10
260.3916855902841
 20
-230.0917262879632
 30
0.0
 10
260.3916855902841
 20
-230.0917262879632
 30
0.0
 10
260.3916855902841
 20
-231.7488172163684
 30
0.0
 10
259.0484428605851
 20
-233.0917154365187
 30
0.0
 10
257.3916964417285
 20
-233.0917154365187
 30
0.0
 10
257.3916964417285
 20
-233.0917154365187
 30
0.0
 10
163.3915771075896
 20
-233.0917154365187
 30
0.0
 10
163.3915771075896
 20
-233.0917154365187
 30
0.0
 10
161.734830688733
 20
-233.0917154365187
 30
0.0
 10
160.391587959034
 20
-231.7488172163684
 30
0.0
 10
160.391587959034
 20
-230.0917262879632
 30
0.0
 10
160.391587959034
 20
-230.0917262879632
 30
0.0
 10
160.391587959034
 20
-213.0919026159979
 30
0.0
 10
160.391587959034
 20
-213.0919026159979
 30
0.0
 10
160.391587959034
 20
-211.4348116875927
 30
0.0
 10
161.734830688733
 20
-210.0919134674423
 30
0.0
 10
163.3915771075896
 20
-210.0919134674423
 30
0.0
 10
163.3915771075896
 20
-210.0919134674423
 30
0.0
 10
207.3916476261035
 20
-210.0919134674423
 30
0.0
 10
207.3916476261035
 20
-210.0919134674423
 30
0.0
 10
209.0485662997344
 20
-210.0919134674423
 30
0.0
 10
210.391636774659
 20
-208.7486707377434
 30
0.0
 10
210.391636774659
 20
-207.0919243188868
 30
0.0
 10
210.391636774659
 20
-207.0919243188868
 30
0.0
 10
210.391636774659
 20
-198.0919568732201
 30
0.0
 10
210.391636774659
 20
-198.0919568732201
 30
0.0
 10
210.391636774659
 20
-196.4348659448149
 30
0.0
 10
209.0485662997344
 20
-195.091623215116
 30
0.0
 10
207.3916476261035
 20
-195.091623215116
 30
0.0
 10
207.3916476261035
 20
-195.091623215116
 30
0.0
 10
157.8916544201625
 20
-195.091623215116
 30
0.0
 10
157.8916544201625
 20
-195.091623215116
 30
0.0
 10
150.9880275772704
 20
-195.091623215116
 30
0.0
 10
145.3916422162563
 20
-200.6881808309043
 30
0.0
 10
145.3916422162563
 20
-207.5918076737965
 30
0.0
 10
145.3916422162563
 20
-207.5918076737965
 30
0.0
 10
145.3916422162563
 20
-239.5919215980881
 30
0.0
 10
145.3916422162563
 20
-239.5919215980881
 30
0.0
 10
145.3916422162563
 20
-244.2862087062896
 30
0.0
 10
149.1972669440375
 20
-248.0916611792966
 30
0.0
 10
153.8917263070132
 20
-248.0916611792966
 30
0.0
 10
153.8917263070132
 20
-248.0916611792966
 30
0.0
 10
297.8915499472285
 20
-248.0916611792966
 30
0.0
 10
297.8915499472285
 20
-248.0916611792966
 30
0.0
 10
297.8915499472285
 20
-248.0916611792966
 30
0.0
 10
297.8915499472285
 20
-261.5919568573451
 30
0.0
 10
297.8915499472285
 20
-261.5919568573451
 30
0.0
  0
ENDBLK
  5
110
330
10D
100
AcDbEntity
  8
0
100
AcDbBlockEnd
  0
BLOCK
  5
114
330
112
100
AcDbEntity
  8
0
100
AcDbBlockBegin
  2
block 22
 70
     0
 71
     0
 10
0.0
 20
0.0
 30
0.0
  3
block 22
  1

  0
SPLINE
  5
116
330
112
100
AcDbEntity
  8
Ebene 1
 62
     7
370
    25
100
AcDbSpline
210
0.0
220
0.0
230
1.0
 70
     8
 71
     3
 72
     8
 73
     4
 74
     0
 42
0.0000000001
 43
0.0000000001
 40
0.0
 40
0.0
 40
0.0
 40
0.0
 40
1.0
 40
1.0
 40
1.0
 40
1.0
 10
282.8916042044507
 20
-49.59180500062288
 30
0.0
 10
282.8916042044507
 20
-47.93488632699197
 30
0.0
 10
281.5483614747518
 20
-46.59181585206733
 30
0.0
 10
279.8916150558952
 20
-46.59181585206733
 30
0.0
  0
ENDBLK
  5
115
330
112
100
AcDbEntity
  8
0
100
AcDbBlockEnd
  0
BLOCK
  5
119
330
117
100
AcDbEntity
  8
0
100
AcDbBlockBegin
  2
block 23
 70
     0
 71
     0
 10
0.0
 20
0.0
 30
0.0
  3
block 23
  1

  0
POLYLINE
  5
11B
330
117
100
AcDbEntity
  8
Ebene 1
 62
     7
370
    25
100
AcDb2dPolyline
 66
     1
 10
0.0
 20
0.0
 30
0.0
  0
VERTEX
  5
11C
330
11B
100
AcDbEntity
  8
Ebene 1
 62
     7
370
    25
100
AcDbVertex
100
AcDb2dVertex
 10
282.8916042044507
 20
-49.59180500062288
 30
0.0
  0
VERTEX
  5
11D
330
11B
100
AcDbEntity
  8
Ebene 1
 62
     7
370
    25
100
AcDbVertex
100
AcDb2dVertex
 10
282.8916042044507
 20
-55.591783297734
 30
0.0
  0
SEQEND
  5
11E
330
11B
100
AcDbEntity
  8
Ebene 1
370
    25
  0
ENDBLK
  5
11A
330
117
100
AcDbEntity
  8
0
100
AcDbBlockEnd
  0
BLOCK
  5
121
330
11F
100
AcDbEntity
  8
0
100
AcDbBlockBegin
  2
block 24
 70
     0
 71
     0
 10
0.0
 20
0.0
 30
0.0
  3
block 24
  1

  0
SPLINE
  5
123
330
11F
100
AcDbEntity
  8
Ebene 1
 62
     7
370
    25
100
AcDbSpline
210
0.0
220
0.0
230
1.0
 70
     8
 71
     3
 72
     8
 73
     4
 74
     0
 42
0.0000000001
 43
0.0000000001
 40
0.0
 40
0.0
 40
0.0
 40
0.0
 40
1.0
 40
1.0
 40
1.0
 40
1.0
 10
279.8916150558952
 20
-58.59177244628956
 30
0.0
 10
281.5483614747518
 20
-58.59177244628956
 30
0.0
 10
282.8916042044507
 20
-57.24870197136491
 30
0.0
 10
282.8916042044507
 20
-55.591783297734
 30
0.0
  0
ENDBLK
  5
122
330
11F
100
AcDbEntity
  8
0
100
AcDbBlockEnd
  0
BLOCK
  5
126
330
124
100
AcDbEntity
  8
0
100
AcDbBlockBegin
  2
block 25
 70
     0
 71
     0
 10
0.0
 20
0.0
 30
0.0
  3
block 25
  1

  0
POLYLINE
  5
128
330
124
100
AcDbEntity
  8
Ebene 1
 62
     7
370
    25
100
AcDb2dPolyline
 66
     1
 10
0.0
 20
0.0
 30
0.0
  0
VERTEX
  5
129
330
128
100
AcDbEntity
  8
Ebene 1
 62
     7
370
    25
100
AcDbVertex
100
AcDb2dVertex
 10
279.8916150558952
 20
-58.59177244628956
 30
0.0
  0
VERTEX
  5
12A
330
128
100
AcDbEntity
  8
Ebene 1
 62
     7
370
    25
100
AcDbVertex
100
AcDb2dVertex
 10
255.8917018674507
 20
-58.59177244628956
 30
0.0
  0
SEQEND
  5
12B
330
128
100
AcDbEntity
  8
Ebene 1
370
    25
  0
ENDBLK
  5
127
330
124
100
AcDbEntity
  8
0
100
AcDbBlockEnd
  0
BLOCK
  5
12E
330
12C
100
AcDbEntity
  8
0
100
AcDbBlockBegin
  2
block 26
 70
     0
 71
     0
 10
0.0
 20
0.0
 30
0.0
  3
block 26
  1

  0
SPLINE
  5
130
330
12C
100
AcDbEntity
  8
Ebene 1
 62
     7
370
    25
100
AcDbSpline
210
0.0
220
0.0
230
1.0
 70
     8
 71
     3
 72
     8
 73
     4
 74
     0
 42
0.0000000001
 43
0.0000000001
 40
0.0
 40
0.0
 40
0.0
 40
0.0
 40
1.0
 40
1.0
 40
1.0
 40
1.0
 10
252.8917127188951
 20
-55.591783297734
 30
0.0
 10
252.8917127188951
 20
-57.24870197136491
 30
0.0
 10
254.2346109390455
 20
-58.59177244628956
 30
0.0
 10
255.8917018674507
 20
-58.59177244628956
 30
0.0
  0
ENDBLK
  5
12F
330
12C
100
AcDbEntity
  8
0
100
AcDbBlockEnd
  0
BLOCK
  5
133
330
131
100
AcDbEntity
  8
0
100
AcDbBlockBegin
  2
block 27
 70
     0
 71
     0
 10
0.0
 20
0.0
 30
0.0
  3
block 27
  1

  0
POLYLINE
  5
135
330
131
100
AcDbEntity
  8
Ebene 1
 62
     7
370
    25
100
AcDb2dPolyline
 66
     1
 10
0.0
 20
0.0
 30
0.0
  0
VERTEX
  5
136
330
135
100
AcDbEntity
  8
Ebene 1
 62
     7
370
    25
100
AcDbVertex
100
AcDb2dVertex
 10
252.8917127188951
 20
-55.591783297734
 30
0.0
  0
VERTEX
  5
137
330
135
100
AcDbEntity
  8
Ebene 1
 62
     7
370
    25
100
AcDbVertex
100
AcDb2dVertex
 10
252.8917127188951
 20
-49.59180500062288
 30
0.0
  0
SEQEND
  5
138
330
135
100
AcDbEntity
  8
Ebene 1
370
    25
  0
ENDBLK
  5
134
330
131
100
AcDbEntity
  8
0
100
AcDbBlockEnd
  0
BLOCK
  5
13B
330
139
100
AcDbEntity
  8
0
100
AcDbBlockBegin
  2
block 28
 70
     0
 71
     0
 10
0.0
 20
0.0
 30
0.0
  3
block 28
  1

  0
SPLINE
  5
13D
330
139
100
AcDbEntity
  8
Ebene 1
 62
     7
370
    25
100
AcDbSpline
210
0.0
220
0.0
230
1.0
 70
     8
 71
     3
 72
     8
 73
     4
 74
     0
 42
0.0000000001
 43
0.0000000001
 40
0.0
 40
0.0
 40
0.0
 40
0.0
 40
1.0
 40
1.0
 40
1.0
 40
1.0
 10
255.8917018674507
 20
-46.59181585206733
 30
0.0
 10
254.2346109390455
 20
-46.59181585206733
 30
0.0
 10
252.8917127188951
 20
-47.93488632699197
 30
0.0
 10
252.8917127188951
 20
-49.59180500062288
 30
0.0
  0
ENDBLK
  5
13C
330
139
100
AcDbEntity
  8
0
100
AcDbBlockEnd
  0
BLOCK
  5
140
330
13E
100
AcDbEntity
  8
0
100
AcDbBlockBegin
  2
block 29
 70
     0
 71
     0
 10
0.0
 20
0.0
 30
0.0
  3
block 29
  1

  0
POLYLINE
  5
142
330
13E
100
AcDbEntity
  8
Ebene 1
 62
     7
370
    25
100
AcDb2dPolyline
 66
     1
 10
0.0
 20
0.0
 30
0.0
  0
VERTEX
  5
143
330
142
100
AcDbEntity
  8
Ebene 1
 62
     7
370
    25
100
AcDbVertex
100
AcDb2dVertex
 10
255.8917018674507
 20
-46.59181585206733
 30
0.0
  0
VERTEX
  5
144
330
142
100
AcDbEntity
  8
Ebene 1
 62
     7
370
    25
100
AcDbVertex
100
AcDb2dVertex
 10
259.8914577258258
 20
-46.59181585206733
 30
0.0
  0
SEQEND
  5
145
330
142
100
AcDbEntity
  8
Ebene 1
370
    25
  0
ENDBLK
  5
141
330
13E
100
AcDbEntity
  8
0
100
AcDbBlockEnd
  0
BLOCK
  5
148
330
146
100
AcDbEntity
  8
0
100
AcDbBlockBegin
  2
block 30
 70
     0
 71
     0
 10
0.0
 20
0.0
 30
0.0
  3
block 30
  1

  0
SPLINE
  5
14A
330
146
100
AcDbEntity
  8
Ebene 1
 62
     7
370
    25
100
AcDbSpline
210
0.0
220
0.0
230
1.0
 70
     8
 71
     3
 72
     8
 73
     4
 74
     0
 42
0.0000000001
 43
0.0000000001
 40
0.0
 40
0.0
 40
0.0
 40
0.0
 40
1.0
 40
1.0
 40
1.0
 40
1.0
 10
259.8914577258258
 20
-46.59181585206733
 30
0.0
 10
261.548548654231
 20
-46.59181585206733
 30
0.0
 10
262.8917913839298
 20
-45.24857312236841
 30
0.0
 10
262.8917913839298
 20
-43.59182670351177
 30
0.0
  0
ENDBLK
  5
149
330
146
100
AcDbEntity
  8
0
100
AcDbBlockEnd
  0
BLOCK
  5
14D
330
14B
100
AcDbEntity
  8
0
100
AcDbBlockBegin
  2
block 31
 70
     0
 71
     0
 10
0.0
 20
0.0
 30
0.0
  3
block 31
  1

  0
POLYLINE
  5
14F
330
14B
100
AcDbEntity
  8
Ebene 1
 62
     7
370
    25
100
AcDb2dPolyline
 66
     1
 10
0.0
 20
0.0
 30
0.0
  0
VERTEX
  5
150
330
14F
100
AcDbEntity
  8
Ebene 1
 62
     7
370
    25
100
AcDbVertex
100
AcDb2dVertex
 10
262.8917913839298
 20
-43.59182670351177
 30
0.0
  0
VERTEX
  5
151
330
14F
100
AcDbEntity
  8
Ebene 1
 62
     7
370
    25
100
AcDbVertex
100
AcDb2dVertex
 10
262.8917913839298
 20
-38.59178737099442
 30
0.0
  0
SEQEND
  5
152
330
14F
100
AcDbEntity
  8
Ebene 1
370
    25
  0
ENDBLK
  5
14E
330
14B
100
AcDbEntity
  8
0
100
AcDbBlockEnd
  0
BLOCK
  5
155
330
153
100
AcDbEntity
  8
0
100
AcDbBlockBegin
  2
block 32
 70
     0
 71
     0
 10
0.0
 20
0.0
 30
0.0
  3
block 32
  1

  0
SPLINE
  5
157
330
153
100
AcDbEntity
  8
Ebene 1
 62
     7
370
    25
100
AcDbSpline
210
0.0
220
0.0
230
1.0
 70
     8
 71
     3
 72
    11
 73
     7
 74
     0
 42
0.0000000001
 43
0.0000000001
 40
0.0
 40
0.0
 40
0.0
 40
0.0
 40
1.0
 40
1.0
 40
1.0
 40
2.0
 40
2.0
 40
2.0
 40
2.0
 10
272.891525539416
 20
-38.59178737099442
 30
0.0
 10
272.891525539416
 20
-35.83037108479241
 30
0.0
 10
270.6529024931007
 20
-33.59174803847706
 30
0.0
 10
267.8916584616729
 20
-33.59174803847706
 30
0.0
 10
265.1300699206967
 20
-33.59174803847706
 30
0.0
 10
262.8917913839298
 20
-35.83037108479241
 30
0.0
 10
262.8917913839298
 20
-38.59178737099442
 30
0.0
  0
ENDBLK
  5
156
330
153
100
AcDbEntity
  8
0
100
AcDbBlockEnd
  0
BLOCK
  5
15A
330
158
100
AcDbEntity
  8
0
100
AcDbBlockBegin
  2
block 33
 70
     0
 71
     0
 10
0.0
 20
0.0
 30
0.0
  3
block 33
  1

  0
POLYLINE
  5
15C
330
158
100
AcDbEntity
  8
Ebene 1
 62
     7
370
    25
100
AcDb2dPolyline
 66
     1
 10
0.0
 20
0.0
 30
0.0
  0
VERTEX
  5
15D
330
15C
100
AcDbEntity
  8
Ebene 1
 62
     7
370
    25
100
AcDbVertex
100
AcDb2dVertex
 10
272.891525539416
 20
-38.59178737099442
 30
0.0
  0
VERTEX
  5
15E
330
15C
100
AcDbEntity
  8
Ebene 1
 62
     7
370
    25
100
AcDbVertex
100
AcDb2dVertex
 10
272.891525539416
 20
-43.59182670351177
 30
0.0
  0
SEQEND
  5
15F
330
15C
100
AcDbEntity
  8
Ebene 1
370
    25
  0
ENDBLK
  5
15B
330
158
100
AcDbEntity
  8
0
100
AcDbBlockEnd
  0
BLOCK
  5
162
330
160
100
AcDbEntity
  8
0
100
AcDbBlockBegin
  2
block 34
 70
     0
 71
     0
 10
0.0
 20
0.0
 30
0.0
  3
block 34
  1

  0
SPLINE
  5
164
330
160
100
AcDbEntity
  8
Ebene 1
 62
     7
370
    25
100
AcDbSpline
210
0.0
220
0.0
230
1.0
 70
     8
 71
     3
 72
     8
 73
     4
 74
     0
 42
0.0000000001
 43
0.0000000001
 40
0.0
 40
0.0
 40
0.0
 40
0.0
 40
1.0
 40
1.0
 40
1.0
 40
1.0
 10
272.891525539416
 20
-43.59182670351177
 30
0.0
 10
272.891525539416
 20
-45.24857312236841
 30
0.0
 10
274.2347682691149
 20
-46.59181585206733
 30
0.0
 10
275.8915146879716
 20
-46.59181585206733
 30
0.0
  0
ENDBLK
  5
163
330
160
100
AcDbEntity
  8
0
100
AcDbBlockEnd
  0
BLOCK
  5
167
330
165
100
AcDbEntity
  8
0
100
AcDbBlockBegin
  2
block 35
 70
     0
 71
     0
 10
0.0
 20
0.0
 30
0.0
  3
block 35
  1

  0
POLYLINE
  5
169
330
165
100
AcDbEntity
  8
Ebene 1
 62
     7
370
    25
100
AcDb2dPolyline
 66
     1
 10
0.0
 20
0.0
 30
0.0
  0
VERTEX
  5
16A
330
169
100
AcDbEntity
  8
Ebene 1
 62
     7
370
    25
100
AcDbVertex
100
AcDb2dVertex
 10
275.8915146879716
 20
-46.59181585206733
 30
0.0
  0
VERTEX
  5
16B
330
169
100
AcDbEntity
  8
Ebene 1
 62
     7
370
    25
100
AcDbVertex
100
AcDb2dVertex
 10
279.8916150558952
 20
-46.59181585206733
 30
0.0
  0
SEQEND
  5
16C
330
169
100
AcDbEntity
  8
Ebene 1
370
    25
  0
ENDBLK
  5
168
330
165
100
AcDbEntity
  8
0
100
AcDbBlockEnd
  0
BLOCK
  5
16F
330
16D
100
AcDbEntity
  8
0
100
AcDbBlockBegin
  2
block 36
 70
     0
 71
     0
 10
0.0
 20
0.0
 30
0.0
  3
block 36
  1

  0
SPLINE
  5
171
330
16D
100
AcDbEntity
  8
Ebene 1
 62
     7
370
    25
100
AcDbSpline
210
0.0
220
0.0
230
1.0
 70
     8
 71
     3
 72
     8
 73
     4
 74
     0
 42
0.0000000001
 43
0.0000000001
 40
0.0
 40
0.0
 40
0.0
 40
0.0
 40
1.0
 40
1.0
 40
1.0
 40
1.0
 10
140.8916584934229
 20
-46.59181585206733
 30
0.0
 10
139.234739819792
 20
-46.59181585206733
 30
0.0
 10
137.8916693448674
 20
-47.93488632699197
 30
0.0
 10
137.8916693448674
 20
-49.59180500062288
 30
0.0
  0
ENDBLK
  5
170
330
16D
100
AcDbEntity
  8
0
100
AcDbBlockEnd
  0
BLOCK
  5
174
330
172
100
AcDbEntity
  8
0
100
AcDbBlockBegin
  2
block 37
 70
     0
 71
     0
 10
0.0
 20
0.0
 30
0.0
  3
block 37
  1

  0
POLYLINE
  5
176
330
172
100
AcDbEntity
  8
Ebene 1
 62
     7
370
    25
100
AcDb2dPolyline
 66
     1
 10
0.0
 20
0.0
 30
0.0
  0
VERTEX
  5
177
330
176
100
AcDbEntity
  8
Ebene 1
 62
     7
370
    25
100
AcDbVertex
100
AcDb2dVertex
 10
140.8916584934229
 20
-46.59181585206733
 30
0.0
  0
VERTEX
  5
178
330
176
100
AcDbEntity
  8
Ebene 1
 62
     7
370
    25
100
AcDbVertex
100
AcDb2dVertex
 10
144.8915866065722
 20
-46.59181585206733
 30
0.0
  0
SEQEND
  5
179
330
176
100
AcDbEntity
  8
Ebene 1
370
    25
  0
ENDBLK
  5
175
330
172
100
AcDbEntity
  8
0
100
AcDbBlockEnd
  0
BLOCK
  5
17C
330
17A
100
AcDbEntity
  8
0
100
AcDbBlockBegin
  2
block 38
 70
     0
 71
     0
 10
0.0
 20
0.0
 30
0.0
  3
block 38
  1

  0
SPLINE
  5
17E
330
17A
100
AcDbEntity
  8
Ebene 1
 62
     7
370
    25
100
AcDbSpline
210
0.0
220
0.0
230
1.0
 70
     8
 71
     3
 72
     8
 73
     4
 74
     0
 42
0.0000000001
 43
0.0000000001
 40
0.0
 40
0.0
 40
0.0
 40
0.0
 40
1.0
 40
1.0
 40
1.0
 40
1.0
 10
144.8915866065722
 20
-46.59181585206733
 30
0.0
 10
146.5485052802032
 20
-46.59181585206733
 30
0.0
 10
147.8915757551278
 20
-45.24857312236841
 30
0.0
 10
147.8915757551278
 20
-43.59182670351177
 30
0.0
  0
ENDBLK
  5
17D
330
17A
100
AcDbEntity
  8
0
100
AcDbBlockEnd
  0
BLOCK
  5
181
330
17F
100
AcDbEntity
  8
0
100
AcDbBlockBegin
  2
block 39
 70
     0
 71
     0
 10
0.0
 20
0.0
 30
0.0
  3
block 39
  1

  0
POLYLINE
  5
183
330
17F
100
AcDbEntity
  8
Ebene 1
 62
     7
370
    25
100
AcDb2dPolyline
 66
     1
 10
0.0
 20
0.0
 30
0.0
  0
VERTEX
  5
184
330
183
100
AcDbEntity
  8
Ebene 1
 62
     7
370
    25
100
AcDbVertex
100
AcDb2dVertex
 10
147.8915757551278
 20
-43.59182670351177
 30
0.0
  0
VERTEX
  5
185
330
183
100
AcDbEntity
  8
Ebene 1
 62
     7
370
    25
100
AcDbVertex
100
AcDb2dVertex
 10
147.8915757551278
 20
-38.59178737099442
 30
0.0
  0
SEQEND
  5
186
330
183
100
AcDbEntity
  8
Ebene 1
370
    25
  0
ENDBLK
  5
182
330
17F
100
AcDbEntity
  8
0
100
AcDbBlockEnd
  0
BLOCK
  5
189
330
187
100
AcDbEntity
  8
0
100
AcDbBlockBegin
  2
block 40
 70
     0
 71
     0
 10
0.0
 20
0.0
 30
0.0
  3
block 40
  1

  0
SPLINE
  5
18B
330
187
100
AcDbEntity
  8
Ebene 1
 62
     7
370
    25
100
AcDbSpline
210
0.0
220
0.0
230
1.0
 70
     8
 71
     3
 72
    11
 73
     7
 74
     0
 42
0.0000000001
 43
0.0000000001
 40
0.0
 40
0.0
 40
0.0
 40
0.0
 40
1.0
 40
1.0
 40
1.0
 40
2.0
 40
2.0
 40
2.0
 40
2.0
 10
157.8916544201625
 20
-38.59178737099442
 30
0.0
 10
157.8916544201625
 20
-35.83037108479241
 30
0.0
 10
155.6530313738472
 20
-33.59174803847706
 30
0.0
 10
152.8916150876452
 20
-33.59174803847706
 30
0.0
 10
150.1301988014432
 20
-33.59174803847706
 30
0.0
 10
147.8915757551278
 20
-35.83037108479241
 30
0.0
 10
147.8915757551278
 20
-38.59178737099442
 30
0.0
  0
ENDBLK
  5
18A
330
187
100
AcDbEntity
  8
0
100
AcDbBlockEnd
  0
BLOCK
  5
18E
330
18C
100
AcDbEntity
  8
0
100
AcDbBlockBegin
  2
block 41
 70
     0
 71
     0
 10
0.0
 20
0.0
 30
0.0
  3
block 41
  1

  0
POLYLINE
  5
190
330
18C
100
AcDbEntity
  8
Ebene 1
 62
     7
370
    25
100
AcDb2dPolyline
 66
     1
 10
0.0
 20
0.0
 30
0.0
  0
VERTEX
  5
191
330
190
100
AcDbEntity
  8
Ebene 1
 62
     7
370
    25
100
AcDbVertex
100
AcDb2dVertex
 10
157.8916544201625
 20
-38.59178737099442
 30
0.0
  0
VERTEX
  5
192
330
190
100
AcDbEntity
  8
Ebene 1
 62
     7
370
    25
100
AcDbVertex
100
AcDb2dVertex
 10
157.8916544201625
 20
-43.59182670351177
 30
0.0
  0
SEQEND
  5
193
330
190
100
AcDbEntity
  8
Ebene 1
370
    25
  0
ENDBLK
  5
18F
330
18C
100
AcDbEntity
  8
0
100
AcDbBlockEnd
  0
BLOCK
  5
196
330
194
100
AcDbEntity
  8
0
100
AcDbBlockBegin
  2
block 42
 70
     0
 71
     0
 10
0.0
 20
0.0
 30
0.0
  3
block 42
  1

  0
SPLINE
  5
198
330
194
100
AcDbEntity
  8
Ebene 1
 62
     7
370
    25
100
AcDbSpline
210
0.0
220
0.0
230
1.0
 70
     8
 71
     3
 72
     8
 73
     4
 74
     0
 42
0.0000000001
 43
0.0000000001
 40
0.0
 40
0.0
 40
0.0
 40
0.0
 40
1.0
 40
1.0
 40
1.0
 40
1.0
 10
157.8916544201625
 20
-43.59182670351177
 30
0.0
 10
157.8916544201625
 20
-45.24857312236841
 30
0.0
 10
159.2347248950872
 20
-46.59181585206733
 30
0.0
 10
160.8916435687181
 20
-46.59181585206733
 30
0.0
  0
ENDBLK
  5
197
330
194
100
AcDbEntity
  8
0
100
AcDbBlockEnd
  0
BLOCK
  5
19B
330
199
100
AcDbEntity
  8
0
100
AcDbBlockBegin
  2
block 43
 70
     0
 71
     0
 10
0.0
 20
0.0
 30
0.0
  3
block 43
  1

  0
POLYLINE
  5
19D
330
199
100
AcDbEntity
  8
Ebene 1
 62
     7
370
    25
100
AcDb2dPolyline
 66
     1
 10
0.0
 20
0.0
 30
0.0
  0
VERTEX
  5
19E
330
19D
100
AcDbEntity
  8
Ebene 1
 62
     7
370
    25
100
AcDbVertex
100
AcDb2dVertex
 10
160.8916435687181
 20
-46.59181585206733
 30
0.0
  0
VERTEX
  5
19F
330
19D
100
AcDbEntity
  8
Ebene 1
 62
     7
370
    25
100
AcDbVertex
100
AcDb2dVertex
 10
164.8915716818674
 20
-46.59181585206733
 30
0.0
  0
SEQEND
  5
1A0
330
19D
100
AcDbEntity
  8
Ebene 1
370
    25
  0
ENDBLK
  5
19C
330
199
100
AcDbEntity
  8
0
100
AcDbBlockEnd
  0
BLOCK
  5
1A3
330
1A1
100
AcDbEntity
  8
0
100
AcDbBlockBegin
  2
block 44
 70
     0
 71
     0
 10
0.0
 20
0.0
 30
0.0
  3
block 44
  1

  0
SPLINE
  5
1A5
330
1A1
100
AcDbEntity
  8
Ebene 1
 62
     7
370
    25
100
AcDbSpline
210
0.0
220
0.0
230
1.0
 70
     8
 71
     3
 72
     8
 73
     4
 74
     0
 42
0.0000000001
 43
0.0000000001
 40
0.0
 40
0.0
 40
0.0
 40
0.0
 40
1.0
 40
1.0
 40
1.0
 40
1.0
 10
167.8915608304229
 20
-49.59180500062288
 30
0.0
 10
167.8915608304229
 20
-47.93488632699197
 30
0.0
 10
166.5484903554983
 20
-46.59181585206733
 30
0.0
 10
164.8915716818674
 20
-46.59181585206733
 30
0.0
  0
ENDBLK
  5
1A4
330
1A1
100
AcDbEntity
  8
0
100
AcDbBlockEnd
  0
BLOCK
  5
1A8
330
1A6
100
AcDbEntity
  8
0
100
AcDbBlockBegin
  2
block 45
 70
     0
 71
     0
 10
0.0
 20
0.0
 30
0.0
  3
block 45
  1

  0
POLYLINE
  5
1AA
330
1A6
100
AcDbEntity
  8
Ebene 1
 62
     7
370
    25
100
AcDb2dPolyline
 66
     1
 10
0.0
 20
0.0
 30
0.0
  0
VERTEX
  5
1AB
330
1AA
100
AcDbEntity
  8
Ebene 1
 62
     7
370
    25
100
AcDbVertex
100
AcDb2dVertex
 10
167.8915608304229
 20
-49.59180500062288
 30
0.0
  0
VERTEX
  5
1AC
330
1AA
100
AcDbEntity
  8
Ebene 1
 62
     7
370
    25
100
AcDbVertex
100
AcDb2dVertex
 10
167.8915608304229
 20
-55.591783297734
 30
0.0
  0
SEQEND
  5
1AD
330
1AA
100
AcDbEntity
  8
Ebene 1
370
    25
  0
ENDBLK
  5
1A9
330
1A6
100
AcDbEntity
  8
0
100
AcDbBlockEnd
  0
BLOCK
  5
1B0
330
1AE
100
AcDbEntity
  8
0
100
AcDbBlockBegin
  2
block 46
 70
     0
 71
     0
 10
0.0
 20
0.0
 30
0.0
  3
block 46
  1

  0
SPLINE
  5
1B2
330
1AE
100
AcDbEntity
  8
Ebene 1
 62
     7
370
    25
100
AcDbSpline
210
0.0
220
0.0
230
1.0
 70
     8
 71
     3
 72
     8
 73
     4
 74
     0
 42
0.0000000001
 43
0.0000000001
 40
0.0
 40
0.0
 40
0.0
 40
0.0
 40
1.0
 40
1.0
 40
1.0
 40
1.0
 10
164.8915716818674
 20
-58.59177244628956
 30
0.0
 10
166.5484903554983
 20
-58.59177244628956
 30
0.0
 10
167.8915608304229
 20
-57.24870197136491
 30
0.0
 10
167.8915608304229
 20
-55.591783297734
 30
0.0
  0
ENDBLK
  5
1B1
330
1AE
100
AcDbEntity
  8
0
100
AcDbBlockEnd
  0
BLOCK
  5
1B5
330
1B3
100
AcDbEntity
  8
0
100
AcDbBlockBegin
  2
block 47
 70
     0
 71
     0
 10
0.0
 20
0.0
 30
0.0
  3
block 47
  1

  0
POLYLINE
  5
1B7
330
1B3
100
AcDbEntity
  8
Ebene 1
 62
     7
370
    25
100
AcDb2dPolyline
 66
     1
 10
0.0
 20
0.0
 30
0.0
  0
VERTEX
  5
1B8
330
1B7
100
AcDbEntity
  8
Ebene 1
 62
     7
370
    25
100
AcDbVertex
100
AcDb2dVertex
 10
164.8915716818674
 20
-58.59177244628956
 30
0.0
  0
VERTEX
  5
1B9
330
1B7
100
AcDbEntity
  8
Ebene 1
 62
     7
370
    25
100
AcDbVertex
100
AcDb2dVertex
 10
140.8916584934229
 20
-58.59177244628956
 30
0.0
  0
SEQEND
  5
1BA
330
1B7
100
AcDbEntity
  8
Ebene 1
370
    25
  0
ENDBLK
  5
1B6
330
1B3
100
AcDbEntity
  8
0
100
AcDbBlockEnd
  0
BLOCK
  5
1BD
330
1BB
100
AcDbEntity
  8
0
100
AcDbBlockBegin
  2
block 48
 70
     0
 71
     0
 10
0.0
 20
0.0
 30
0.0
  3
block 48
  1

  0
SPLINE
  5
1BF
330
1BB
100
AcDbEntity
  8
Ebene 1
 62
     7
370
    25
100
AcDbSpline
210
0.0
220
0.0
230
1.0
 70
     8
 71
     3
 72
     8
 73
     4
 74
     0
 42
0.0000000001
 43
0.0000000001
 40
0.0
 40
0.0
 40
0.0
 40
0.0
 40
1.0
 40
1.0
 40
1.0
 40
1.0
 10
137.8916693448674
 20
-55.591783297734
 30
0.0
 10
137.8916693448674
 20
-57.24870197136491
 30
0.0
 10
139.234739819792
 20
-58.59177244628956
 30
0.0
 10
140.8916584934229
 20
-58.59177244628956
 30
0.0
  0
ENDBLK
  5
1BE
330
1BB
100
AcDbEntity
  8
0
100
AcDbBlockEnd
  0
BLOCK
  5
1C2
330
1C0
100
AcDbEntity
  8
0
100
AcDbBlockBegin
  2
block 49
 70
     0
 71
     0
 10
0.0
 20
0.0
 30
0.0
  3
block 49
  1

  0
POLYLINE
  5
1C4
330
1C0
100
AcDbEntity
  8
Ebene 1
 62
     7
370
    25
100
AcDb2dPolyline
 66
     1
 10
0.0
 20
0.0
 30
0.0
  0
VERTEX
  5
1C5
330
1C4
100
AcDbEntity
  8
Ebene 1
 62
     7
370
    25
100
AcDbVertex
100
AcDb2dVertex
 10
137.8916693448674
 20
-55.591783297734
 30
0.0
  0
VERTEX
  5
1C6
330
1C4
100
AcDbEntity
  8
Ebene 1
 62
     7
370
    25
100
AcDbVertex
100
AcDb2dVertex
 10
137.8916693448674
 20
-49.59180500062288
 30
0.0
  0
SEQEND
  5
1C7
330
1C4
100
AcDbEntity
  8
Ebene 1
370
    25
  0
ENDBLK
  5
1C3
330
1C0
100
AcDbEntity
  8
0
100
AcDbBlockEnd
  0
BLOCK
  5
1CA
330
1C8
100
AcDbEntity
  8
0
100
AcDbBlockBegin
  2
block 50
 70
     0
 71
     0
 10
0.0
 20
0.0
 30
0.0
  3
block 50
  1

  0
POLYLINE
  5
1CC
330
1C8
100
AcDbEntity
  8
Ebene 1
 62
     7
370
    25
100
AcDb2dPolyline
 66
     1
 10
0.0
 20
0.0
 30
0.0
  0
VERTEX
  5
1CD
330
1CC
100
AcDbEntity
  8
Ebene 1
 62
     7
370
    25
100
AcDbVertex
100
AcDb2dVertex
 10
282.8916042044507
 20
-282.7417425508423
 30
0.0
  0
VERTEX
  5
1CE
330
1CC
100
AcDbEntity
  8
Ebene 1
 62
     7
370
    25
100
AcDbVertex
100
AcDb2dVertex
 10
282.8916042044507
 20
-285.5918700457896
 30
0.0
  0
VERTEX
  5
1CF
330
1CC
100
AcDbEntity
  8
Ebene 1
 62
     7
370
    25
100
AcDbVertex
100
AcDb2dVertex
 10
292.8916828694854
 20
-285.5918700457896
 30
0.0
  0
VERTEX
  5
1D0
330
1CC
100
AcDbEntity
  8
Ebene 1
 62
     7
370
    25
100
AcDbVertex
100
AcDb2dVertex
 10
292.8916828694854
 20
-282.7417425508423
 30
0.0
  0
VERTEX
  5
1D1
330
1CC
100
AcDbEntity
  8
Ebene 1
 62
     7
370
    25
100
AcDbVertex
100
AcDb2dVertex
 10
282.8916042044507
 20
-282.7417425508423
 30
0.0
  0
SEQEND
  5
1D2
330
1CC
100
AcDbEntity
  8
Ebene 1
370
    25
  0
ENDBLK
  5
1CB
330
1C8
100
AcDbEntity
  8
0
100
AcDbBlockEnd
  0
BLOCK
  5
1D5
330
1D3
100
AcDbEntity
  8
0
100
AcDbBlockBegin
  2
block 51
 70
     0
 71
     0
 10
0.0
 20
0.0
 30
0.0
  3
block 51
  1

  0
POLYLINE
  5
1D7
330
1D3
100
AcDbEntity
  8
Ebene 1
 62
     7
370
    25
100
AcDb2dPolyline
 66
     1
 10
0.0
 20
0.0
 30
0.0
  0
VERTEX
  5
1D8
330
1D7
100
AcDbEntity
  8
Ebene 1
 62
     7
370
    25
100
AcDbVertex
100
AcDb2dVertex
 10
259.1418049482354
 20
-282.7417425508423
 30
0.0
  0
VERTEX
  5
1D9
330
1D7
100
AcDbEntity
  8
Ebene 1
 62
     7
370
    25
100
AcDbVertex
100
AcDb2dVertex
 10
259.1418049482354
 20
-285.5918700457896
 30
0.0
  0
VERTEX
  5
1DA
330
1D7
100
AcDbEntity
  8
Ebene 1
 62
     7
370
    25
100
AcDbVertex
100
AcDb2dVertex
 10
269.1415391037216
 20
-285.5918700457896
 30
0.0
  0
VERTEX
  5
1DB
330
1D7
100
AcDbEntity
  8
Ebene 1
 62
     7
370
    25
100
AcDbVertex
100
AcDb2dVertex
 10
269.1415391037216
 20
-282.7417425508423
 30
0.0
  0
VERTEX
  5
1DC
330
1D7
100
AcDbEntity
  8
Ebene 1
 62
     7
370
    25
100
AcDbVertex
100
AcDb2dVertex
 10
259.1418049482354
 20
-282.7417425508423
 30
0.0
  0
SEQEND
  5
1DD
330
1D7
100
AcDbEntity
  8
Ebene 1
370
    25
  0
ENDBLK
  5
1D6
330
1D3
100
AcDbEntity
  8
0
100
AcDbBlockEnd
  0
BLOCK
  5
1E0
330
1DE
100
AcDbEntity
  8
0
100
AcDbBlockBegin
  2
block 52
 70
     0
 71
     0
 10
0.0
 20
0.0
 30
0.0
  3
block 52
  1

  0
POLYLINE
  5
1E2
330
1DE
100
AcDbEntity
  8
Ebene 1
 62
     7
370
    25
100
AcDb2dPolyline
 66
     1
 10
0.0
 20
0.0
 30
0.0
  0
VERTEX
  5
1E3
330
1E2
100
AcDbEntity
  8
Ebene 1
 62
     7
370
    25
100
AcDbVertex
100
AcDb2dVertex
 10
235.3916611824716
 20
-282.7417425508423
 30
0.0
  0
VERTEX
  5
1E4
330
1E2
100
AcDbEntity
  8
Ebene 1
 62
     7
370
    25
100
AcDbVertex
100
AcDb2dVertex
 10
235.3916611824716
 20
-285.5918700457896
 30
0.0
  0
VERTEX
  5
1E5
330
1E2
100
AcDbEntity
  8
Ebene 1
 62
     7
370
    25
100
AcDbVertex
100
AcDb2dVertex
 10
245.3917398475062
 20
-285.5918700457896
 30
0.0
  0
VERTEX
  5
1E6
330
1E2
100
AcDbEntity
  8
Ebene 1
 62
     7
370
    25
100
AcDbVertex
100
AcDb2dVertex
 10
245.3917398475062
 20
-282.7417425508423
 30
0.0
  0
VERTEX
  5
1E7
330
1E2
100
AcDbEntity
  8
Ebene 1
 62
     7
370
    25
100
AcDbVertex
100
AcDb2dVertex
 10
235.3916611824716
 20
-282.7417425508423
 30
0.0
  0
SEQEND
  5
1E8
330
1E2
100
AcDbEntity
  8
Ebene 1
370
    25
  0
ENDBLK
  5
1E1
330
1DE
100
AcDbEntity
  8
0
100
AcDbBlockEnd
  0
BLOCK
  5
1EB
330
1E9
100
AcDbEntity
  8
0
100
AcDbBlockBegin
  2
block 53
 70
     0
 71
     0
 10
0.0
 20
0.0
 30
0.0
  3
block 53
  1

  0
POLYLINE
  5
1ED
330
1E9
100
AcDbEntity
  8
Ebene 1
 62
     7
370
    25
100
AcDb2dPolyline
 66
     1
 10
0.0
 20
0.0
 30
0.0
  0
VERTEX
  5
1EE
330
1ED
100
AcDbEntity
  8
Ebene 1
 62
     7
370
    25
100
AcDbVertex
100
AcDb2dVertex
 10
230.3917941047285
 20
-279.5918917486784
 30
0.0
  0
VERTEX
  5
1EF
330
1ED
100
AcDbEntity
  8
Ebene 1
 62
     7
370
    25
100
AcDbVertex
100
AcDb2dVertex
 10
297.8915499472285
 20
-279.5918917486784
 30
0.0
  0
VERTEX
  5
1F0
330
1ED
100
AcDbEntity
  8
Ebene 1
 62
     7
370
    25
100
AcDbVertex
100
AcDb2dVertex
 10
297.8915499472285
 20
-288.5918591943451
 30
0.0
  0
VERTEX
  5
1F1
330
1ED
100
AcDbEntity
  8
Ebene 1
 62
     7
370
    25
100
AcDbVertex
100
AcDb2dVertex
 10
230.3917941047285
 20
-288.5918591943451
 30
0.0
  0
VERTEX
  5
1F2
330
1ED
100
AcDbEntity
  8
Ebene 1
 62
     7
370
    25
100
AcDbVertex
100
AcDb2dVertex
 10
230.3917941047285
 20
-279.5918917486784
 30
0.0
  0
SEQEND
  5
1F3
330
1ED
100
AcDbEntity
  8
Ebene 1
370
    25
  0
ENDBLK
  5
1EC
330
1E9
100
AcDbEntity
  8
0
100
AcDbBlockEnd
  0
BLOCK
  5
1F6
330
1F4
100
AcDbEntity
  8
0
100
AcDbBlockBegin
  2
block 54
 70
     0
 71
     0
 10
0.0
 20
0.0
 30
0.0
  3
block 54
  1

  0
SPLINE
  5
1F8
330
1F4
100
AcDbEntity
  8
Ebene 1
 62
     7
370
    25
100
AcDbSpline
210
0.0
220
0.0
230
1.0
 70
    11
 71
     3
 72
    20
 73
    16
 74
     0
 42
0.0000000001
 43
0.0000000001
 40
0.0
 40
0.0
 40
0.0
 40
0.0
 40
1.0
 40
1.0
 40
1.0
 40
2.0
 40
2.0
 40
2.0
 40
3.0
 40
3.0
 40
3.0
 40
4.0
 40
4.0
 40
4.0
 40
5.0
 40
5.0
 40
5.0
 40
5.0
 10
174.6255167206666
 20
-16.09169650205347
 30
0.0
 10
174.6255167206666
 20
-15.3737386029274
 30
0.0
 10
174.0434678384336
 20
-14.7918619754687
 30
0.0
 10
173.3255099393075
 20
-14.7918619754687
 30
0.0
 10
172.6075520401814
 20
-14.7918619754687
 30
0.0
 10
172.0255031579485
 20
-15.3737386029274
 30
0.0
 10
172.0255031579485
 20
-16.09169650205347
 30
0.0
 10
172.0255031579485
 20
-16.8098266559538
 30
0.0
 10
172.6075520401814
 20
-17.39187553818675
 30
0.0
 10
173.3255099393075
 20
-17.39187553818675
 30
0.0
 10
174.0434678384336
 20
-17.39187553818675
 30
0.0
 10
174.6255167206666
 20
-16.8098266559538
 30
0.0
 10
174.6255167206666
 20
-16.09169650205347
 30
0.0
 10
174.6255167206666
 20
-16.09169650205347
 30
0.0
 10
174.6255167206666
 20
-16.09169650205347
 30
0.0
 10
174.6255167206666
 20
-16.09169650205347
 30
0.0
  0
ENDBLK
  5
1F7
330
1F4
100
AcDbEntity
  8
0
100
AcDbBlockEnd
  0
BLOCK
  5
1FB
330
1F9
100
AcDbEntity
  8
0
100
AcDbBlockBegin
  2
block 55
 70
     0
 71
     0
 10
0.0
 20
0.0
 30
0.0
  3
block 55
  1

  0
SPLINE
  5
1FD
330
1F9
100
AcDbEntity
  8
Ebene 1
 62
     7
370
    25
100
AcDbSpline
210
0.0
220
0.0
230
1.0
 70
    11
 71
     3
 72
    20
 73
    16
 74
     0
 42
0.0000000001
 43
0.0000000001
 40
0.0
 40
0.0
 40
0.0
 40
0.0
 40
1.0
 40
1.0
 40
1.0
 40
2.0
 40
2.0
 40
2.0
 40
3.0
 40
3.0
 40
3.0
 40
4.0
 40
4.0
 40
4.0
 40
5.0
 40
5.0
 40
5.0
 40
5.0
 10
173.3255099393075
 20
-8.841837562893708
 30
0.0
 10
173.3255099393075
 20
-8.841837562893708
 30
0.0
 10
245.3917398475062
 20
-8.841837562893708
 30
0.0
 10
245.3917398475062
 20
-8.841837562893708
 30
0.0
 10
245.3917398475062
 20
-8.841837562893708
 30
0.0
 10
245.3917398475062
 20
-23.34172769598749
 30
0.0
 10
245.3917398475062
 20
-23.34172769598749
 30
0.0
 10
245.3917398475062
 20
-23.34172769598749
 30
0.0
 10
173.3255099393075
 20
-23.34172769598749
 30
0.0
 10
173.3255099393075
 20
-23.34172769598749
 30
0.0
 10
169.3214477115759
 20
-23.34172769598749
 30
0.0
 10
166.0754787453735
 20
-20.09593098455935
 30
0.0
 10
166.0754787453735
 20
-16.09169650205347
 30
0.0
 10
166.0754787453735
 20
-12.0878065290961
 30
0.0
 10
169.3214477115759
 20
-8.841837562893708
 30
0.0
 10
173.3255099393075
 20
-8.841837562893708
 30
0.0
  0
ENDBLK
  5
1FC
330
1F9
100
AcDbEntity
  8
0
100
AcDbBlockEnd
  0
BLOCK
  5
200
330
1FE
100
AcDbEntity
  8
0
100
AcDbBlockBegin
  2
block 56
 70
     0
 71
     0
 10
0.0
 20
0.0
 30
0.0
  3
block 56
  1

  0
POLYLINE
  5
202
330
1FE
100
AcDbEntity
  8
Ebene 1
 62
     7
370
    25
100
AcDb2dPolyline
 66
     1
 10
0.0
 20
0.0
 30
0.0
  0
VERTEX
  5
203
330
202
100
AcDbEntity
  8
Ebene 1
 62
     7
370
    25
100
AcDbVertex
100
AcDb2dVertex
 10
175.3917059565861
 20
-282.7417425508423
 30
0.0
  0
VERTEX
  5
204
330
202
100
AcDbEntity
  8
Ebene 1
 62
     7
370
    25
100
AcDbVertex
100
AcDb2dVertex
 10
175.3917059565861
 20
-285.5918700457896
 30
0.0
  0
VERTEX
  5
205
330
202
100
AcDbEntity
  8
Ebene 1
 62
     7
370
    25
100
AcDbVertex
100
AcDb2dVertex
 10
185.3916123668465
 20
-285.5918700457896
 30
0.0
  0
VERTEX
  5
206
330
202
100
AcDbEntity
  8
Ebene 1
 62
     7
370
    25
100
AcDbVertex
100
AcDb2dVertex
 10
185.3916123668465
 20
-282.7417425508423
 30
0.0
  0
VERTEX
  5
207
330
202
100
AcDbEntity
  8
Ebene 1
 62
     7
370
    25
100
AcDbVertex
100
AcDb2dVertex
 10
175.3917059565861
 20
-282.7417425508423
 30
0.0
  0
SEQEND
  5
208
330
202
100
AcDbEntity
  8
Ebene 1
370
    25
  0
ENDBLK
  5
201
330
1FE
100
AcDbEntity
  8
0
100
AcDbBlockEnd
  0
BLOCK
  5
20B
330
209
100
AcDbEntity
  8
0
100
AcDbBlockBegin
  2
block 57
 70
     0
 71
     0
 10
0.0
 20
0.0
 30
0.0
  3
block 57
  1

  0
POLYLINE
  5
20D
330
209
100
AcDbEntity
  8
Ebene 1
 62
     7
370
    25
100
AcDb2dPolyline
 66
     1
 10
0.0
 20
0.0
 30
0.0
  0
VERTEX
  5
20E
330
20D
100
AcDbEntity
  8
Ebene 1
 62
     7
370
    25
100
AcDbVertex
100
AcDb2dVertex
 10
127.8915906798327
 20
-282.7417425508423
 30
0.0
  0
VERTEX
  5
20F
330
20D
100
AcDbEntity
  8
Ebene 1
 62
     7
370
    25
100
AcDbVertex
100
AcDb2dVertex
 10
127.8915906798327
 20
-285.5918700457896
 30
0.0
  0
VERTEX
  5
210
330
20D
100
AcDbEntity
  8
Ebene 1
 62
     7
370
    25
100
AcDbVertex
100
AcDb2dVertex
 10
137.8916693448674
 20
-285.5918700457896
 30
0.0
  0
VERTEX
  5
211
330
20D
100
AcDbEntity
  8
Ebene 1
 62
     7
370
    25
100
AcDbVertex
100
AcDb2dVertex
 10
137.8916693448674
 20
-282.7417425508423
 30
0.0
  0
VERTEX
  5
212
330
20D
100
AcDbEntity
  8
Ebene 1
 62
     7
370
    25
100
AcDbVertex
100
AcDb2dVertex
 10
127.8915906798327
 20
-282.7417425508423
 30
0.0
  0
SEQEND
  5
213
330
20D
100
AcDbEntity
  8
Ebene 1
370
    25
  0
ENDBLK
  5
20C
330
209
100
AcDbEntity
  8
0
100
AcDbBlockEnd
  0
BLOCK
  5
216
330
214
100
AcDbEntity
  8
0
100
AcDbBlockBegin
  2
block 58
 70
     0
 71
     0
 10
0.0
 20
0.0
 30
0.0
  3
block 58
  1

  0
POLYLINE
  5
218
330
214
100
AcDbEntity
  8
Ebene 1
 62
     7
370
    25
100
AcDb2dPolyline
 66
     1
 10
0.0
 20
0.0
 30
0.0
  0
VERTEX
  5
219
330
218
100
AcDbEntity
  8
Ebene 1
 62
     7
370
    25
100
AcDbVertex
100
AcDb2dVertex
 10
151.6415621908222
 20
-282.7417425508423
 30
0.0
  0
VERTEX
  5
21A
330
218
100
AcDbEntity
  8
Ebene 1
 62
     7
370
    25
100
AcDbVertex
100
AcDb2dVertex
 10
151.6415621908222
 20
-285.5918700457896
 30
0.0
  0
VERTEX
  5
21B
330
218
100
AcDbEntity
  8
Ebene 1
 62
     7
370
    25
100
AcDbVertex
100
AcDb2dVertex
 10
161.641640855857
 20
-285.5918700457896
 30
0.0
  0
VERTEX
  5
21C
330
218
100
AcDbEntity
  8
Ebene 1
 62
     7
370
    25
100
AcDbVertex
100
AcDb2dVertex
 10
161.641640855857
 20
-282.7417425508423
 30
0.0
  0
VERTEX
  5
21D
330
218
100
AcDbEntity
  8
Ebene 1
 62
     7
370
    25
100
AcDbVertex
100
AcDb2dVertex
 10
151.6415621908222
 20
-282.7417425508423
 30
0.0
  0
SEQEND
  5
21E
330
218
100
AcDbEntity
  8
Ebene 1
370
    25
  0
ENDBLK
  5
217
330
214
100
AcDbEntity
  8
0
100
AcDbBlockEnd
  0
BLOCK
  5
221
330
21F
100
AcDbEntity
  8
0
100
AcDbBlockBegin
  2
block 59
 70
     0
 71
     0
 10
0.0
 20
0.0
 30
0.0
  3
block 59
  1

  0
POLYLINE
  5
223
330
21F
100
AcDbEntity
  8
Ebene 1
 62
     7
370
    25
100
AcDb2dPolyline
 66
     1
 10
0.0
 20
0.0
 30
0.0
  0
VERTEX
  5
224
330
223
100
AcDbEntity
  8
Ebene 1
 62
     7
370
    25
100
AcDbVertex
100
AcDb2dVertex
 10
282.8916042044507
 20
-253.4167452708472
 30
0.0
  0
VERTEX
  5
225
330
223
100
AcDbEntity
  8
Ebene 1
 62
     7
370
    25
100
AcDbVertex
100
AcDb2dVertex
 10
282.8916042044507
 20
-256.2668727657944
 30
0.0
  0
VERTEX
  5
226
330
223
100
AcDbEntity
  8
Ebene 1
 62
     7
370
    25
100
AcDbVertex
100
AcDb2dVertex
 10
292.8916828694854
 20
-256.2668727657944
 30
0.0
  0
VERTEX
  5
227
330
223
100
AcDbEntity
  8
Ebene 1
 62
     7
370
    25
100
AcDbVertex
100
AcDb2dVertex
 10
292.8916828694854
 20
-253.4167452708472
 30
0.0
  0
VERTEX
  5
228
330
223
100
AcDbEntity
  8
Ebene 1
 62
     7
370
    25
100
AcDbVertex
100
AcDb2dVertex
 10
282.8916042044507
 20
-253.4167452708472
 30
0.0
  0
SEQEND
  5
229
330
223
100
AcDbEntity
  8
Ebene 1
370
    25
  0
ENDBLK
  5
222
330
21F
100
AcDbEntity
  8
0
100
AcDbBlockEnd
  0
BLOCK
  5
22C
330
22A
100
AcDbEntity
  8
0
100
AcDbBlockBegin
  2
block 60
 70
     0
 71
     0
 10
0.0
 20
0.0
 30
0.0
  3
block 60
  1

  0
POLYLINE
  5
22E
330
22A
100
AcDbEntity
  8
Ebene 1
 62
     7
370
    25
100
AcDb2dPolyline
 66
     1
 10
0.0
 20
0.0
 30
0.0
  0
VERTEX
  5
22F
330
22E
100
AcDbEntity
  8
Ebene 1
 62
     7
370
    25
100
AcDbVertex
100
AcDb2dVertex
 10
235.3916611824716
 20
-253.4167452708472
 30
0.0
  0
VERTEX
  5
230
330
22E
100
AcDbEntity
  8
Ebene 1
 62
     7
370
    25
100
AcDbVertex
100
AcDb2dVertex
 10
235.3916611824716
 20
-256.2668727657944
 30
0.0
  0
VERTEX
  5
231
330
22E
100
AcDbEntity
  8
Ebene 1
 62
     7
370
    25
100
AcDbVertex
100
AcDb2dVertex
 10
245.3917398475062
 20
-256.2668727657944
 30
0.0
  0
VERTEX
  5
232
330
22E
100
AcDbEntity
  8
Ebene 1
 62
     7
370
    25
100
AcDbVertex
100
AcDb2dVertex
 10
245.3917398475062
 20
-253.4167452708472
 30
0.0
  0
VERTEX
  5
233
330
22E
100
AcDbEntity
  8
Ebene 1
 62
     7
370
    25
100
AcDbVertex
100
AcDb2dVertex
 10
235.3916611824716
 20
-253.4167452708472
 30
0.0
  0
SEQEND
  5
234
330
22E
100
AcDbEntity
  8
Ebene 1
370
    25
  0
ENDBLK
  5
22D
330
22A
100
AcDbEntity
  8
0
100
AcDbBlockEnd
  0
BLOCK
  5
237
330
235
100
AcDbEntity
  8
0
100
AcDbBlockBegin
  2
block 61
 70
     0
 71
     0
 10
0.0
 20
0.0
 30
0.0
  3
block 61
  1

  0
POLYLINE
  5
239
330
235
100
AcDbEntity
  8
Ebene 1
 62
     7
370
    25
100
AcDb2dPolyline
 66
     1
 10
0.0
 20
0.0
 30
0.0
  0
VERTEX
  5
23A
330
239
100
AcDbEntity
  8
Ebene 1
 62
     7
370
    25
100
AcDbVertex
100
AcDb2dVertex
 10
205.3915974421417
 20
-253.4167452708472
 30
0.0
  0
VERTEX
  5
23B
330
239
100
AcDbEntity
  8
Ebene 1
 62
     7
370
    25
100
AcDbVertex
100
AcDb2dVertex
 10
205.3915974421417
 20
-256.2668727657944
 30
0.0
  0
VERTEX
  5
23C
330
239
100
AcDbEntity
  8
Ebene 1
 62
     7
370
    25
100
AcDbVertex
100
AcDb2dVertex
 10
215.3915038524021
 20
-256.2668727657944
 30
0.0
  0
VERTEX
  5
23D
330
239
100
AcDbEntity
  8
Ebene 1
 62
     7
370
    25
100
AcDbVertex
100
AcDb2dVertex
 10
215.3915038524021
 20
-253.4167452708472
 30
0.0
  0
VERTEX
  5
23E
330
239
100
AcDbEntity
  8
Ebene 1
 62
     7
370
    25
100
AcDbVertex
100
AcDb2dVertex
 10
205.3915974421417
 20
-253.4167452708472
 30
0.0
  0
SEQEND
  5
23F
330
239
100
AcDbEntity
  8
Ebene 1
370
    25
  0
ENDBLK
  5
238
330
235
100
AcDbEntity
  8
0
100
AcDbBlockEnd
  0
BLOCK
  5
242
330
240
100
AcDbEntity
  8
0
100
AcDbBlockBegin
  2
block 62
 70
     0
 71
     0
 10
0.0
 20
0.0
 30
0.0
  3
block 62
  1

  0
POLYLINE
  5
244
330
240
100
AcDbEntity
  8
Ebene 1
 62
     7
370
    25
100
AcDb2dPolyline
 66
     1
 10
0.0
 20
0.0
 30
0.0
  0
VERTEX
  5
245
330
244
100
AcDbEntity
  8
Ebene 1
 62
     7
370
    25
100
AcDbVertex
100
AcDb2dVertex
 10
175.3917059565861
 20
-253.4167452708472
 30
0.0
  0
VERTEX
  5
246
330
244
100
AcDbEntity
  8
Ebene 1
 62
     7
370
    25
100
AcDbVertex
100
AcDb2dVertex
 10
175.3917059565861
 20
-256.2668727657944
 30
0.0
  0
VERTEX
  5
247
330
244
100
AcDbEntity
  8
Ebene 1
 62
     7
370
    25
100
AcDbVertex
100
AcDb2dVertex
 10
185.3916123668465
 20
-256.2668727657944
 30
0.0
  0
VERTEX
  5
248
330
244
100
AcDbEntity
  8
Ebene 1
 62
     7
370
    25
100
AcDbVertex
100
AcDb2dVertex
 10
185.3916123668465
 20
-253.4167452708472
 30
0.0
  0
VERTEX
  5
249
330
244
100
AcDbEntity
  8
Ebene 1
 62
     7
370
    25
100
AcDbVertex
100
AcDb2dVertex
 10
175.3917059565861
 20
-253.4167452708472
 30
0.0
  0
SEQEND
  5
24A
330
244
100
AcDbEntity
  8
Ebene 1
370
    25
  0
ENDBLK
  5
243
330
240
100
AcDbEntity
  8
0
100
AcDbBlockEnd
  0
BLOCK
  5
24D
330
24B
100
AcDbEntity
  8
0
100
AcDbBlockBegin
  2
block 63
 70
     0
 71
     0
 10
0.0
 20
0.0
 30
0.0
  3
block 63
  1

  0
POLYLINE
  5
24F
330
24B
100
AcDbEntity
  8
Ebene 1
 62
     7
370
    25
100
AcDb2dPolyline
 66
     1
 10
0.0
 20
0.0
 30
0.0
  0
VERTEX
  5
250
330
24F
100
AcDbEntity
  8
Ebene 1
 62
     7
370
    25
100
AcDbVertex
100
AcDb2dVertex
 10
127.8915906798327
 20
-253.4167452708472
 30
0.0
  0
VERTEX
  5
251
330
24F
100
AcDbEntity
  8
Ebene 1
 62
     7
370
    25
100
AcDbVertex
100
AcDb2dVertex
 10
127.8915906798327
 20
-256.2668727657944
 30
0.0
  0
VERTEX
  5
252
330
24F
100
AcDbEntity
  8
Ebene 1
 62
     7
370
    25
100
AcDbVertex
100
AcDb2dVertex
 10
137.8916693448674
 20
-256.2668727657944
 30
0.0
  0
VERTEX
  5
253
330
24F
100
AcDbEntity
  8
Ebene 1
 62
     7
370
    25
100
AcDbVertex
100
AcDb2dVertex
 10
137.8916693448674
 20
-253.4167452708472
 30
0.0
  0
VERTEX
  5
254
330
24F
100
AcDbEntity
  8
Ebene 1
 62
     7
370
    25
100
AcDbVertex
100
AcDb2dVertex
 10
127.8915906798327
 20
-253.4167452708472
 30
0.0
  0
SEQEND
  5
255
330
24F
100
AcDbEntity
  8
Ebene 1
370
    25
  0
ENDBLK
  5
24E
330
24B
100
AcDbEntity
  8
0
100
AcDbBlockEnd
  0
BLOCK
  5
258
330
256
100
AcDbEntity
  8
0
100
AcDbBlockBegin
  2
block 64
 70
     0
 71
     0
 10
0.0
 20
0.0
 30
0.0
  3
block 64
  1

  0
POLYLINE
  5
25A
330
256
100
AcDbEntity
  8
Ebene 1
 62
     7
370
    25
100
AcDb2dPolyline
 66
     1
 10
0.0
 20
0.0
 30
0.0
  0
VERTEX
  5
25B
330
25A
100
AcDbEntity
  8
Ebene 1
 62
     7
370
    25
100
AcDbVertex
100
AcDb2dVertex
 10
255.5416801661493
 20
-93.09181990945274
 30
0.0
  0
VERTEX
  5
25C
330
25A
100
AcDbEntity
  8
Ebene 1
 62
     7
370
    25
100
AcDbVertex
100
AcDb2dVertex
 10
255.5416801661493
 20
-103.0917263197132
 30
0.0
  0
VERTEX
  5
25D
330
25A
100
AcDbEntity
  8
Ebene 1
 62
     7
370
    25
100
AcDbVertex
100
AcDb2dVertex
 10
258.391463151548
 20
-103.0917263197132
 30
0.0
  0
VERTEX
  5
25E
330
25A
100
AcDbEntity
  8
Ebene 1
 62
     7
370
    25
100
AcDbVertex
100
AcDb2dVertex
 10
258.391463151548
 20
-93.09181990945274
 30
0.0
  0
VERTEX
  5
25F
330
25A
100
AcDbEntity
  8
Ebene 1
 62
     7
370
    25
100
AcDbVertex
100
AcDb2dVertex
 10
255.5416801661493
 20
-93.09181990945274
 30
0.0
  0
SEQEND
  5
260
330
25A
100
AcDbEntity
  8
Ebene 1
370
    25
  0
ENDBLK
  5
259
330
256
100
AcDbEntity
  8
0
100
AcDbBlockEnd
  0
BLOCK
  5
263
330
261
100
AcDbEntity
  8
0
100
AcDbBlockBegin
  2
block 65
 70
     0
 71
     0
 10
0.0
 20
0.0
 30
0.0
  3
block 65
  1

  0
POLYLINE
  5
265
330
261
100
AcDbEntity
  8
Ebene 1
 62
     7
370
    25
100
AcDb2dPolyline
 66
     1
 10
0.0
 20
0.0
 30
0.0
  0
VERTEX
  5
266
330
265
100
AcDbEntity
  8
Ebene 1
 62
     7
370
    25
100
AcDbVertex
100
AcDb2dVertex
 10
277.3915092622494
 20
-221.0917588422965
 30
0.0
  0
VERTEX
  5
267
330
265
100
AcDbEntity
  8
Ebene 1
 62
     7
370
    25
100
AcDbVertex
100
AcDb2dVertex
 10
277.3915092622494
 20
-231.0918375073312
 30
0.0
  0
VERTEX
  5
268
330
265
100
AcDbEntity
  8
Ebene 1
 62
     7
370
    25
100
AcDbVertex
100
AcDb2dVertex
 10
280.2416367571965
 20
-231.0918375073312
 30
0.0
  0
VERTEX
  5
269
330
265
100
AcDbEntity
  8
Ebene 1
 62
     7
370
    25
100
AcDbVertex
100
AcDb2dVertex
 10
280.2416367571965
 20
-221.0917588422965
 30
0.0
  0
VERTEX
  5
26A
330
265
100
AcDbEntity
  8
Ebene 1
 62
     7
370
    25
100
AcDbVertex
100
AcDb2dVertex
 10
277.3915092622494
 20
-221.0917588422965
 30
0.0
  0
SEQEND
  5
26B
330
265
100
AcDbEntity
  8
Ebene 1
370
    25
  0
ENDBLK
  5
264
330
261
100
AcDbEntity
  8
0
100
AcDbBlockEnd
  0
BLOCK
  5
26E
330
26C
100
AcDbEntity
  8
0
100
AcDbBlockBegin
  2
block 66
 70
     0
 71
     0
 10
0.0
 20
0.0
 30
0.0
  3
block 66
  1

  0
POLYLINE
  5
270
330
26C
100
AcDbEntity
  8
Ebene 1
 62
     7
370
    25
100
AcDb2dPolyline
 66
     1
 10
0.0
 20
0.0
 30
0.0
  0
VERTEX
  5
271
330
270
100
AcDbEntity
  8
Ebene 1
 62
     7
370
    25
100
AcDbVertex
100
AcDb2dVertex
 10
212.3915147038466
 20
-197.0918456538521
 30
0.0
  0
VERTEX
  5
272
330
270
100
AcDbEntity
  8
Ebene 1
 62
     7
370
    25
100
AcDbVertex
100
AcDb2dVertex
 10
212.3915147038466
 20
-207.0919243188868
 30
0.0
  0
VERTEX
  5
273
330
270
100
AcDbEntity
  8
Ebene 1
 62
     7
370
    25
100
AcDbVertex
100
AcDb2dVertex
 10
215.2416421987938
 20
-207.0919243188868
 30
0.0
  0
VERTEX
  5
274
330
270
100
AcDbEntity
  8
Ebene 1
 62
     7
370
    25
100
AcDbVertex
100
AcDb2dVertex
 10
215.2416421987938
 20
-197.0918456538521
 30
0.0
  0
VERTEX
  5
275
330
270
100
AcDbEntity
  8
Ebene 1
 62
     7
370
    25
100
AcDbVertex
100
AcDb2dVertex
 10
212.3915147038466
 20
-197.0918456538521
 30
0.0
  0
SEQEND
  5
276
330
270
100
AcDbEntity
  8
Ebene 1
370
    25
  0
ENDBLK
  5
26F
330
26C
100
AcDbEntity
  8
0
100
AcDbBlockEnd
  0
BLOCK
  5
279
330
277
100
AcDbEntity
  8
0
100
AcDbBlockBegin
  2
block 67
 70
     0
 71
     0
 10
0.0
 20
0.0
 30
0.0
  3
block 67
  1

  0
POLYLINE
  5
27B
330
277
100
AcDbEntity
  8
Ebene 1
 62
     7
370
    25
100
AcDb2dPolyline
 66
     1
 10
0.0
 20
0.0
 30
0.0
  0
VERTEX
  5
27C
330
27B
100
AcDbEntity
  8
Ebene 1
 62
     7
370
    25
100
AcDbVertex
100
AcDb2dVertex
 10
255.5416801661493
 20
-221.0917588422965
 30
0.0
  0
VERTEX
  5
27D
330
27B
100
AcDbEntity
  8
Ebene 1
 62
     7
370
    25
100
AcDbVertex
100
AcDb2dVertex
 10
255.5416801661493
 20
-231.0918375073312
 30
0.0
  0
VERTEX
  5
27E
330
27B
100
AcDbEntity
  8
Ebene 1
 62
     7
370
    25
100
AcDbVertex
100
AcDb2dVertex
 10
258.391463151548
 20
-231.0918375073312
 30
0.0
  0
VERTEX
  5
27F
330
27B
100
AcDbEntity
  8
Ebene 1
 62
     7
370
    25
100
AcDbVertex
100
AcDb2dVertex
 10
258.391463151548
 20
-221.0917588422965
 30
0.0
  0
VERTEX
  5
280
330
27B
100
AcDbEntity
  8
Ebene 1
 62
     7
370
    25
100
AcDbVertex
100
AcDb2dVertex
 10
255.5416801661493
 20
-221.0917588422965
 30
0.0
  0
SEQEND
  5
281
330
27B
100
AcDbEntity
  8
Ebene 1
370
    25
  0
ENDBLK
  5
27A
330
277
100
AcDbEntity
  8
0
100
AcDbBlockEnd
  0
BLOCK
  5
284
330
282
100
AcDbEntity
  8
0
100
AcDbBlockBegin
  2
block 68
 70
     0
 71
     0
 10
0.0
 20
0.0
 30
0.0
  3
block 68
  1

  0
POLYLINE
  5
286
330
282
100
AcDbEntity
  8
Ebene 1
 62
     7
370
    25
100
AcDb2dPolyline
 66
     1
 10
0.0
 20
0.0
 30
0.0
  0
VERTEX
  5
287
330
286
100
AcDbEntity
  8
Ebene 1
 62
     7
370
    25
100
AcDbVertex
100
AcDb2dVertex
 10
162.3916381429958
 20
-221.0917588422965
 30
0.0
  0
VERTEX
  5
288
330
286
100
AcDbEntity
  8
Ebene 1
 62
     7
370
    25
100
AcDbVertex
100
AcDb2dVertex
 10
162.3916381429958
 20
-231.0918375073312
 30
0.0
  0
VERTEX
  5
289
330
286
100
AcDbEntity
  8
Ebene 1
 62
     7
370
    25
100
AcDbVertex
100
AcDb2dVertex
 10
165.2415933831688
 20
-231.0918375073312
 30
0.0
  0
VERTEX
  5
28A
330
286
100
AcDbEntity
  8
Ebene 1
 62
     7
370
    25
100
AcDbVertex
100
AcDb2dVertex
 10
165.2415933831688
 20
-221.0917588422965
 30
0.0
  0
VERTEX
  5
28B
330
286
100
AcDbEntity
  8
Ebene 1
 62
     7
370
    25
100
AcDbVertex
100
AcDb2dVertex
 10
162.3916381429958
 20
-221.0917588422965
 30
0.0
  0
SEQEND
  5
28C
330
286
100
AcDbEntity
  8
Ebene 1
370
    25
  0
ENDBLK
  5
285
330
282
100
AcDbEntity
  8
0
100
AcDbBlockEnd
  0
BLOCK
  5
28F
330
28D
100
AcDbEntity
  8
0
100
AcDbBlockBegin
  2
block 69
 70
     0
 71
     0
 10
0.0
 20
0.0
 30
0.0
  3
block 69
  1

  0
POLYLINE
  5
291
330
28D
100
AcDbEntity
  8
Ebene 1
 62
     7
370
    25
100
AcDb2dPolyline
 66
     1
 10
0.0
 20
0.0
 30
0.0
  0
VERTEX
  5
292
330
291
100
AcDbEntity
  8
Ebene 1
 62
     7
370
    25
100
AcDbVertex
100
AcDb2dVertex
 10
140.5416367921216
 20
-221.0917588422965
 30
0.0
  0
VERTEX
  5
293
330
291
100
AcDbEntity
  8
Ebene 1
 62
     7
370
    25
100
AcDbVertex
100
AcDb2dVertex
 10
140.5416367921216
 20
-231.0918375073312
 30
0.0
  0
VERTEX
  5
294
330
291
100
AcDbEntity
  8
Ebene 1
 62
     7
370
    25
100
AcDbVertex
100
AcDb2dVertex
 10
143.3915920322945
 20
-231.0918375073312
 30
0.0
  0
VERTEX
  5
295
330
291
100
AcDbEntity
  8
Ebene 1
 62
     7
370
    25
100
AcDbVertex
100
AcDb2dVertex
 10
143.3915920322945
 20
-221.0917588422965
 30
0.0
  0
VERTEX
  5
296
330
291
100
AcDbEntity
  8
Ebene 1
 62
     7
370
    25
100
AcDbVertex
100
AcDb2dVertex
 10
140.5416367921216
 20
-221.0917588422965
 30
0.0
  0
SEQEND
  5
297
330
291
100
AcDbEntity
  8
Ebene 1
370
    25
  0
ENDBLK
  5
290
330
28D
100
AcDbEntity
  8
0
100
AcDbBlockEnd
  0
BLOCK
  5
29A
330
298
100
AcDbEntity
  8
0
100
AcDbBlockBegin
  2
block 70
 70
     0
 71
     0
 10
0.0
 20
0.0
 30
0.0
  3
block 70
  1

  0
POLYLINE
  5
29C
330
298
100
AcDbEntity
  8
Ebene 1
 62
     7
370
    25
100
AcDb2dPolyline
 66
     1
 10
0.0
 20
0.0
 30
0.0
  0
VERTEX
  5
29D
330
29C
100
AcDbEntity
  8
Ebene 1
 62
     7
370
    25
100
AcDbVertex
100
AcDb2dVertex
 10
137.8916693448674
 20
-93.09181990945274
 30
0.0
  0
VERTEX
  5
29E
330
29C
100
AcDbEntity
  8
Ebene 1
 62
     7
370
    25
100
AcDbVertex
100
AcDb2dVertex
 10
137.8916693448674
 20
-103.0917263197132
 30
0.0
  0
VERTEX
  5
29F
330
29C
100
AcDbEntity
  8
Ebene 1
 62
     7
370
    25
100
AcDbVertex
100
AcDb2dVertex
 10
140.7416245850403
 20
-103.0917263197132
 30
0.0
  0
VERTEX
  5
2A0
330
29C
100
AcDbEntity
  8
Ebene 1
 62
     7
370
    25
100
AcDbVertex
100
AcDb2dVertex
 10
140.7416245850403
 20
-93.09181990945274
 30
0.0
  0
VERTEX
  5
2A1
330
29C
100
AcDbEntity
  8
Ebene 1
 62
     7
370
    25
100
AcDbVertex
100
AcDb2dVertex
 10
137.8916693448674
 20
-93.09181990945274
 30
0.0
  0
SEQEND
  5
2A2
330
29C
100
AcDbEntity
  8
Ebene 1
370
    25
  0
ENDBLK
  5
29B
330
298
100
AcDbEntity
  8
0
100
AcDbBlockEnd
  0
BLOCK
  5
2A5
330
2A3
100
AcDbEntity
  8
0
100
AcDbBlockBegin
  2
block 71
 70
     0
 71
     0
 10
0.0
 20
0.0
 30
0.0
  3
block 71
  1

  0
POLYLINE
  5
2A7
330
2A3
100
AcDbEntity
  8
Ebene 1
 62
     7
370
    25
100
AcDb2dPolyline
 66
     1
 10
0.0
 20
0.0
 30
0.0
  0
VERTEX
  5
2A8
330
2A7
100
AcDbEntity
  8
Ebene 1
 62
     7
370
    25
100
AcDbVertex
100
AcDb2dVertex
 10
205.5416313505243
 20
-78.09170191190069
 30
0.0
  0
VERTEX
  5
2A9
330
2A7
100
AcDbEntity
  8
Ebene 1
 62
     7
370
    25
100
AcDbVertex
100
AcDb2dVertex
 10
205.5416313505243
 20
-88.09178057693539
 30
0.0
  0
VERTEX
  5
2AA
330
2A7
100
AcDbEntity
  8
Ebene 1
 62
     7
370
    25
100
AcDbVertex
100
AcDb2dVertex
 10
208.3915865906972
 20
-88.09178057693539
 30
0.0
  0
VERTEX
  5
2AB
330
2A7
100
AcDbEntity
  8
Ebene 1
 62
     7
370
    25
100
AcDbVertex
100
AcDb2dVertex
 10
208.3915865906972
 20
-78.09170191190069
 30
0.0
  0
VERTEX
  5
2AC
330
2A7
100
AcDbEntity
  8
Ebene 1
 62
     7
370
    25
100
AcDbVertex
100
AcDb2dVertex
 10
205.5416313505243
 20
-78.09170191190069
 30
0.0
  0
SEQEND
  5
2AD
330
2A7
100
AcDbEntity
  8
Ebene 1
370
    25
  0
ENDBLK
  5
2A6
330
2A3
100
AcDbEntity
  8
0
100
AcDbBlockEnd
  0
BLOCK
  5
2B0
330
2AE
100
AcDbEntity
  8
0
100
AcDbBlockBegin
  2
block 72
 70
     0
 71
     0
 10
0.0
 20
0.0
 30
0.0
  3
block 72
  1

  0
POLYLINE
  5
2B2
330
2AE
100
AcDbEntity
  8
Ebene 1
 62
     7
370
    25
100
AcDb2dPolyline
 66
     1
 10
0.0
 20
0.0
 30
0.0
  0
VERTEX
  5
2B3
330
2B2
100
AcDbEntity
  8
Ebene 1
 62
     7
370
    25
100
AcDbVertex
100
AcDb2dVertex
 10
277.3915092622494
 20
-93.09181990945274
 30
0.0
  0
VERTEX
  5
2B4
330
2B2
100
AcDbEntity
  8
Ebene 1
 62
     7
370
    25
100
AcDbVertex
100
AcDb2dVertex
 10
277.3915092622494
 20
-103.0917263197132
 30
0.0
  0
VERTEX
  5
2B5
330
2B2
100
AcDbEntity
  8
Ebene 1
 62
     7
370
    25
100
AcDbVertex
100
AcDb2dVertex
 10
280.2416367571965
 20
-103.0917263197132
 30
0.0
  0
VERTEX
  5
2B6
330
2B2
100
AcDbEntity
  8
Ebene 1
 62
     7
370
    25
100
AcDbVertex
100
AcDb2dVertex
 10
280.2416367571965
 20
-93.09181990945274
 30
0.0
  0
VERTEX
  5
2B7
330
2B2
100
AcDbEntity
  8
Ebene 1
 62
     7
370
    25
100
AcDbVertex
100
AcDb2dVertex
 10
277.3915092622494
 20
-93.09181990945274
 30
0.0
  0
SEQEND
  5
2B8
330
2B2
100
AcDbEntity
  8
Ebene 1
370
    25
  0
ENDBLK
  5
2B1
330
2AE
100
AcDbEntity
  8
0
100
AcDbBlockEnd
  0
BLOCK
  5
2BB
330
2B9
100
AcDbEntity
  8
0
100
AcDbBlockBegin
  2
block 73
 70
     0
 71
     0
 10
0.0
 20
0.0
 30
0.0
  3
block 73
  1

  0
POLYLINE
  5
2BD
330
2B9
100
AcDbEntity
  8
Ebene 1
 62
     7
370
    25
100
AcDb2dPolyline
 66
     1
 10
0.0
 20
0.0
 30
0.0
  0
VERTEX
  5
2BE
330
2BD
100
AcDbEntity
  8
Ebene 1
 62
     7
370
    25
100
AcDbVertex
100
AcDb2dVertex
 10
272.891525539416
 20
-16.59175211173748
 30
0.0
  0
VERTEX
  5
2BF
330
2BD
100
AcDbEntity
  8
Ebene 1
 62
     7
370
    25
100
AcDbVertex
100
AcDb2dVertex
 10
272.891525539416
 20
-19.44170735191041
 30
0.0
  0
VERTEX
  5
2C0
330
2BD
100
AcDbEntity
  8
Ebene 1
 62
     7
370
    25
100
AcDbVertex
100
AcDb2dVertex
 10
282.8916042044507
 20
-19.44170735191041
 30
0.0
  0
VERTEX
  5
2C1
330
2BD
100
AcDbEntity
  8
Ebene 1
 62
     7
370
    25
100
AcDbVertex
100
AcDb2dVertex
 10
282.8916042044507
 20
-16.59175211173748
 30
0.0
  0
VERTEX
  5
2C2
330
2BD
100
AcDbEntity
  8
Ebene 1
 62
     7
370
    25
100
AcDbVertex
100
AcDb2dVertex
 10
272.891525539416
 20
-16.59175211173748
 30
0.0
  0
SEQEND
  5
2C3
330
2BD
100
AcDbEntity
  8
Ebene 1
370
    25
  0
ENDBLK
  5
2BC
330
2B9
100
AcDbEntity
  8
0
100
AcDbBlockEnd
  0
BLOCK
  5
2C6
330
2C4
100
AcDbEntity
  8
0
100
AcDbBlockBegin
  2
block 74
 70
     0
 71
     0
 10
0.0
 20
0.0
 30
0.0
  3
block 74
  1

  0
POLYLINE
  5
2C8
330
2C4
100
AcDbEntity
  8
Ebene 1
 62
     7
370
    25
100
AcDb2dPolyline
 66
     1
 10
0.0
 20
0.0
 30
0.0
  0
VERTEX
  5
2C9
330
2C8
100
AcDbEntity
  8
Ebene 1
 62
     7
370
    25
100
AcDbVertex
100
AcDb2dVertex
 10
137.8916693448674
 20
-16.59175211173748
 30
0.0
  0
VERTEX
  5
2CA
330
2C8
100
AcDbEntity
  8
Ebene 1
 62
     7
370
    25
100
AcDbVertex
100
AcDb2dVertex
 10
137.8916693448674
 20
-19.44170735191041
 30
0.0
  0
VERTEX
  5
2CB
330
2C8
100
AcDbEntity
  8
Ebene 1
 62
     7
370
    25
100
AcDbVertex
100
AcDb2dVertex
 10
147.8915757551278
 20
-19.44170735191041
 30
0.0
  0
VERTEX
  5
2CC
330
2C8
100
AcDbEntity
  8
Ebene 1
 62
     7
370
    25
100
AcDbVertex
100
AcDb2dVertex
 10
147.8915757551278
 20
-16.59175211173748
 30
0.0
  0
VERTEX
  5
2CD
330
2C8
100
AcDbEntity
  8
Ebene 1
 62
     7
370
    25
100
AcDbVertex
100
AcDb2dVertex
 10
137.8916693448674
 20
-16.59175211173748
 30
0.0
  0
SEQEND
  5
2CE
330
2C8
100
AcDbEntity
  8
Ebene 1
370
    25
  0
ENDBLK
  5
2C7
330
2C4
100
AcDbEntity
  8
0
100
AcDbBlockEnd
  0
BLOCK
  5
2D1
330
2CF
100
AcDbEntity
  8
0
100
AcDbBlockBegin
  2
block 75
 70
     0
 71
     0
 10
0.0
 20
0.0
 30
0.0
  3
block 75
  1

  0
SPLINE
  5
2D3
330
2CF
100
AcDbEntity
  8
Ebene 1
 62
     7
370
    25
100
AcDbSpline
210
0.0
220
0.0
230
1.0
 70
    11
 71
     3
 72
   122
 73
   118
 74
     0
 42
0.0000000001
 43
0.0000000001
 40
0.0
 40
0.0
 40
0.0
 40
0.0
 40
1.0
 40
1.0
 40
1.0
 40
2.0
 40
2.0
 40
2.0
 40
3.0
 40
3.0
 40
3.0
 40
4.0
 40
4.0
 40
4.0
 40
5.0
 40
5.0
 40
5.0
 40
6.0
 40
6.0
 40
6.0
 40
7.0
 40
7.0
 40
7.0
 40
8.0
 40
8.0
 40
8.0
 40
9.0
 40
9.0
 40
9.0
 40
10.0
 40
10.0
 40
10.0
 40
11.0
 40
11.0
 40
11.0
 40
12.0
 40
12.0
 40
12.0
 40
13.0
 40
13.0
 40
13.0
 40
14.0
 40
14.0
 40
14.0
 40
15.0
 40
15.0
 40
15.0
 40
16.0
 40
16.0
 40
16.0
 40
17.0
 40
17.0
 40
17.0
 40
18.0
 40
18.0
 40
18.0
 40
19.0
 40
19.0
 40
19.0
 40
20.0
 40
20.0
 40
20.0
 40
21.0
 40
21.0
 40
21.0
 40
22.0
 40
22.0
 40
22.0
 40
23.0
 40
23.0
 40
23.0
 40
24.0
 40
24.0
 40
24.0
 40
25.0
 40
25.0
 40
25.0
 40
26.0
 40
26.0
 40
26.0
 40
27.0
 40
27.0
 40
27.0
 40
28.0
 40
28.0
 40
28.0
 40
29.0
 40
29.0
 40
29.0
 40
30.0
 40
30.0
 40
30.0
 40
31.0
 40
31.0
 40
31.0
 40
32.0
 40
32.0
 40
32.0
 40
33.0
 40
33.0
 40
33.0
 40
34.0
 40
34.0
 40
34.0
 40
35.0
 40
35.0
 40
35.0
 40
36.0
 40
36.0
 40
36.0
 40
37.0
 40
37.0
 40
37.0
 40
38.0
 40
38.0
 40
38.0
 40
39.0
 40
39.0
 40
39.0
 40
39.0
 10
297.8915499472285
 20
-261.5919568573451
 30
0.0
 10
297.8915499472285
 20
-261.5919568573451
 30
0.0
 10
148.3916313648118
 20
-261.5919568573451
 30
0.0
 10
148.3916313648118
 20
-261.5919568573451
 30
0.0
 10
146.7347126911809
 20
-261.5919568573451
 30
0.0
 10
145.3916422162563
 20
-262.9348550774955
 30
0.0
 10
145.3916422162563
 20
-264.5919460059006
 30
0.0
 10
145.3916422162563
 20
-264.5919460059006
 30
0.0
 10
145.3916422162563
 20
-279.5918917486784
 30
0.0
 10
145.3916422162563
 20
-279.5918917486784
 30
0.0
 10
145.3916422162563
 20
-279.5918917486784
 30
0.0
 10
190.3916516993639
 20
-279.5918917486784
 30
0.0
 10
190.3916516993639
 20
-279.5918917486784
 30
0.0
 10
190.3916516993639
 20
-279.5918917486784
 30
0.0
 10
190.3916516993639
 20
-288.5918591943451
 30
0.0
 10
190.3916516993639
 20
-288.5918591943451
 30
0.0
 10
190.3916516993639
 20
-288.5918591943451
 30
0.0
 10
122.8917236020896
 20
-288.5918591943451
 30
0.0
 10
122.8917236020896
 20
-288.5918591943451
 30
0.0
 10
122.8917236020896
 20
-288.5918591943451
 30
0.0
 10
122.8917236020896
 20
-8.59172363066457
 30
0.0
 10
122.8917236020896
 20
-8.59172363066457
 30
0.0
 10
122.8917236020896
 20
-8.59172363066457
 30
0.0
 10
165.3916272915514
 20
-8.59172363066457
 30
0.0
 10
165.3916272915514
 20
-8.59172363066457
 30
0.0
 10
165.3916272915514
 20
-8.59172363066457
 30
0.0
 10
165.3916272915514
 20
-23.59184162821662
 30
0.0
 10
165.3916272915514
 20
-23.59184162821662
 30
0.0
 10
165.3916272915514
 20
-23.59184162821662
 30
0.0
 10
265.3915526680271
 20
-23.59184162821662
 30
0.0
 10
265.3915526680271
 20
-23.59184162821662
 30
0.0
 10
265.3915526680271
 20
-23.59184162821662
 30
0.0
 10
265.3915526680271
 20
-8.59172363066457
 30
0.0
 10
265.3915526680271
 20
-8.59172363066457
 30
0.0
 10
265.3915526680271
 20
-8.59172363066457
 30
0.0
 10
297.8915499472285
 20
-8.59172363066457
 30
0.0
 10
297.8915499472285
 20
-8.59172363066457
 30
0.0
 10
297.8915499472285
 20
-8.59172363066457
 30
0.0
 10
297.8915499472285
 20
-233.0917154365187
 30
0.0
 10
297.8915499472285
 20
-233.0917154365187
 30
0.0
 10
297.8915499472285
 20
-233.0917154365187
 30
0.0
 10
278.3916204816174
 20
-233.0917154365187
 30
0.0
 10
278.3916204816174
 20
-233.0917154365187
 30
0.0
 10
276.7348740627608
 20
-233.0917154365187
 30
0.0
 10
275.3916313330618
 20
-231.7488172163684
 30
0.0
 10
275.3916313330618
 20
-230.0917262879632
 30
0.0
 10
275.3916313330618
 20
-230.0917262879632
 30
0.0
 10
275.3916313330618
 20
-88.5918361866194
 30
0.0
 10
275.3916313330618
 20
-88.5918361866194
 30
0.0
 10
275.3916313330618
 20
-81.68820934372725
 30
0.0
 10
269.7950737172735
 20
-76.09182398271315
 30
0.0
 10
262.8917913839298
 20
-76.09182398271315
 30
0.0
 10
262.8917913839298
 20
-76.09182398271315
 30
0.0
 10
213.3916259232146
 20
-76.09182398271315
 30
0.0
 10
213.3916259232146
 20
-76.09182398271315
 30
0.0
 10
211.734879504358
 20
-76.09182398271315
 30
0.0
 10
210.391636774659
 20
-77.43489445763781
 30
0.0
 10
210.391636774659
 20
-79.09181313126872
 30
0.0
 10
210.391636774659
 20
-79.09181313126872
 30
0.0
 10
210.391636774659
 20
-88.09178057693539
 30
0.0
 10
210.391636774659
 20
-88.09178057693539
 30
0.0
 10
210.391636774659
 20
-89.7486992505663
 30
0.0
 10
211.734879504358
 20
-91.09176972549095
 30
0.0
 10
213.3916259232146
 20
-91.09176972549095
 30
0.0
 10
213.3916259232146
 20
-91.09176972549095
 30
0.0
 10
257.3916964417285
 20
-91.09176972549095
 30
0.0
 10
257.3916964417285
 20
-91.09176972549095
 30
0.0
 10
259.0484428605851
 20
-91.09176972549095
 30
0.0
 10
260.3916855902841
 20
-92.43501245518986
 30
0.0
 10
260.3916855902841
 20
-94.0917588740465
 30
0.0
 10
260.3916855902841
 20
-94.0917588740465
 30
0.0
 10
260.3916855902841
 20
-230.0917262879632
 30
0.0
 10
260.3916855902841
 20
-230.0917262879632
 30
0.0
 10
260.3916855902841
 20
-231.7488172163684
 30
0.0
 10
259.0484428605851
 20
-233.0917154365187
 30
0.0
 10
257.3916964417285
 20
-233.0917154365187
 30
0.0
 10
257.3916964417285
 20
-233.0917154365187
 30
0.0
 10
163.3915771075896
 20
-233.0917154365187
 30
0.0
 10
163.3915771075896
 20
-233.0917154365187
 30
0.0
 10
161.734830688733
 20
-233.0917154365187
 30
0.0
 10
160.391587959034
 20
-231.7488172163684
 30
0.0
 10
160.391587959034
 20
-230.0917262879632
 30
0.0
 10
160.391587959034
 20
-230.0917262879632
 30
0.0
 10
160.391587959034
 20
-213.0919026159979
 30
0.0
 10
160.391587959034
 20
-213.0919026159979
 30
0.0
 10
160.391587959034
 20
-211.4348116875927
 30
0.0
 10
161.734830688733
 20
-210.0919134674423
 30
0.0
 10
163.3915771075896
 20
-210.0919134674423
 30
0.0
 10
163.3915771075896
 20
-210.0919134674423
 30
0.0
 10
207.3916476261035
 20
-210.0919134674423
 30
0.0
 10
207.3916476261035
 20
-210.0919134674423
 30
0.0
 10
209.0485662997344
 20
-210.0919134674423
 30
0.0
 10
210.391636774659
 20
-208.7486707377434
 30
0.0
 10
210.391636774659
 20
-207.0919243188868
 30
0.0
 10
210.391636774659
 20
-207.0919243188868
 30
0.0
 10
210.391636774659
 20
-198.0919568732201
 30
0.0
 10
210.391636774659
 20
-198.0919568732201
 30
0.0
 10
210.391636774659
 20
-196.4348659448149
 30
0.0
 10
209.0485662997344
 20
-195.091623215116
 30
0.0
 10
207.3916476261035
 20
-195.091623215116
 30
0.0
 10
207.3916476261035
 20
-195.091623215116
 30
0.0
 10
157.8916544201625
 20
-195.091623215116
 30
0.0
 10
157.8916544201625
 20
-195.091623215116
 30
0.0
 10
150.9880275772704
 20
-195.091623215116
 30
0.0
 10
145.3916422162563
 20
-200.6881808309043
 30
0.0
 10
145.3916422162563
 20
-207.5918076737965
 30
0.0
 10
145.3916422162563
 20
-207.5918076737965
 30
0.0
 10
145.3916422162563
 20
-239.5919215980881
 30
0.0
 10
145.3916422162563
 20
-239.5919215980881
 30
0.0
 10
145.3916422162563
 20
-244.2862087062896
 30
0.0
 10
149.1972669440375
 20
-248.0916611792966
 30
0.0
 10
153.8917263070132
 20
-248.0916611792966
 30
0.0
 10
153.8917263070132
 20
-248.0916611792966
 30
0.0
 10
297.8915499472285
 20
-248.0916611792966
 30
0.0
 10
297.8915499472285
 20
-248.0916611792966
 30
0.0
 10
297.8915499472285
 20
-248.0916611792966
 30
0.0
 10
297.8915499472285
 20
-261.5919568573451
 30
0.0
 10
297.8915499472285
 20
-261.5919568573451
 30
0.0
  0
ENDBLK
  5
2D2
330
2CF
100
AcDbEntity
  8
0
100
AcDbBlockEnd
  0
BLOCK
  5
2D6
330
2D4
100
AcDbEntity
  8
0
100
AcDbBlockBegin
  2
block 76
 70
     0
 71
     0
 10
0.0
 20
0.0
 30
0.0
  3
block 76
  1

  0
SPLINE
  5
2D8
330
2D4
100
AcDbEntity
  8
Ebene 1
 62
     7
370
    25
100
AcDbSpline
210
0.0
220
0.0
230
1.0
 70
     8
 71
     3
 72
     8
 73
     4
 74
     0
 42
0.0000000001
 43
0.0000000001
 40
0.0
 40
0.0
 40
0.0
 40
0.0
 40
1.0
 40
1.0
 40
1.0
 40
1.0
 10
282.8916042044507
 20
-49.59180500062288
 30
0.0
 10
282.8916042044507
 20
-47.93488632699197
 30
0.0
 10
281.5483614747518
 20
-46.59181585206733
 30
0.0
 10
279.8916150558952
 20
-46.59181585206733
 30
0.0
  0
ENDBLK
  5
2D7
330
2D4
100
AcDbEntity
  8
0
100
AcDbBlockEnd
  0
BLOCK
  5
2DB
330
2D9
100
AcDbEntity
  8
0
100
AcDbBlockBegin
  2
block 77
 70
     0
 71
     0
 10
0.0
 20
0.0
 30
0.0
  3
block 77
  1

  0
POLYLINE
  5
2DD
330
2D9
100
AcDbEntity
  8
Ebene 1
 62
     7
370
    25
100
AcDb2dPolyline
 66
     1
 10
0.0
 20
0.0
 30
0.0
  0
VERTEX
  5
2DE
330
2DD
100
AcDbEntity
  8
Ebene 1
 62
     7
370
    25
100
AcDbVertex
100
AcDb2dVertex
 10
282.8916042044507
 20
-49.59180500062288
 30
0.0
  0
VERTEX
  5
2DF
330
2DD
100
AcDbEntity
  8
Ebene 1
 62
     7
370
    25
100
AcDbVertex
100
AcDb2dVertex
 10
282.8916042044507
 20
-55.591783297734
 30
0.0
  0
SEQEND
  5
2E0
330
2DD
100
AcDbEntity
  8
Ebene 1
370
    25
  0
ENDBLK
  5
2DC
330
2D9
100
AcDbEntity
  8
0
100
AcDbBlockEnd
  0
BLOCK
  5
2E3
330
2E1
100
AcDbEntity
  8
0
100
AcDbBlockBegin
  2
block 78
 70
     0
 71
     0
 10
0.0
 20
0.0
 30
0.0
  3
block 78
  1

  0
SPLINE
  5
2E5
330
2E1
100
AcDbEntity
  8
Ebene 1
 62
     7
370
    25
100
AcDbSpline
210
0.0
220
0.0
230
1.0
 70
     8
 71
     3
 72
     8
 73
     4
 74
     0
 42
0.0000000001
 43
0.0000000001
 40
0.0
 40
0.0
 40
0.0
 40
0.0
 40
1.0
 40
1.0
 40
1.0
 40
1.0
 10
279.8916150558952
 20
-58.59177244628956
 30
0.0
 10
281.5483614747518
 20
-58.59177244628956
 30
0.0
 10
282.8916042044507
 20
-57.24870197136491
 30
0.0
 10
282.8916042044507
 20
-55.591783297734
 30
0.0
  0
ENDBLK
  5
2E4
330
2E1
100
AcDbEntity
  8
0
100
AcDbBlockEnd
  0
BLOCK
  5
2E8
330
2E6
100
AcDbEntity
  8
0
100
AcDbBlockBegin
  2
block 79
 70
     0
 71
     0
 10
0.0
 20
0.0
 30
0.0
  3
block 79
  1

  0
POLYLINE
  5
2EA
330
2E6
100
AcDbEntity
  8
Ebene 1
 62
     7
370
    25
100
AcDb2dPolyline
 66
     1
 10
0.0
 20
0.0
 30
0.0
  0
VERTEX
  5
2EB
330
2EA
100
AcDbEntity
  8
Ebene 1
 62
     7
370
    25
100
AcDbVertex
100
AcDb2dVertex
 10
279.8916150558952
 20
-58.59177244628956
 30
0.0
  0
VERTEX
  5
2EC
330
2EA
100
AcDbEntity
  8
Ebene 1
 62
     7
370
    25
100
AcDbVertex
100
AcDb2dVertex
 10
255.8917018674507
 20
-58.59177244628956
 30
0.0
  0
SEQEND
  5
2ED
330
2EA
100
AcDbEntity
  8
Ebene 1
370
    25
  0
ENDBLK
  5
2E9
330
2E6
100
AcDbEntity
  8
0
100
AcDbBlockEnd
  0
BLOCK
  5
2F0
330
2EE
100
AcDbEntity
  8
0
100
AcDbBlockBegin
  2
block 80
 70
     0
 71
     0
 10
0.0
 20
0.0
 30
0.0
  3
block 80
  1

  0
SPLINE
  5
2F2
330
2EE
100
AcDbEntity
  8
Ebene 1
 62
     7
370
    25
100
AcDbSpline
210
0.0
220
0.0
230
1.0
 70
     8
 71
     3
 72
     8
 73
     4
 74
     0
 42
0.0000000001
 43
0.0000000001
 40
0.0
 40
0.0
 40
0.0
 40
0.0
 40
1.0
 40
1.0
 40
1.0
 40
1.0
 10
252.8917127188951
 20
-55.591783297734
 30
0.0
 10
252.8917127188951
 20
-57.24870197136491
 30
0.0
 10
254.2346109390455
 20
-58.59177244628956
 30
0.0
 10
255.8917018674507
 20
-58.59177244628956
 30
0.0
  0
ENDBLK
  5
2F1
330
2EE
100
AcDbEntity
  8
0
100
AcDbBlockEnd
  0
BLOCK
  5
2F5
330
2F3
100
AcDbEntity
  8
0
100
AcDbBlockBegin
  2
block 81
 70
     0
 71
     0
 10
0.0
 20
0.0
 30
0.0
  3
block 81
  1

  0
POLYLINE
  5
2F7
330
2F3
100
AcDbEntity
  8
Ebene 1
 62
     7
370
    25
100
AcDb2dPolyline
 66
     1
 10
0.0
 20
0.0
 30
0.0
  0
VERTEX
  5
2F8
330
2F7
100
AcDbEntity
  8
Ebene 1
 62
     7
370
    25
100
AcDbVertex
100
AcDb2dVertex
 10
252.8917127188951
 20
-55.591783297734
 30
0.0
  0
VERTEX
  5
2F9
330
2F7
100
AcDbEntity
  8
Ebene 1
 62
     7
370
    25
100
AcDbVertex
100
AcDb2dVertex
 10
252.8917127188951
 20
-49.59180500062288
 30
0.0
  0
SEQEND
  5
2FA
330
2F7
100
AcDbEntity
  8
Ebene 1
370
    25
  0
ENDBLK
  5
2F6
330
2F3
100
AcDbEntity
  8
0
100
AcDbBlockEnd
  0
BLOCK
  5
2FD
330
2FB
100
AcDbEntity
  8
0
100
AcDbBlockBegin
  2
block 82
 70
     0
 71
     0
 10
0.0
 20
0.0
 30
0.0
  3
block 82
  1

  0
SPLINE
  5
2FF
330
2FB
100
AcDbEntity
  8
Ebene 1
 62
     7
370
    25
100
AcDbSpline
210
0.0
220
0.0
230
1.0
 70
     8
 71
     3
 72
     8
 73
     4
 74
     0
 42
0.0000000001
 43
0.0000000001
 40
0.0
 40
0.0
 40
0.0
 40
0.0
 40
1.0
 40
1.0
 40
1.0
 40
1.0
 10
255.8917018674507
 20
-46.59181585206733
 30
0.0
 10
254.2346109390455
 20
-46.59181585206733
 30
0.0
 10
252.8917127188951
 20
-47.93488632699197
 30
0.0
 10
252.8917127188951
 20
-49.59180500062288
 30
0.0
  0
ENDBLK
  5
2FE
330
2FB
100
AcDbEntity
  8
0
100
AcDbBlockEnd
  0
BLOCK
  5
302
330
300
100
AcDbEntity
  8
0
100
AcDbBlockBegin
  2
block 83
 70
     0
 71
     0
 10
0.0
 20
0.0
 30
0.0
  3
block 83
  1

  0
POLYLINE
  5
304
330
300
100
AcDbEntity
  8
Ebene 1
 62
     7
370
    25
100
AcDb2dPolyline
 66
     1
 10
0.0
 20
0.0
 30
0.0
  0
VERTEX
  5
305
330
304
100
AcDbEntity
  8
Ebene 1
 62
     7
370
    25
100
AcDbVertex
100
AcDb2dVertex
 10
255.8917018674507
 20
-46.59181585206733
 30
0.0
  0
VERTEX
  5
306
330
304
100
AcDbEntity
  8
Ebene 1
 62
     7
370
    25
100
AcDbVertex
100
AcDb2dVertex
 10
259.8914577258258
 20
-46.59181585206733
 30
0.0
  0
SEQEND
  5
307
330
304
100
AcDbEntity
  8
Ebene 1
370
    25
  0
ENDBLK
  5
303
330
300
100
AcDbEntity
  8
0
100
AcDbBlockEnd
  0
BLOCK
  5
30A
330
308
100
AcDbEntity
  8
0
100
AcDbBlockBegin
  2
block 84
 70
     0
 71
     0
 10
0.0
 20
0.0
 30
0.0
  3
block 84
  1

  0
SPLINE
  5
30C
330
308
100
AcDbEntity
  8
Ebene 1
 62
     7
370
    25
100
AcDbSpline
210
0.0
220
0.0
230
1.0
 70
     8
 71
     3
 72
     8
 73
     4
 74
     0
 42
0.0000000001
 43
0.0000000001
 40
0.0
 40
0.0
 40
0.0
 40
0.0
 40
1.0
 40
1.0
 40
1.0
 40
1.0
 10
259.8914577258258
 20
-46.59181585206733
 30
0.0
 10
261.548548654231
 20
-46.59181585206733
 30
0.0
 10
262.8917913839298
 20
-45.24857312236841
 30
0.0
 10
262.8917913839298
 20
-43.59182670351177
 30
0.0
  0
ENDBLK
  5
30B
330
308
100
AcDbEntity
  8
0
100
AcDbBlockEnd
  0
BLOCK
  5
30F
330
30D
100
AcDbEntity
  8
0
100
AcDbBlockBegin
  2
block 85
 70
     0
 71
     0
 10
0.0
 20
0.0
 30
0.0
  3
block 85
  1

  0
POLYLINE
  5
311
330
30D
100
AcDbEntity
  8
Ebene 1
 62
     7
370
    25
100
AcDb2dPolyline
 66
     1
 10
0.0
 20
0.0
 30
0.0
  0
VERTEX
  5
312
330
311
100
AcDbEntity
  8
Ebene 1
 62
     7
370
    25
100
AcDbVertex
100
AcDb2dVertex
 10
262.8917913839298
 20
-43.59182670351177
 30
0.0
  0
VERTEX
  5
313
330
311
100
AcDbEntity
  8
Ebene 1
 62
     7
370
    25
100
AcDbVertex
100
AcDb2dVertex
 10
262.8917913839298
 20
-38.59178737099442
 30
0.0
  0
SEQEND
  5
314
330
311
100
AcDbEntity
  8
Ebene 1
370
    25
  0
ENDBLK
  5
310
330
30D
100
AcDbEntity
  8
0
100
AcDbBlockEnd
  0
BLOCK
  5
317
330
315
100
AcDbEntity
  8
0
100
AcDbBlockBegin
  2
block 86
 70
     0
 71
     0
 10
0.0
 20
0.0
 30
0.0
  3
block 86
  1

  0
SPLINE
  5
319
330
315
100
AcDbEntity
  8
Ebene 1
 62
     7
370
    25
100
AcDbSpline
210
0.0
220
0.0
230
1.0
 70
     8
 71
     3
 72
    11
 73
     7
 74
     0
 42
0.0000000001
 43
0.0000000001
 40
0.0
 40
0.0
 40
0.0
 40
0.0
 40
1.0
 40
1.0
 40
1.0
 40
2.0
 40
2.0
 40
2.0
 40
2.0
 10
272.891525539416
 20
-38.59178737099442
 30
0.0
 10
272.891525539416
 20
-35.83037108479241
 30
0.0
 10
270.6529024931007
 20
-33.59174803847706
 30
0.0
 10
267.8916584616729
 20
-33.59174803847706
 30
0.0
 10
265.1300699206967
 20
-33.59174803847706
 30
0.0
 10
262.8917913839298
 20
-35.83037108479241
 30
0.0
 10
262.8917913839298
 20
-38.59178737099442
 30
0.0
  0
ENDBLK
  5
318
330
315
100
AcDbEntity
  8
0
100
AcDbBlockEnd
  0
BLOCK
  5
31C
330
31A
100
AcDbEntity
  8
0
100
AcDbBlockBegin
  2
block 87
 70
     0
 71
     0
 10
0.0
 20
0.0
 30
0.0
  3
block 87
  1

  0
POLYLINE
  5
31E
330
31A
100
AcDbEntity
  8
Ebene 1
 62
     7
370
    25
100
AcDb2dPolyline
 66
     1
 10
0.0
 20
0.0
 30
0.0
  0
VERTEX
  5
31F
330
31E
100
AcDbEntity
  8
Ebene 1
 62
     7
370
    25
100
AcDbVertex
100
AcDb2dVertex
 10
272.891525539416
 20
-38.59178737099442
 30
0.0
  0
VERTEX
  5
320
330
31E
100
AcDbEntity
  8
Ebene 1
 62
     7
370
    25
100
AcDbVertex
100
AcDb2dVertex
 10
272.891525539416
 20
-43.59182670351177
 30
0.0
  0
SEQEND
  5
321
330
31E
100
AcDbEntity
  8
Ebene 1
370
    25
  0
ENDBLK
  5
31D
330
31A
100
AcDbEntity
  8
0
100
AcDbBlockEnd
  0
BLOCK
  5
324
330
322
100
AcDbEntity
  8
0
100
AcDbBlockBegin
  2
block 88
 70
     0
 71
     0
 10
0.0
 20
0.0
 30
0.0
  3
block 88
  1

  0
SPLINE
  5
326
330
322
100
AcDbEntity
  8
Ebene 1
 62
     7
370
    25
100
AcDbSpline
210
0.0
220
0.0
230
1.0
 70
     8
 71
     3
 72
     8
 73
     4
 74
     0
 42
0.0000000001
 43
0.0000000001
 40
0.0
 40
0.0
 40
0.0
 40
0.0
 40
1.0
 40
1.0
 40
1.0
 40
1.0
 10
272.891525539416
 20
-43.59182670351177
 30
0.0
 10
272.891525539416
 20
-45.24857312236841
 30
0.0
 10
274.2347682691149
 20
-46.59181585206733
 30
0.0
 10
275.8915146879716
 20
-46.59181585206733
 30
0.0
  0
ENDBLK
  5
325
330
322
100
AcDbEntity
  8
0
100
AcDbBlockEnd
  0
BLOCK
  5
329
330
327
100
AcDbEntity
  8
0
100
AcDbBlockBegin
  2
block 89
 70
     0
 71
     0
 10
0.0
 20
0.0
 30
0.0
  3
block 89
  1

  0
POLYLINE
  5
32B
330
327
100
AcDbEntity
  8
Ebene 1
 62
     7
370
    25
100
AcDb2dPolyline
 66
     1
 10
0.0
 20
0.0
 30
0.0
  0
VERTEX
  5
32C
330
32B
100
AcDbEntity
  8
Ebene 1
 62
     7
370
    25
100
AcDbVertex
100
AcDb2dVertex
 10
275.8915146879716
 20
-46.59181585206733
 30
0.0
  0
VERTEX
  5
32D
330
32B
100
AcDbEntity
  8
Ebene 1
 62
     7
370
    25
100
AcDbVertex
100
AcDb2dVertex
 10
279.8916150558952
 20
-46.59181585206733
 30
0.0
  0
SEQEND
  5
32E
330
32B
100
AcDbEntity
  8
Ebene 1
370
    25
  0
ENDBLK
  5
32A
330
327
100
AcDbEntity
  8
0
100
AcDbBlockEnd
  0
BLOCK
  5
331
330
32F
100
AcDbEntity
  8
0
100
AcDbBlockBegin
  2
block 90
 70
     0
 71
     0
 10
0.0
 20
0.0
 30
0.0
  3
block 90
  1

  0
SPLINE
  5
333
330
32F
100
AcDbEntity
  8
Ebene 1
 62
     7
370
    25
100
AcDbSpline
210
0.0
220
0.0
230
1.0
 70
     8
 71
     3
 72
     8
 73
     4
 74
     0
 42
0.0000000001
 43
0.0000000001
 40
0.0
 40
0.0
 40
0.0
 40
0.0
 40
1.0
 40
1.0
 40
1.0
 40
1.0
 10
140.8916584934229
 20
-46.59181585206733
 30
0.0
 10
139.234739819792
 20
-46.59181585206733
 30
0.0
 10
137.8916693448674
 20
-47.93488632699197
 30
0.0
 10
137.8916693448674
 20
-49.59180500062288
 30
0.0
  0
ENDBLK
  5
332
330
32F
100
AcDbEntity
  8
0
100
AcDbBlockEnd
  0
BLOCK
  5
336
330
334
100
AcDbEntity
  8
0
100
AcDbBlockBegin
  2
block 91
 70
     0
 71
     0
 10
0.0
 20
0.0
 30
0.0
  3
block 91
  1

  0
POLYLINE
  5
338
330
334
100
AcDbEntity
  8
Ebene 1
 62
     7
370
    25
100
AcDb2dPolyline
 66
     1
 10
0.0
 20
0.0
 30
0.0
  0
VERTEX
  5
339
330
338
100
AcDbEntity
  8
Ebene 1
 62
     7
370
    25
100
AcDbVertex
100
AcDb2dVertex
 10
140.8916584934229
 20
-46.59181585206733
 30
0.0
  0
VERTEX
  5
33A
330
338
100
AcDbEntity
  8
Ebene 1
 62
     7
370
    25
100
AcDbVertex
100
AcDb2dVertex
 10
144.8915866065722
 20
-46.59181585206733
 30
0.0
  0
SEQEND
  5
33B
330
338
100
AcDbEntity
  8
Ebene 1
370
    25
  0
ENDBLK
  5
337
330
334
100
AcDbEntity
  8
0
100
AcDbBlockEnd
  0
BLOCK
  5
33E
330
33C
100
AcDbEntity
  8
0
100
AcDbBlockBegin
  2
block 92
 70
     0
 71
     0
 10
0.0
 20
0.0
 30
0.0
  3
block 92
  1

  0
SPLINE
  5
340
330
33C
100
AcDbEntity
  8
Ebene 1
 62
     7
370
    25
100
AcDbSpline
210
0.0
220
0.0
230
1.0
 70
     8
 71
     3
 72
     8
 73
     4
 74
     0
 42
0.0000000001
 43
0.0000000001
 40
0.0
 40
0.0
 40
0.0
 40
0.0
 40
1.0
 40
1.0
 40
1.0
 40
1.0
 10
144.8915866065722
 20
-46.59181585206733
 30
0.0
 10
146.5485052802032
 20
-46.59181585206733
 30
0.0
 10
147.8915757551278
 20
-45.24857312236841
 30
0.0
 10
147.8915757551278
 20
-43.59182670351177
 30
0.0
  0
ENDBLK
  5
33F
330
33C
100
AcDbEntity
  8
0
100
AcDbBlockEnd
  0
BLOCK
  5
343
330
341
100
AcDbEntity
  8
0
100
AcDbBlockBegin
  2
block 93
 70
     0
 71
     0
 10
0.0
 20
0.0
 30
0.0
  3
block 93
  1

  0
POLYLINE
  5
345
330
341
100
AcDbEntity
  8
Ebene 1
 62
     7
370
    25
100
AcDb2dPolyline
 66
     1
 10
0.0
 20
0.0
 30
0.0
  0
VERTEX
  5
346
330
345
100
AcDbEntity
  8
Ebene 1
 62
     7
370
    25
100
AcDbVertex
100
AcDb2dVertex
 10
147.8915757551278
 20
-43.59182670351177
 30
0.0
  0
VERTEX
  5
347
330
345
100
AcDbEntity
  8
Ebene 1
 62
     7
370
    25
100
AcDbVertex
100
AcDb2dVertex
 10
147.8915757551278
 20
-38.59178737099442
 30
0.0
  0
SEQEND
  5
348
330
345
100
AcDbEntity
  8
Ebene 1
370
    25
  0
ENDBLK
  5
344
330
341
100
AcDbEntity
  8
0
100
AcDbBlockEnd
  0
BLOCK
  5
34B
330
349
100
AcDbEntity
  8
0
100
AcDbBlockBegin
  2
block 94
 70
     0
 71
     0
 10
0.0
 20
0.0
 30
0.0
  3
block 94
  1

  0
SPLINE
  5
34D
330
349
100
AcDbEntity
  8
Ebene 1
 62
     7
370
    25
100
AcDbSpline
210
0.0
220
0.0
230
1.0
 70
     8
 71
     3
 72
    11
 73
     7
 74
     0
 42
0.0000000001
 43
0.0000000001
 40
0.0
 40
0.0
 40
0.0
 40
0.0
 40
1.0
 40
1.0
 40
1.0
 40
2.0
 40
2.0
 40
2.0
 40
2.0
 10
157.8916544201625
 20
-38.59178737099442
 30
0.0
 10
157.8916544201625
 20
-35.83037108479241
 30
0.0
 10
155.6530313738472
 20
-33.59174803847706
 30
0.0
 10
152.8916150876452
 20
-33.59174803847706
 30
0.0
 10
150.1301988014432
 20
-33.59174803847706
 30
0.0
 10
147.8915757551278
 20
-35.83037108479241
 30
0.0
 10
147.8915757551278
 20
-38.59178737099442
 30
0.0
  0
ENDBLK
  5
34C
330
349
100
AcDbEntity
  8
0
100
AcDbBlockEnd
  0
BLOCK
  5
350
330
34E
100
AcDbEntity
  8
0
100
AcDbBlockBegin
  2
block 95
 70
     0
 71
     0
 10
0.0
 20
0.0
 30
0.0
  3
block 95
  1

  0
POLYLINE
  5
352
330
34E
100
AcDbEntity
  8
Ebene 1
 62
     7
370
    25
100
AcDb2dPolyline
 66
     1
 10
0.0
 20
0.0
 30
0.0
  0
VERTEX
  5
353
330
352
100
AcDbEntity
  8
Ebene 1
 62
     7
370
    25
100
AcDbVertex
100
AcDb2dVertex
 10
157.8916544201625
 20
-38.59178737099442
 30
0.0
  0
VERTEX
  5
354
330
352
100
AcDbEntity
  8
Ebene 1
 62
     7
370
    25
100
AcDbVertex
100
AcDb2dVertex
 10
157.8916544201625
 20
-43.59182670351177
 30
0.0
  0
SEQEND
  5
355
330
352
100
AcDbEntity
  8
Ebene 1
370
    25
  0
ENDBLK
  5
351
330
34E
100
AcDbEntity
  8
0
100
AcDbBlockEnd
  0
BLOCK
  5
358
330
356
100
AcDbEntity
  8
0
100
AcDbBlockBegin
  2
block 96
 70
     0
 71
     0
 10
0.0
 20
0.0
 30
0.0
  3
block 96
  1

  0
SPLINE
  5
35A
330
356
100
AcDbEntity
  8
Ebene 1
 62
     7
370
    25
100
AcDbSpline
210
0.0
220
0.0
230
1.0
 70
     8
 71
     3
 72
     8
 73
     4
 74
     0
 42
0.0000000001
 43
0.0000000001
 40
0.0
 40
0.0
 40
0.0
 40
0.0
 40
1.0
 40
1.0
 40
1.0
 40
1.0
 10
157.8916544201625
 20
-43.59182670351177
 30
0.0
 10
157.8916544201625
 20
-45.24857312236841
 30
0.0
 10
159.2347248950872
 20
-46.59181585206733
 30
0.0
 10
160.8916435687181
 20
-46.59181585206733
 30
0.0
  0
ENDBLK
  5
359
330
356
100
AcDbEntity
  8
0
100
AcDbBlockEnd
  0
BLOCK
  5
35D
330
35B
100
AcDbEntity
  8
0
100
AcDbBlockBegin
  2
block 97
 70
     0
 71
     0
 10
0.0
 20
0.0
 30
0.0
  3
block 97
  1

  0
POLYLINE
  5
35F
330
35B
100
AcDbEntity
  8
Ebene 1
 62
     7
370
    25
100
AcDb2dPolyline
 66
     1
 10
0.0
 20
0.0
 30
0.0
  0
VERTEX
  5
360
330
35F
100
AcDbEntity
  8
Ebene 1
 62
     7
370
    25
100
AcDbVertex
100
AcDb2dVertex
 10
160.8916435687181
 20
-46.59181585206733
 30
0.0
  0
VERTEX
  5
361
330
35F
100
AcDbEntity
  8
Ebene 1
 62
     7
370
    25
100
AcDbVertex
100
AcDb2dVertex
 10
164.8915716818674
 20
-46.59181585206733
 30
0.0
  0
SEQEND
  5
362
330
35F
100
AcDbEntity
  8
Ebene 1
370
    25
  0
ENDBLK
  5
35E
330
35B
100
AcDbEntity
  8
0
100
AcDbBlockEnd
  0
BLOCK
  5
365
330
363
100
AcDbEntity
  8
0
100
AcDbBlockBegin
  2
block 98
 70
     0
 71
     0
 10
0.0
 20
0.0
 30
0.0
  3
block 98
  1

  0
SPLINE
  5
367
330
363
100
AcDbEntity
  8
Ebene 1
 62
     7
370
    25
100
AcDbSpline
210
0.0
220
0.0
230
1.0
 70
     8
 71
     3
 72
     8
 73
     4
 74
     0
 42
0.0000000001
 43
0.0000000001
 40
0.0
 40
0.0
 40
0.0
 40
0.0
 40
1.0
 40
1.0
 40
1.0
 40
1.0
 10
167.8915608304229
 20
-49.59180500062288
 30
0.0
 10
167.8915608304229
 20
-47.93488632699197
 30
0.0
 10
166.5484903554983
 20
-46.59181585206733
 30
0.0
 10
164.8915716818674
 20
-46.59181585206733
 30
0.0
  0
ENDBLK
  5
366
330
363
100
AcDbEntity
  8
0
100
AcDbBlockEnd
  0
BLOCK
  5
36A
330
368
100
AcDbEntity
  8
0
100
AcDbBlockBegin
  2
block 99
 70
     0
 71
     0
 10
0.0
 20
0.0
 30
0.0
  3
block 99
  1

  0
POLYLINE
  5
36C
330
368
100
AcDbEntity
  8
Ebene 1
 62
     7
370
    25
100
AcDb2dPolyline
 66
     1
 10
0.0
 20
0.0
 30
0.0
  0
VERTEX
  5
36D
330
36C
100
AcDbEntity
  8
Ebene 1
 62
     7
370
    25
100
AcDbVertex
100
AcDb2dVertex
 10
167.8915608304229
 20
-49.59180500062288
 30
0.0
  0
VERTEX
  5
36E
330
36C
100
AcDbEntity
  8
Ebene 1
 62
     7
370
    25
100
AcDbVertex
100
AcDb2dVertex
 10
167.8915608304229
 20
-55.591783297734
 30
0.0
  0
SEQEND
  5
36F
330
36C
100
AcDbEntity
  8
Ebene 1
370
    25
  0
ENDBLK
  5
36B
330
368
100
AcDbEntity
  8
0
100
AcDbBlockEnd
  0
BLOCK
  5
372
330
370
100
AcDbEntity
  8
0
100
AcDbBlockBegin
  2
block 100
 70
     0
 71
     0
 10
0.0
 20
0.0
 30
0.0
  3
block 100
  1

  0
SPLINE
  5
374
330
370
100
AcDbEntity
  8
Ebene 1
 62
     7
370
    25
100
AcDbSpline
210
0.0
220
0.0
230
1.0
 70
     8
 71
     3
 72
     8
 73
     4
 74
     0
 42
0.0000000001
 43
0.0000000001
 40
0.0
 40
0.0
 40
0.0
 40
0.0
 40
1.0
 40
1.0
 40
1.0
 40
1.0
 10
164.8915716818674
 20
-58.59177244628956
 30
0.0
 10
166.5484903554983
 20
-58.59177244628956
 30
0.0
 10
167.8915608304229
 20
-57.24870197136491
 30
0.0
 10
167.8915608304229
 20
-55.591783297734
 30
0.0
  0
ENDBLK
  5
373
330
370
100
AcDbEntity
  8
0
100
AcDbBlockEnd
  0
BLOCK
  5
377
330
375
100
AcDbEntity
  8
0
100
AcDbBlockBegin
  2
block 101
 70
     0
 71
     0
 10
0.0
 20
0.0
 30
0.0
  3
block 101
  1

  0
POLYLINE
  5
379
330
375
100
AcDbEntity
  8
Ebene 1
 62
     7
370
    25
100
AcDb2dPolyline
 66
     1
 10
0.0
 20
0.0
 30
0.0
  0
VERTEX
  5
37A
330
379
100
AcDbEntity
  8
Ebene 1
 62
     7
370
    25
100
AcDbVertex
100
AcDb2dVertex
 10
164.8915716818674
 20
-58.59177244628956
 30
0.0
  0
VERTEX
  5
37B
330
379
100
AcDbEntity
  8
Ebene 1
 62
     7
370
    25
100
AcDbVertex
100
AcDb2dVertex
 10
140.8916584934229
 20
-58.59177244628956
 30
0.0
  0
SEQEND
  5
37C
330
379
100
AcDbEntity
  8
Ebene 1
370
    25
  0
ENDBLK
  5
378
330
375
100
AcDbEntity
  8
0
100
AcDbBlockEnd
  0
BLOCK
  5
37F
330
37D
100
AcDbEntity
  8
0
100
AcDbBlockBegin
  2
block 102
 70
     0
 71
     0
 10
0.0
 20
0.0
 30
0.0
  3
block 102
  1

  0
SPLINE
  5
381
330
37D
100
AcDbEntity
  8
Ebene 1
 62
     7
370
    25
100
AcDbSpline
210
0.0
220
0.0
230
1.0
 70
     8
 71
     3
 72
     8
 73
     4
 74
     0
 42
0.0000000001
 43
0.0000000001
 40
0.0
 40
0.0
 40
0.0
 40
0.0
 40
1.0
 40
1.0
 40
1.0
 40
1.0
 10
137.8916693448674
 20
-55.591783297734
 30
0.0
 10
137.8916693448674
 20
-57.24870197136491
 30
0.0
 10
139.234739819792
 20
-58.59177244628956
 30
0.0
 10
140.8916584934229
 20
-58.59177244628956
 30
0.0
  0
ENDBLK
  5
380
330
37D
100
AcDbEntity
  8
0
100
AcDbBlockEnd
  0
BLOCK
  5
384
330
382
100
AcDbEntity
  8
0
100
AcDbBlockBegin
  2
block 103
 70
     0
 71
     0
 10
0.0
 20
0.0
 30
0.0
  3
block 103
  1

  0
POLYLINE
  5
386
330
382
100
AcDbEntity
  8
Ebene 1
 62
     7
370
    25
100
AcDb2dPolyline
 66
     1
 10
0.0
 20
0.0
 30
0.0
  0
VERTEX
  5
387
330
386
100
AcDbEntity
  8
Ebene 1
 62
     7
370
    25
100
AcDbVertex
100
AcDb2dVertex
 10
137.8916693448674
 20
-55.591783297734
 30
0.0
  0
VERTEX
  5
388
330
386
100
AcDbEntity
  8
Ebene 1
 62
     7
370
    25
100
AcDbVertex
100
AcDb2dVertex
 10
137.8916693448674
 20
-49.59180500062288
 30
0.0
  0
SEQEND
  5
389
330
386
100
AcDbEntity
  8
Ebene 1
370
    25
  0
ENDBLK
  5
385
330
382
100
AcDbEntity
  8
0
100
AcDbBlockEnd
  0
BLOCK
  5
38C
330
38A
100
AcDbEntity
  8
0
100
AcDbBlockBegin
  2
block 104
 70
     0
 71
     0
 10
0.0
 20
0.0
 30
0.0
  3
block 104
  1

  0
POLYLINE
  5
38E
330
38A
100
AcDbEntity
  8
Ebene 1
 62
     7
370
    25
100
AcDb2dPolyline
 66
     1
 10
0.0
 20
0.0
 30
0.0
  0
VERTEX
  5
38F
330
38E
100
AcDbEntity
  8
Ebene 1
 62
     7
370
    25
100
AcDbVertex
100
AcDb2dVertex
 10
282.8916042044507
 20
-282.7417425508423
 30
0.0
  0
VERTEX
  5
390
330
38E
100
AcDbEntity
  8
Ebene 1
 62
     7
370
    25
100
AcDbVertex
100
AcDb2dVertex
 10
282.8916042044507
 20
-285.5918700457896
 30
0.0
  0
VERTEX
  5
391
330
38E
100
AcDbEntity
  8
Ebene 1
 62
     7
370
    25
100
AcDbVertex
100
AcDb2dVertex
 10
292.8916828694854
 20
-285.5918700457896
 30
0.0
  0
VERTEX
  5
392
330
38E
100
AcDbEntity
  8
Ebene 1
 62
     7
370
    25
100
AcDbVertex
100
AcDb2dVertex
 10
292.8916828694854
 20
-282.7417425508423
 30
0.0
  0
VERTEX
  5
393
330
38E
100
AcDbEntity
  8
Ebene 1
 62
     7
370
    25
100
AcDbVertex
100
AcDb2dVertex
 10
282.8916042044507
 20
-282.7417425508423
 30
0.0
  0
SEQEND
  5
394
330
38E
100
AcDbEntity
  8
Ebene 1
370
    25
  0
ENDBLK
  5
38D
330
38A
100
AcDbEntity
  8
0
100
AcDbBlockEnd
  0
BLOCK
  5
397
330
395
100
AcDbEntity
  8
0
100
AcDbBlockBegin
  2
block 105
 70
     0
 71
     0
 10
0.0
 20
0.0
 30
0.0
  3
block 105
  1

  0
POLYLINE
  5
399
330
395
100
AcDbEntity
  8
Ebene 1
 62
     7
370
    25
100
AcDb2dPolyline
 66
     1
 10
0.0
 20
0.0
 30
0.0
  0
VERTEX
  5
39A
330
399
100
AcDbEntity
  8
Ebene 1
 62
     7
370
    25
100
AcDbVertex
100
AcDb2dVertex
 10
259.1418049482354
 20
-282.7417425508423
 30
0.0
  0
VERTEX
  5
39B
330
399
100
AcDbEntity
  8
Ebene 1
 62
     7
370
    25
100
AcDbVertex
100
AcDb2dVertex
 10
259.1418049482354
 20
-285.5918700457896
 30
0.0
  0
VERTEX
  5
39C
330
399
100
AcDbEntity
  8
Ebene 1
 62
     7
370
    25
100
AcDbVertex
100
AcDb2dVertex
 10
269.1415391037216
 20
-285.5918700457896
 30
0.0
  0
VERTEX
  5
39D
330
399
100
AcDbEntity
  8
Ebene 1
 62
     7
370
    25
100
AcDbVertex
100
AcDb2dVertex
 10
269.1415391037216
 20
-282.7417425508423
 30
0.0
  0
VERTEX
  5
39E
330
399
100
AcDbEntity
  8
Ebene 1
 62
     7
370
    25
100
AcDbVertex
100
AcDb2dVertex
 10
259.1418049482354
 20
-282.7417425508423
 30
0.0
  0
SEQEND
  5
39F
330
399
100
AcDbEntity
  8
Ebene 1
370
    25
  0
ENDBLK
  5
398
330
395
100
AcDbEntity
  8
0
100
AcDbBlockEnd
  0
BLOCK
  5
3A2
330
3A0
100
AcDbEntity
  8
0
100
AcDbBlockBegin
  2
block 106
 70
     0
 71
     0
 10
0.0
 20
0.0
 30
0.0
  3
block 106
  1

  0
POLYLINE
  5
3A4
330
3A0
100
AcDbEntity
  8
Ebene 1
 62
     7
370
    25
100
AcDb2dPolyline
 66
     1
 10
0.0
 20
0.0
 30
0.0
  0
VERTEX
  5
3A5
330
3A4
100
AcDbEntity
  8
Ebene 1
 62
     7
370
    25
100
AcDbVertex
100
AcDb2dVertex
 10
235.3916611824716
 20
-282.7417425508423
 30
0.0
  0
VERTEX
  5
3A6
330
3A4
100
AcDbEntity
  8
Ebene 1
 62
     7
370
    25
100
AcDbVertex
100
AcDb2dVertex
 10
235.3916611824716
 20
-285.5918700457896
 30
0.0
  0
VERTEX
  5
3A7
330
3A4
100
AcDbEntity
  8
Ebene 1
 62
     7
370
    25
100
AcDbVertex
100
AcDb2dVertex
 10
245.3917398475062
 20
-285.5918700457896
 30
0.0
  0
VERTEX
  5
3A8
330
3A4
100
AcDbEntity
  8
Ebene 1
 62
     7
370
    25
100
AcDbVertex
100
AcDb2dVertex
 10
245.3917398475062
 20
-282.7417425508423
 30
0.0
  0
VERTEX
  5
3A9
330
3A4
100
AcDbEntity
  8
Ebene 1
 62
     7
370
    25
100
AcDbVertex
100
AcDb2dVertex
 10
235.3916611824716
 20
-282.7417425508423
 30
0.0
  0
SEQEND
  5
3AA
330
3A4
100
AcDbEntity
  8
Ebene 1
370
    25
  0
ENDBLK
  5
3A3
330
3A0
100
AcDbEntity
  8
0
100
AcDbBlockEnd
  0
BLOCK
  5
3AD
330
3AB
100
AcDbEntity
  8
0
100
AcDbBlockBegin
  2
block 107
 70
     0
 71
     0
 10
0.0
 20
0.0
 30
0.0
  3
block 107
  1

  0
POLYLINE
  5
3AF
330
3AB
100
AcDbEntity
  8
Ebene 1
 62
     7
370
    25
100
AcDb2dPolyline
 66
     1
 10
0.0
 20
0.0
 30
0.0
  0
VERTEX
  5
3B0
330
3AF
100
AcDbEntity
  8
Ebene 1
 62
     7
370
    25
100
AcDbVertex
100
AcDb2dVertex
 10
230.3917941047285
 20
-279.5918917486784
 30
0.0
  0
VERTEX
  5
3B1
330
3AF
100
AcDbEntity
  8
Ebene 1
 62
     7
370
    25
100
AcDbVertex
100
AcDb2dVertex
 10
297.8915499472285
 20
-279.5918917486784
 30
0.0
  0
VERTEX
  5
3B2
330
3AF
100
AcDbEntity
  8
Ebene 1
 62
     7
370
    25
100
AcDbVertex
100
AcDb2dVertex
 10
297.8915499472285
 20
-288.5918591943451
 30
0.0
  0
VERTEX
  5
3B3
330
3AF
100
AcDbEntity
  8
Ebene 1
 62
     7
370
    25
100
AcDbVertex
100
AcDb2dVertex
 10
230.3917941047285
 20
-288.5918591943451
 30
0.0
  0
VERTEX
  5
3B4
330
3AF
100
AcDbEntity
  8
Ebene 1
 62
     7
370
    25
100
AcDbVertex
100
AcDb2dVertex
 10
230.3917941047285
 20
-279.5918917486784
 30
0.0
  0
SEQEND
  5
3B5
330
3AF
100
AcDbEntity
  8
Ebene 1
370
    25
  0
ENDBLK
  5
3AE
330
3AB
100
AcDbEntity
  8
0
100
AcDbBlockEnd
  0
BLOCK
  5
3B8
330
3B6
100
AcDbEntity
  8
0
100
AcDbBlockBegin
  2
block 108
 70
     0
 71
     0
 10
0.0
 20
0.0
 30
0.0
  3
block 108
  1

  0
SPLINE
  5
3BA
330
3B6
100
AcDbEntity
  8
Ebene 1
 62
     7
370
    25
100
AcDbSpline
210
0.0
220
0.0
230
1.0
 70
    11
 71
     3
 72
    20
 73
    16
 74
     0
 42
0.0000000001
 43
0.0000000001
 40
0.0
 40
0.0
 40
0.0
 40
0.0
 40
1.0
 40
1.0
 40
1.0
 40
2.0
 40
2.0
 40
2.0
 40
3.0
 40
3.0
 40
3.0
 40
4.0
 40
4.0
 40
4.0
 40
5.0
 40
5.0
 40
5.0
 40
5.0
 10
174.6255167206666
 20
-16.09169650205347
 30
0.0
 10
174.6255167206666
 20
-15.3737386029274
 30
0.0
 10
174.0434678384336
 20
-14.7918619754687
 30
0.0
 10
173.3255099393075
 20
-14.7918619754687
 30
0.0
 10
172.6075520401814
 20
-14.7918619754687
 30
0.0
 10
172.0255031579485
 20
-15.3737386029274
 30
0.0
 10
172.0255031579485
 20
-16.09169650205347
 30
0.0
 10
172.0255031579485
 20
-16.8098266559538
 30
0.0
 10
172.6075520401814
 20
-17.39187553818675
 30
0.0
 10
173.3255099393075
 20
-17.39187553818675
 30
0.0
 10
174.0434678384336
 20
-17.39187553818675
 30
0.0
 10
174.6255167206666
 20
-16.8098266559538
 30
0.0
 10
174.6255167206666
 20
-16.09169650205347
 30
0.0
 10
174.6255167206666
 20
-16.09169650205347
 30
0.0
 10
174.6255167206666
 20
-16.09169650205347
 30
0.0
 10
174.6255167206666
 20
-16.09169650205347
 30
0.0
  0
ENDBLK
  5
3B9
330
3B6
100
AcDbEntity
  8
0
100
AcDbBlockEnd
  0
BLOCK
  5
3BD
330
3BB
100
AcDbEntity
  8
0
100
AcDbBlockBegin
  2
block 109
 70
     0
 71
     0
 10
0.0
 20
0.0
 30
0.0
  3
block 109
  1

  0
SPLINE
  5
3BF
330
3BB
100
AcDbEntity
  8
Ebene 1
 62
     7
370
    25
100
AcDbSpline
210
0.0
220
0.0
230
1.0
 70
    11
 71
     3
 72
    20
 73
    16
 74
     0
 42
0.0000000001
 43
0.0000000001
 40
0.0
 40
0.0
 40
0.0
 40
0.0
 40
1.0
 40
1.0
 40
1.0
 40
2.0
 40
2.0
 40
2.0
 40
3.0
 40
3.0
 40
3.0
 40
4.0
 40
4.0
 40
4.0
 40
5.0
 40
5.0
 40
5.0
 40
5.0
 10
173.3255099393075
 20
-8.841837562893708
 30
0.0
 10
173.3255099393075
 20
-8.841837562893708
 30
0.0
 10
245.3917398475062
 20
-8.841837562893708
 30
0.0
 10
245.3917398475062
 20
-8.841837562893708
 30
0.0
 10
245.3917398475062
 20
-8.841837562893708
 30
0.0
 10
245.3917398475062
 20
-23.34172769598749
 30
0.0
 10
245.3917398475062
 20
-23.34172769598749
 30
0.0
 10
245.3917398475062
 20
-23.34172769598749
 30
0.0
 10
173.3255099393075
 20
-23.34172769598749
 30
0.0
 10
173.3255099393075
 20
-23.34172769598749
 30
0.0
 10
169.3214477115759
 20
-23.34172769598749
 30
0.0
 10
166.0754787453735
 20
-20.09593098455935
 30
0.0
 10
166.0754787453735
 20
-16.09169650205347
 30
0.0
 10
166.0754787453735
 20
-12.0878065290961
 30
0.0
 10
169.3214477115759
 20
-8.841837562893708
 30
0.0
 10
173.3255099393075
 20
-8.841837562893708
 30
0.0
  0
ENDBLK
  5
3BE
330
3BB
100
AcDbEntity
  8
0
100
AcDbBlockEnd
  0
ENDSEC
  0
SECTION
  2
ENTITIES
  0
INSERT
  5
3D
330
1F
100
AcDbEntity
  8
Ebene 1
100
AcDbBlockReference
  2
block 2
 10
0.0
 20
0.0
 30
0.0
  0
INSERT
  5
48
330
1F
100
AcDbEntity
  8
Ebene 1
100
AcDbBlockReference
  2
block 3
 10
0.0
 20
0.0
 30
0.0
  0
INSERT
  5
53
330
1F
100
AcDbEntity
  8
Ebene 1
100
AcDbBlockReference
  2
block 4
 10
0.0
 20
0.0
 30
0.0
  0
INSERT
  5
5E
330
1F
100
AcDbEntity
  8
Ebene 1
100
AcDbBlockReference
  2
block 5
 10
0.0
 20
0.0
 30
0.0
  0
INSERT
  5
69
330
1F
100
AcDbEntity
  8
Ebene 1
100
AcDbBlockReference
  2
block 6
 10
0.0
 20
0.0
 30
0.0
  0
INSERT
  5
74
330
1F
100
AcDbEntity
  8
Ebene 1
100
AcDbBlockReference
  2
block 7
 10
0.0
 20
0.0
 30
0.0
  0
INSERT
  5
7F
330
1F
100
AcDbEntity
  8
Ebene 1
100
AcDbBlockReference
  2
block 8
 10
0.0
 20
0.0
 30
0.0
  0
INSERT
  5
8A
330
1F
100
AcDbEntity
  8
Ebene 1
100
AcDbBlockReference
  2
block 9
 10
0.0
 20
0.0
 30
0.0
  0
INSERT
  5
95
330
1F
100
AcDbEntity
  8
Ebene 1
100
AcDbBlockReference
  2
block 10
 10
0.0
 20
0.0
 30
0.0
  0
INSERT
  5
A0
330
1F
100
AcDbEntity
  8
Ebene 1
100
AcDbBlockReference
  2
block 11
 10
0.0
 20
0.0
 30
0.0
  0
INSERT
  5
AB
330
1F
100
AcDbEntity
  8
Ebene 1
100
AcDbBlockReference
  2
block 12
 10
0.0
 20
0.0
 30
0.0
  0
INSERT
  5
B6
330
1F
100
AcDbEntity
  8
Ebene 1
100
AcDbBlockReference
  2
block 13
 10
0.0
 20
0.0
 30
0.0
  0
INSERT
  5
C1
330
1F
100
AcDbEntity
  8
Ebene 1
100
AcDbBlockReference
  2
block 14
 10
0.0
 20
0.0
 30
0.0
  0
INSERT
  5
CC
330
1F
100
AcDbEntity
  8
Ebene 1
100
AcDbBlockReference
  2
block 15
 10
0.0
 20
0.0
 30
0.0
  0
INSERT
  5
D7
330
1F
100
AcDbEntity
  8
Ebene 1
100
AcDbBlockReference
  2
block 16
 10
0.0
 20
0.0
 30
0.0
  0
INSERT
  5
E2
330
1F
100
AcDbEntity
  8
Ebene 1
100
AcDbBlockReference
  2
block 17
 10
0.0
 20
0.0
 30
0.0
  0
INSERT
  5
ED
330
1F
100
AcDbEntity
  8
Ebene 1
100
AcDbBlockReference
  2
block 18
 10
0.0
 20
0.0
 30
0.0
  0
INSERT
  5
F8
330
1F
100
AcDbEntity
  8
Ebene 1
100
AcDbBlockReference
  2
block 19
 10
0.0
 20
0.0
 30
0.0
  0
INSERT
  5
103
330
1F
100
AcDbEntity
  8
Ebene 1
100
AcDbBlockReference
  2
block 20
 10
0.0
 20
0.0
 30
0.0
  0
INSERT
  5
10E
330
1F
100
AcDbEntity
  8
Ebene 1
100
AcDbBlockReference
  2
block 21
 10
0.0
 20
0.0
 30
0.0
  0
INSERT
  5
113
330
1F
100
AcDbEntity
  8
Ebene 1
100
AcDbBlockReference
  2
block 22
 10
0.0
 20
0.0
 30
0.0
  0
INSERT
  5
118
330
1F
100
AcDbEntity
  8
Ebene 1
100
AcDbBlockReference
  2
block 23
 10
0.0
 20
0.0
 30
0.0
  0
INSERT
  5
120
330
1F
100
AcDbEntity
  8
Ebene 1
100
AcDbBlockReference
  2
block 24
 10
0.0
 20
0.0
 30
0.0
  0
INSERT
  5
125
330
1F
100
AcDbEntity
  8
Ebene 1
100
AcDbBlockReference
  2
block 25
 10
0.0
 20
0.0
 30
0.0
  0
INSERT
  5
12D
330
1F
100
AcDbEntity
  8
Ebene 1
100
AcDbBlockReference
  2
block 26
 10
0.0
 20
0.0
 30
0.0
  0
INSERT
  5
132
330
1F
100
AcDbEntity
  8
Ebene 1
100
AcDbBlockReference
  2
block 27
 10
0.0
 20
0.0
 30
0.0
  0
INSERT
  5
13A
330
1F
100
AcDbEntity
  8
Ebene 1
100
AcDbBlockReference
  2
block 28
 10
0.0
 20
0.0
 30
0.0
  0
INSERT
  5
13F
330
1F
100
AcDbEntity
  8
Ebene 1
100
AcDbBlockReference
  2
block 29
 10
0.0
 20
0.0
 30
0.0
  0
INSERT
  5
147
330
1F
100
AcDbEntity
  8
Ebene 1
100
AcDbBlockReference
  2
block 30
 10
0.0
 20
0.0
 30
0.0
  0
INSERT
  5
14C
330
1F
100
AcDbEntity
  8
Ebene 1
100
AcDbBlockReference
  2
block 31
 10
0.0
 20
0.0
 30
0.0
  0
INSERT
  5
154
330
1F
100
AcDbEntity
  8
Ebene 1
100
AcDbBlockReference
  2
block 32
 10
0.0
 20
0.0
 30
0.0
  0
INSERT
  5
159
330
1F
100
AcDbEntity
  8
Ebene 1
100
AcDbBlockReference
  2
block 33
 10
0.0
 20
0.0
 30
0.0
  0
INSERT
  5
161
330
1F
100
AcDbEntity
  8
Ebene 1
100
AcDbBlockReference
  2
block 34
 10
0.0
 20
0.0
 30
0.0
  0
INSERT
  5
166
330
1F
100
AcDbEntity
  8
Ebene 1
100
AcDbBlockReference
  2
block 35
 10
0.0
 20
0.0
 30
0.0
  0
INSERT
  5
16E
330
1F
100
AcDbEntity
  8
Ebene 1
100
AcDbBlockReference
  2
block 36
 10
0.0
 20
0.0
 30
0.0
  0
INSERT
  5
173
330
1F
100
AcDbEntity
  8
Ebene 1
100
AcDbBlockReference
  2
block 37
 10
0.0
 20
0.0
 30
0.0
  0
INSERT
  5
17B
330
1F
100
AcDbEntity
  8
Ebene 1
100
AcDbBlockReference
  2
block 38
 10
0.0
 20
0.0
 30
0.0
  0
INSERT
  5
180
330
1F
100
AcDbEntity
  8
Ebene 1
100
AcDbBlockReference
  2
block 39
 10
0.0
 20
0.0
 30
0.0
  0
INSERT
  5
188
330
1F
100
AcDbEntity
  8
Ebene 1
100
AcDbBlockReference
  2
block 40
 10
0.0
 20
0.0
 30
0.0
  0
INSERT
  5
18D
330
1F
100
AcDbEntity
  8
Ebene 1
100
AcDbBlockReference
  2
block 41
 10
0.0
 20
0.0
 30
0.0
  0
INSERT
  5
195
330
1F
100
AcDbEntity
  8
Ebene 1
100
AcDbBlockReference
  2
block 42
 10
0.0
 20
0.0
 30
0.0
  0
INSERT
  5
19A
330
1F
100
AcDbEntity
  8
Ebene 1
100
AcDbBlockReference
  2
block 43
 10
0.0
 20
0.0
 30
0.0
  0
INSERT
  5
1A2
330
1F
100
AcDbEntity
  8
Ebene 1
100
AcDbBlockReference
  2
block 44
 10
0.0
 20
0.0
 30
0.0
  0
INSERT
  5
1A7
330
1F
100
AcDbEntity
  8
Ebene 1
100
AcDbBlockReference
  2
block 45
 10
0.0
 20
0.0
 30
0.0
  0
INSERT
  5
1AF
330
1F
100
AcDbEntity
  8
Ebene 1
100
AcDbBlockReference
  2
block 46
 10
0.0
 20
0.0
 30
0.0
  0
INSERT
  5
1B4
330
1F
100
AcDbEntity
  8
Ebene 1
100
AcDbBlockReference
  2
block 47
 10
0.0
 20
0.0
 30
0.0
  0
INSERT
  5
1BC
330
1F
100
AcDbEntity
  8
Ebene 1
100
AcDbBlockReference
  2
block 48
 10
0.0
 20
0.0
 30
0.0
  0
INSERT
  5
1C1
330
1F
100
AcDbEntity
  8
Ebene 1
100
AcDbBlockReference
  2
block 49
 10
0.0
 20
0.0
 30
0.0
  0
INSERT
  5
1C9
330
1F
100
AcDbEntity
  8
Ebene 1
100
AcDbBlockReference
  2
block 50
 10
0.0
 20
0.0
 30
0.0
  0
INSERT
  5
1D4
330
1F
100
AcDbEntity
  8
Ebene 1
100
AcDbBlockReference
  2
block 51
 10
0.0
 20
0.0
 30
0.0
  0
INSERT
  5
1DF
330
1F
100
AcDbEntity
  8
Ebene 1
100
AcDbBlockReference
  2
block 52
 10
0.0
 20
0.0
 30
0.0
  0
INSERT
  5
1EA
330
1F
100
AcDbEntity
  8
Ebene 1
100
AcDbBlockReference
  2
block 53
 10
0.0
 20
0.0
 30
0.0
  0
INSERT
  5
1F5
330
1F
100
AcDbEntity
  8
Ebene 1
100
AcDbBlockReference
  2
block 54
 10
0.0
 20
0.0
 30
0.0
  0
INSERT
  5
1FA
330
1F
100
AcDbEntity
  8
Ebene 1
100
AcDbBlockReference
  2
block 55
 10
0.0
 20
0.0
 30
0.0
  0
INSERT
  5
1FF
330
1F
100
AcDbEntity
  8
Ebene 1
100
AcDbBlockReference
  2
block 56
 10
0.0
 20
0.0
 30
0.0
  0
INSERT
  5
20A
330
1F
100
AcDbEntity
  8
Ebene 1
100
AcDbBlockReference
  2
block 57
 10
0.0
 20
0.0
 30
0.0
  0
INSERT
  5
215
330
1F
100
AcDbEntity
  8
Ebene 1
100
AcDbBlockReference
  2
block 58
 10
0.0
 20
0.0
 30
0.0
  0
INSERT
  5
220
330
1F
100
AcDbEntity
  8
Ebene 1
100
AcDbBlockReference
  2
block 59
 10
0.0
 20
0.0
 30
0.0
  0
INSERT
  5
22B
330
1F
100
AcDbEntity
  8
Ebene 1
100
AcDbBlockReference
  2
block 60
 10
0.0
 20
0.0
 30
0.0
  0
INSERT
  5
236
330
1F
100
AcDbEntity
  8
Ebene 1
100
AcDbBlockReference
  2
block 61
 10
0.0
 20
0.0
 30
0.0
  0
INSERT
  5
241
330
1F
100
AcDbEntity
  8
Ebene 1
100
AcDbBlockReference
  2
block 62
 10
0.0
 20
0.0
 30
0.0
  0
INSERT
  5
24C
330
1F
100
AcDbEntity
  8
Ebene 1
100
AcDbBlockReference
  2
block 63
 10
0.0
 20
0.0
 30
0.0
  0
INSERT
  5
257
330
1F
100
AcDbEntity
  8
Ebene 1
100
AcDbBlockReference
  2
block 64
 10
0.0
 20
0.0
 30
0.0
  0
INSERT
  5
262
330
1F
100
AcDbEntity
  8
Ebene 1
100
AcDbBlockReference
  2
block 65
 10
0.0
 20
0.0
 30
0.0
  0
INSERT
  5
26D
330
1F
100
AcDbEntity
  8
Ebene 1
100
AcDbBlockReference
  2
block 66
 10
0.0
 20
0.0
 30
0.0
  0
INSERT
  5
278
330
1F
100
AcDbEntity
  8
Ebene 1
100
AcDbBlockReference
  2
block 67
 10
0.0
 20
0.0
 30
0.0
  0
INSERT
  5
283
330
1F
100
AcDbEntity
  8
Ebene 1
100
AcDbBlockReference
  2
block 68
 10
0.0
 20
0.0
 30
0.0
  0
INSERT
  5
28E
330
1F
100
AcDbEntity
  8
Ebene 1
100
AcDbBlockReference
  2
block 69
 10
0.0
 20
0.0
 30
0.0
  0
INSERT
  5
299
330
1F
100
AcDbEntity
  8
Ebene 1
100
AcDbBlockReference
  2
block 70
 10
0.0
 20
0.0
 30
0.0
  0
INSERT
  5
2A4
330
1F
100
AcDbEntity
  8
Ebene 1
100
AcDbBlockReference
  2
block 71
 10
0.0
 20
0.0
 30
0.0
  0
INSERT
  5
2AF
330
1F
100
AcDbEntity
  8
Ebene 1
100
AcDbBlockReference
  2
block 72
 10
0.0
 20
0.0
 30
0.0
  0
INSERT
  5
2BA
330
1F
100
AcDbEntity
  8
Ebene 1
100
AcDbBlockReference
  2
block 73
 10
0.0
 20
0.0
 30
0.0
  0
INSERT
  5
2C5
330
1F
100
AcDbEntity
  8
Ebene 1
100
AcDbBlockReference
  2
block 74
 10
0.0
 20
0.0
 30
0.0
  0
INSERT
  5
2D0
330
1F
100
AcDbEntity
  8
Ebene 1
100
AcDbBlockReference
  2
block 75
 10
0.0
 20
0.0
 30
0.0
  0
INSERT
  5
2D5
330
1F
100
AcDbEntity
  8
Ebene 1
100
AcDbBlockReference
  2
block 76
 10
0.0
 20
0.0
 30
0.0
  0
INSERT
  5
2DA
330
1F
100
AcDbEntity
  8
Ebene 1
100
AcDbBlockReference
  2
block 77
 10
0.0
 20
0.0
 30
0.0
  0
INSERT
  5
2E2
330
1F
100
AcDbEntity
  8
Ebene 1
100
AcDbBlockReference
  2
block 78
 10
0.0
 20
0.0
 30
0.0
  0
INSERT
  5
2E7
330
1F
100
AcDbEntity
  8
Ebene 1
100
AcDbBlockReference
  2
block 79
 10
0.0
 20
0.0
 30
0.0
  0
INSERT
  5
2EF
330
1F
100
AcDbEntity
  8
Ebene 1
100
AcDbBlockReference
  2
block 80
 10
0.0
 20
0.0
 30
0.0
  0
INSERT
  5
2F4
330
1F
100
AcDbEntity
  8
Ebene 1
100
AcDbBlockReference
  2
block 81
 10
0.0
 20
0.0
 30
0.0
  0
INSERT
  5
2FC
330
1F
100
AcDbEntity
  8
Ebene 1
100
AcDbBlockReference
  2
block 82
 10
0.0
 20
0.0
 30
0.0
  0
INSERT
  5
301
330
1F
100
AcDbEntity
  8
Ebene 1
100
AcDbBlockReference
  2
block 83
 10
0.0
 20
0.0
 30
0.0
  0
INSERT
  5
309
330
1F
100
AcDbEntity
  8
Ebene 1
100
AcDbBlockReference
  2
block 84
 10
0.0
 20
0.0
 30
0.0
  0
INSERT
  5
30E
330
1F
100
AcDbEntity
  8
Ebene 1
100
AcDbBlockReference
  2
block 85
 10
0.0
 20
0.0
 30
0.0
  0
INSERT
  5
316
330
1F
100
AcDbEntity
  8
Ebene 1
100
AcDbBlockReference
  2
block 86
 10
0.0
 20
0.0
 30
0.0
  0
INSERT
  5
31B
330
1F
100
AcDbEntity
  8
Ebene 1
100
AcDbBlockReference
  2
block 87
 10
0.0
 20
0.0
 30
0.0
  0
INSERT
  5
323
330
1F
100
AcDbEntity
  8
Ebene 1
100
AcDbBlockReference
  2
block 88
 10
0.0
 20
0.0
 30
0.0
  0
INSERT
  5
328
330
1F
100
AcDbEntity
  8
Ebene 1
100
AcDbBlockReference
  2
block 89
 10
0.0
 20
0.0
 30
0.0
  0
INSERT
  5
330
330
1F
100
AcDbEntity
  8
Ebene 1
100
AcDbBlockReference
  2
block 90
 10
0.0
 20
0.0
 30
0.0
  0
INSERT
  5
335
330
1F
100
AcDbEntity
  8
Ebene 1
100
AcDbBlockReference
  2
block 91
 10
0.0
 20
0.0
 30
0.0
  0
INSERT
  5
33D
330
1F
100
AcDbEntity
  8
Ebene 1
100
AcDbBlockReference
  2
block 92
 10
0.0
 20
0.0
 30
0.0
  0
INSERT
  5
342
330
1F
100
AcDbEntity
  8
Ebene 1
100
AcDbBlockReference
  2
block 93
 10
0.0
 20
0.0
 30
0.0
  0
INSERT
  5
34A
330
1F
100
AcDbEntity
  8
Ebene 1
100
AcDbBlockReference
  2
block 94
 10
0.0
 20
0.0
 30
0.0
  0
INSERT
  5
34F
330
1F
100
AcDbEntity
  8
Ebene 1
100
AcDbBlockReference
  2
block 95
 10
0.0
 20
0.0
 30
0.0
  0
INSERT
  5
357
330
1F
100
AcDbEntity
  8
Ebene 1
100
AcDbBlockReference
  2
block 96
 10
0.0
 20
0.0
 30
0.0
  0
INSERT
  5
35C
330
1F
100
AcDbEntity
  8
Ebene 1
100
AcDbBlockReference
  2
block 97
 10
0.0
 20
0.0
 30
0.0
  0
INSERT
  5
364
330
1F
100
AcDbEntity
  8
Ebene 1
100
AcDbBlockReference
  2
block 98
 10
0.0
 20
0.0
 30
0.0
  0
INSERT
  5
369
330
1F
100
AcDbEntity
  8
Ebene 1
100
AcDbBlockReference
  2
block 99
 10
0.0
 20
0.0
 30
0.0
  0
INSERT
  5
371
330
1F
100
AcDbEntity
  8
Ebene 1
100
AcDbBlockReference
  2
block 100
 10
0.0
 20
0.0
 30
0.0
  0
INSERT
  5
376
330
1F
100
AcDbEntity
  8
Ebene 1
100
AcDbBlockReference
  2
block 101
 10
0.0
 20
0.0
 30
0.0
  0
INSERT
  5
37E
330
1F
100
AcDbEntity
  8
Ebene 1
100
AcDbBlockReference
  2
block 102
 10
0.0
 20
0.0
 30
0.0
  0
INSERT
  5
383
330
1F
100
AcDbEntity
  8
Ebene 1
100
AcDbBlockReference
  2
block 103
 10
0.0
 20
0.0
 30
0.0
  0
INSERT
  5
38B
330
1F
100
AcDbEntity
  8
Ebene 1
100
AcDbBlockReference
  2
block 104
 10
0.0
 20
0.0
 30
0.0
  0
INSERT
  5
396
330
1F
100
AcDbEntity
  8
Ebene 1
100
AcDbBlockReference
  2
block 105
 10
0.0
 20
0.0
 30
0.0
  0
INSERT
  5
3A1
330
1F
100
AcDbEntity
  8
Ebene 1
100
AcDbBlockReference
  2
block 106
 10
0.0
 20
0.0
 30
0.0
  0
INSERT
  5
3AC
330
1F
100
AcDbEntity
  8
Ebene 1
100
AcDbBlockReference
  2
block 107
 10
0.0
 20
0.0
 30
0.0
  0
INSERT
  5
3B7
330
1F
100
AcDbEntity
  8
Ebene 1
100
AcDbBlockReference
  2
block 108
 10
0.0
 20
0.0
 30
0.0
  0
INSERT
  5
3BC
330
1F
100
AcDbEntity
  8
Ebene 1
100
AcDbBlockReference
  2
block 109
 10
0.0
 20
0.0
 30
0.0
  0
MTEXT
  5
3C1
330
1F
100
AcDbEntity
  8
Ebene 2
 62
     7
100
AcDbMText
 10
211.3138888360604
 20
-225.1976236416173
 30
0.0
 40
8.635999997841001
 41
0.0
 71
     7
 72
     1
  1
\fMyriad Pro|b0|i0|c0|p34;\W1;2
 73
     1
 44
1.0
  0
ENDSEC
  0
SECTION
  2
OBJECTS
  0
DICTIONARY
  5
C
330
0
100
AcDbDictionary
281
     1
  3
ACAD_GROUP
350
D
  3
ACAD_LAYOUT
350
1A
  3
ACAD_MLINESTYLE
350
17
  3
ACAD_PLOTSETTINGS
350
19
  3
ACAD_PLOTSTYLENAME
350
E
  3
ACAD_TABLESTYLE
350
3C2
  3
ACAD_VISUALSTYLE
350
2A
  0
DICTIONARY
  5
D
102
{ACAD_REACTORS
330
C
102
}
330
C
100
AcDbDictionary
281
     1
  0
DICTIONARY
  5
1A
102
{ACAD_REACTORS
330
C
102
}
330
C
100
AcDbDictionary
281
     1
  3
Layout1
350
1E
  3
Layout2
350
26
  3
Model
350
22
  0
DICTIONARY
  5
17
102
{ACAD_REACTORS
330
C
102
}
330
C
100
AcDbDictionary
281
     1
  3
Standard
350
18
  0
DICTIONARY
  5
19
102
{ACAD_REACTORS
330
C
102
}
330
C
100
AcDbDictionary
281
     1
  0
ACDBDICTIONARYWDFLT
  5
E
102
{ACAD_REACTORS
330
C
102
}
330
C
100
AcDbDictionary
281
     1
  3
Normal
350
F
100
AcDbDictionaryWithDefault
340
F
  0
DICTIONARY
  5
3C2
102
{ACAD_REACTORS
330
C
102
}
330
C
100
AcDbDictionary
281
     1
  0
DICTIONARY
  5
2A
102
{ACAD_REACTORS
330
C
102
}
330
C
100
AcDbDictionary
281
     1
  3
2dWireframe
350
2F
  3
3D Hidden
350
31
  3
3dWireframe
350
30
  3
Basic
350
32
  3
Brighten
350
36
  3
ColorChange
350
3A
  3
Conceptual
350
34
  3
Dim
350
35
  3
Facepattern
350
39
  3
Flat
350
2B
  3
FlatWithEdges
350
2C
  3
Gouraud
350
2D
  3
GouraudWithEdges
350
2E
  3
Linepattern
350
38
  3
Realistic
350
33
  3
Thicken
350
37
  0
LAYOUT
  5
1E
102
{ACAD_REACTORS
330
1A
102
}
330
1A
100
AcDbPlotSettings
  1

  2
none_device
  4

  6

 40
0.0
 41
0.0
 42
0.0
 43
0.0
 44
0.0
 45
0.0
 46
0.0
 47
0.0
 48
0.0
 49
0.0
140
0.0
141
0.0
142
1.0
143
1.0
 70
   688
 72
     0
 73
     0
 74
     5
  7

 75
    16
147
1.0
148
0.0
149
0.0
100
AcDbLayout
  1
Layout1
 70
     1
 71
     1
 10
0.0
 20
0.0
 11
12.0
 21
9.0
 12
0.0
 22
0.0
 32
0.0
 14
1.000000000000000E+20
 24
1.000000000000000E+20
 34
1.000000000000000E+20
 15
-1.000000000000000E+20
 25
-1.000000000000000E+20
 35
-1.000000000000000E+20
146
0.0
 13
0.0
 23
0.0
 33
0.0
 16
1.0
 26
0.0
 36
0.0
 17
0.0
 27
1.0
 37
0.0
 76
     0
330
1B
  0
LAYOUT
  5
26
102
{ACAD_REACTORS
330
1A
102
}
330
1A
100
AcDbPlotSettings
  1

  2
none_device
  4

  6

 40
0.0
 41
0.0
 42
0.0
 43
0.0
 44
0.0
 45
0.0
 46
0.0
 47
0.0
 48
0.0
 49
0.0
140
0.0
141
0.0
142
1.0
143
1.0
 70
   688
 72
     0
 73
     0
 74
     5
  7

 75
    16
147
1.0
148
0.0
149
0.0
100
AcDbLayout
  1
Layout2
 70
     1
 71
     2
 10
0.0
 20
0.0
 11
0.0
 21
0.0
 12
0.0
 22
0.0
 32
0.0
 14
0.0
 24
0.0
 34
0.0
 15
0.0
 25
0.0
 35
0.0
146
0.0
 13
0.0
 23
0.0
 33
0.0
 16
1.0
 26
0.0
 36
0.0
 17
0.0
 27
1.0
 37
0.0
 76
     0
330
23
  0
LAYOUT
  5
22
102
{ACAD_REACTORS
330
1A
102
}
330
1A
100
AcDbPlotSettings
  1

  2
none_device
  4

  6

 40
0.0
 41
0.0
 42
0.0
 43
0.0
 44
0.0
 45
0.0
 46
0.0
 47
0.0
 48
0.0
 49
0.0
140
0.0
141
0.0
142
1.0
143
1.0
 70
  1712
 72
     0
 73
     0
 74
     0
  7

 75
     0
147
1.0
148
0.0
149
0.0
100
AcDbLayout
  1
Model
 70
     1
 71
     0
 10
0.0
 20
0.0
 11
12.0
 21
9.0
 12
0.0
 22
0.0
 32
0.0
 14
1.000000000000000E+20
 24
1.000000000000000E+20
 34
1.000000000000000E+20
 15
-1.000000000000000E+20
 25
-1.000000000000000E+20
 35
-1.000000000000000E+20
146
0.0
 13
0.0
 23
0.0
 33
0.0
 16
1.0
 26
0.0
 36
0.0
 17
0.0
 27
1.0
 37
0.0
 76
     0
330
1F
331
29
  0
MLINESTYLE
  5
18
102
{ACAD_REACTORS
330
17
102
}
330
17
100
AcDbMlineStyle
  2
Standard
 70
     0
  3

 62
   256
 51
90.0
 52
90.0
 71
     2
 49
0.5
 62
   256
  6
BYLAYER
 49
-0.5
 62
   256
  6
BYLAYER
  0
ACDBPLACEHOLDER
  5
F
102
{ACAD_REACTORS
330
E
102
}
330
E
  0
VISUALSTYLE
  5
2F
102
{ACAD_REACTORS
330
2A
102
}
330
2A
100
AcDbVisualStyle
  2
2dWireframe
 70
     4
 71
     0
 72
     2
 73
     0
 90
        0
 40
-0.6
 41
-30.0
 62
     5
 63
     7
 74
     1
 91
        4
 64
     7
 65
   257
 75
     1
175
     1
 42
1.0
 92
        0
 66
   257
 43
1.0
 76
     1
 77
     6
 78
     2
 67
     7
 79
     5
170
     0
171
     0
290
     0
174
     0
 93
        1
 44
0.0
173
     0
291
     0
 45
0.0
1001
ACAD
1000
AcDbSavedByObjectVersion
1070
     0
  0
VISUALSTYLE
  5
31
102
{ACAD_REACTORS
330
2A
102
}
330
2A
100
AcDbVisualStyle
  2
3D Hidden
 70
     6
 71
     1
 72
     2
 73
     2
 90
        0
 40
-0.6
 41
-30.0
 62
     5
 63
     7
 74
     2
 91
        2
 64
     7
 65
   257
 75
     2
175
     1
 42
40.0
 92
        0
 66
   257
 43
1.0
 76
     1
 77
     6
 78
     2
 67
     7
 79
     3
170
     0
171
     0
290
     0
174
     0
 93
        1
 44
0.0
173
     0
291
     0
 45
0.0
1001
ACAD
1000
AcDbSavedByObjectVersion
1070
     0
  0
VISUALSTYLE
  5
30
102
{ACAD_REACTORS
330
2A
102
}
330
2A
100
AcDbVisualStyle
  2
3dWireframe
 70
     5
 71
     0
 72
     2
 73
     0
 90
        0
 40
-0.6
 41
-30.0
 62
     5
 63
     7
 74
     1
 91
        4
 64
     7
 65
   257
 75
     1
175
     1
 42
1.0
 92
        0
 66
   257
 43
1.0
 76
     1
 77
     6
 78
     2
 67
     7
 79
     5
170
     0
171
     0
290
     0
174
     0
 93
        1
 44
0.0
173
     0
291
     0
 45
0.0
1001
ACAD
1000
AcDbSavedByObjectVersion
1070
     0
  0
VISUALSTYLE
  5
32
102
{ACAD_REACTORS
330
2A
102
}
330
2A
100
AcDbVisualStyle
  2
Basic
 70
     7
 71
     1
 72
     0
 73
     1
 90
        0
 40
-0.6
 41
-30.0
 62
     5
 63
     7
 74
     0
 91
        4
 64
     7
 65
   257
 75
     1
175
     1
 42
1.0
 92
        8
 66
     7
 43
1.0
 76
     1
 77
     6
 78
     2
 67
     7
 79
     5
170
     0
171
     0
290
     0
174
     0
 93
        1
 44
0.0
173
     0
291
     1
 45
0.0
1001
ACAD
1000
AcDbSavedByObjectVersion
1070
     0
  0
VISUALSTYLE
  5
36
102
{ACAD_REACTORS
330
2A
102
}
330
2A
100
AcDbVisualStyle
  2
Brighten
 70
    12
 71
     2
 72
     2
 73
     0
 90
        0
 40
-0.6
 41
-30.0
 62
     5
 63
     7
 74
     1
 91
        4
 64
     7
 65
   257
 75
     1
175
     1
 42
1.0
 92
        8
 66
     7
 43
1.0
 76
     1
 77
     6
 78
     2
 67
     7
 79
     5
170
     0
171
     0
290
     0
174
     0
 93
        1
 44
50.0
173
     0
291
     1
 45
0.0
1001
ACAD
1000
AcDbSavedByObjectVersion
1070
     0
  0
VISUALSTYLE
  5
3A
102
{ACAD_REACTORS
330
2A
102
}
330
2A
100
AcDbVisualStyle
  2
ColorChange
 70
    16
 71
     2
 72
     2
 73
     3
 90
        0
 40
-0.6
 41
-30.0
 62
     5
 63
     8
 74
     1
 91
        4
 64
     7
 65
   257
 75
     1
175
     1
 42
1.0
 92
        8
 66
     8
 43
1.0
 76
     1
 77
     6
 78
     2
 67
     7
 79
     5
170
     0
171
     0
290
     0
174
     0
 93
        1
 44
0.0
173
     0
291
     1
 45
0.0
1001
ACAD
1000
AcDbSavedByObjectVersion
1070
     0
  0
VISUALSTYLE
  5
34
102
{ACAD_REACTORS
330
2A
102
}
330
2A
100
AcDbVisualStyle
  2
Conceptual
 70
     9
 71
     3
 72
     2
 73
     0
 90
        0
 40
-0.6
 41
-30.0
 62
     5
 63
     7
 74
     2
 91
        2
 64
     7
 65
   257
 75
     1
175
     1
 42
40.0
 92
        8
 66
     7
 43
1.0
 76
     1
 77
     6
 78
     2
 67
     7
 79
     3
170
     0
171
     0
290
     0
174
     0
 93
        1
 44
0.0
173
     0
291
     0
 45
0.0
1001
ACAD
1000
AcDbSavedByObjectVersion
1070
     0
  0
VISUALSTYLE
  5
35
102
{ACAD_REACTORS
330
2A
102
}
330
2A
100
AcDbVisualStyle
  2
Dim
 70
    11
 71
     2
 72
     2
 73
     0
 90
        0
 40
-0.6
 41
-30.0
 62
     5
 63
     7
 74
     1
 91
        4
 64
     7
 65
   257
 75
     1
175
     1
 42
1.0
 92
        8
 66
     7
 43
1.0
 76
     1
 77
     6
 78
     2
 67
     7
 79
     5
170
     0
171
     0
290
     0
174
     0
 93
        1
 44
-50.0
173
     0
291
     1
 45
0.0
1001
ACAD
1000
AcDbSavedByObjectVersion
1070
     0
  0
VISUALSTYLE
  5
39
102
{ACAD_REACTORS
330
2A
102
}
330
2A
100
AcDbVisualStyle
  2
Facepattern
 70
    15
 71
     2
 72
     2
 73
     0
 90
        0
 40
-0.6
 41
-30.0
 62
     5
 63
     7
 74
     1
 91
        4
 64
     7
 65
   257
 75
     1
175
     1
 42
1.0
 92
        8
 66
     7
 43
1.0
 76
     1
 77
     6
 78
     2
 67
     7
 79
     5
170
     0
171
     0
290
     0
174
     0
 93
        1
 44
0.0
173
     0
291
     1
 45
0.0
1001
ACAD
1000
AcDbSavedByObjectVersion
1070
     0
  0
VISUALSTYLE
  5
2B
102
{ACAD_REACTORS
330
2A
102
}
330
2A
100
AcDbVisualStyle
  2
Flat
 70
     0
 71
     2
 72
     1
 73
     1
 90
        2
 40
-0.6
 41
30.0
 62
     5
 63
     7
 74
     0
 91
        4
 64
     7
 65
   257
 75
     1
175
     1
 42
1.0
 92
        8
 66
     7
 43
1.0
 76
     1
 77
     6
 78
     2
 67
     7
 79
     5
170
     0
171
     0
290
     0
174
     0
 93
       13
 44
0.0
173
     0
291
     1
 45
0.0
1001
ACAD
1000
AcDbSavedByObjectVersion
1070
     0
  0
VISUALSTYLE
  5
2C
102
{ACAD_REACTORS
330
2A
102
}
330
2A
100
AcDbVisualStyle
  2
FlatWithEdges
 70
     1
 71
     2
 72
     1
 73
     1
 90
        2
 40
-0.6
 41
30.0
 62
     5
 63
     7
 74
     1
 91
        4
 64
     7
 65
   257
 75
     1
175
     1
 42
1.0
 92
        0
 66
   257
 43
1.0
 76
     1
 77
     6
 78
     2
 67
     7
 79
     5
170
     0
171
     0
290
     0
174
     0
 93
       13
 44
0.0
173
     0
291
     1
 45
0.0
1001
ACAD
1000
AcDbSavedByObjectVersion
1070
     0
  0
VISUALSTYLE
  5
2D
102
{ACAD_REACTORS
330
2A
102
}
330
2A
100
AcDbVisualStyle
  2
Gouraud
 70
     2
 71
     2
 72
     2
 73
     1
 90
        2
 40
-0.6
 41
30.0
 62
     5
 63
     7
 74
     0
 91
        4
 64
     7
 65
   257
 75
     1
175
     1
 42
1.0
 92
        0
 66
     7
 43
1.0
 76
     1
 77
     6
 78
     2
 67
     7
 79
     5
170
     0
171
     0
290
     0
174
     0
 93
       13
 44
0.0
173
     0
291
     1
 45
0.0
1001
ACAD
1000
AcDbSavedByObjectVersion
1070
     0
  0
VISUALSTYLE
  5
2E
102
{ACAD_REACTORS
330
2A
102
}
330
2A
100
AcDbVisualStyle
  2
GouraudWithEdges
 70
     3
 71
     2
 72
     2
 73
     1
 90
        2
 40
-0.6
 41
30.0
 62
     5
 63
     7
 74
     1
 91
        4
 64
     7
 65
   257
 75
     1
175
     1
 42
1.0
 92
        0
 66
   257
 43
1.0
 76
     1
 77
     6
 78
     2
 67
     7
 79
     5
170
     0
171
     0
290
     0
174
     0
 93
       13
 44
0.0
173
     0
291
     1
 45
0.0
1001
ACAD
1000
AcDbSavedByObjectVersion
1070
     0
  0
VISUALSTYLE
  5
38
102
{ACAD_REACTORS
330
2A
102
}
330
2A
100
AcDbVisualStyle
  2
Linepattern
 70
    14
 71
     2
 72
     2
 73
     0
 90
        0
 40
-0.6
 41
-30.0
 62
     5
 63
     7
 74
     1
 91
        4
 64
     7
 65
   257
 75
     7
175
     7
 42
1.0
 92
        8
 66
     7
 43
1.0
 76
     1
 77
     6
 78
     2
 67
     7
 79
     5
170
     0
171
     0
290
     0
174
     0
 93
        1
 44
0.0
173
     0
291
     1
 45
0.0
1001
ACAD
1000
AcDbSavedByObjectVersion
1070
     0
  0
VISUALSTYLE
  5
33
102
{ACAD_REACTORS
330
2A
102
}
330
2A
100
AcDbVisualStyle
  2
Realistic
 70
     8
 71
     2
 72
     2
 73
     0
 90
        0
 40
-0.6
 41
-30.0
 62
     5
 63
     7
 74
     1
 91
        0
 64
     7
 65
   257
 75
     1
175
     1
 42
1.0
 92
        8
 66
     8
 43
1.0
 76
     1
 77
     6
 78
     2
 67
     7
 79
     5
170
     0
171
     0
290
     0
174
     0
 93
       13
 44
0.0
173
     0
291
     0
 45
0.0
1001
ACAD
1000
AcDbSavedByObjectVersion
1070
     0
  0
VISUALSTYLE
  5
37
102
{ACAD_REACTORS
330
2A
102
}
330
2A
100
AcDbVisualStyle
  2
Thicken
 70
    13
 71
     2
 72
     2
 73
     0
 90
        0
 40
-0.6
 41
-30.0
 62
     5
 63
     7
 74
     1
 91
        4
 64
     7
 65
   257
 75
     1
175
     1
 42
1.0
 92
       12
 66
     7
 43
1.0
 76
     1
 77
     6
 78
     2
 67
     7
 79
     5
170
     0
171
     0
290
     0
174
     0
 93
        1
 44
0.0
173
     0
291
     1
 45
0.0
1001
ACAD
1000
AcDbSavedByObjectVersion
1070
     0
  0
ENDSEC
  0
EOF
