  0
SECTION
  2
HEADER
  9
$ACADVER
  1
AC1014
  9
$HANDSEED
  5
FFFF
  9
$MEASUREMENT
 70
     1
  0
ENDSEC
  0
SECTION
  2
TABLES
  0
TABLE
  2
VPORT
  5
8
330
0
100
AcDbSymbolTable
 70
     4
  0
VPORT
  5
2E
330
8
100
AcDbSymbolTableRecord
100
AcDbViewportTableRecord
  2
*ACTIVE
 70
     0
 10
0.0
 20
0.0
 11
1.0
 21
1.0
 12
210.0
 22
148.5
 13
0.0
 23
0.0
 14
10.0
 24
10.0
 15
10.0
 25
10.0
 16
0.0
 26
0.0
 36
1.0
 17
0.0
 27
0.0
 37
0.0
 40
341.0
 41
1.24
 42
50.0
 43
0.0
 44
0.0
 50
0.0
 51
0.0
 71
     0
 72
   100
 73
     1
 74
     3
 75
     0
 76
     0
 77
     0
 78
     0
  0
ENDTAB
  0
TABLE
  2
LTYPE
  5
5
330
0
100
AcDbSymbolTable
 70
     1
  0
LTYPE
  5
14
330
5
100
AcDbSymbolTableRecord
100
AcDbLinetypeTableRecord
  2
BYBLOCK
 70
     0
  3

 72
    65
 73
     0
 40
0.0
  0
LTYPE
  5
15
330
5
100
AcDbSymbolTableRecord
100
AcDbLinetypeTableRecord
  2
BYLAYER
 70
     0
  3

 72
    65
 73
     0
 40
0.0
  0
LTYPE
  5
16
330
5
100
AcDbSymbolTableRecord
100
AcDbLinetypeTableRecord
  2
CONTINUOUS
 70
     0
  3
Solid line
 72
    65
 73
     0
 40
0.0
  0
ENDTAB
  0
TABLE
  2
LAYER
  5
2
100
AcDbSymbolTable
 70
1
  0
LAYER
  5
50
100
AcDbSymbolTableRecord
100
AcDbLayerTableRecord
  2
0
 70
0
  6
CONTINUOUS
  0
ENDTAB
  0
TABLE
  2
STYLE
  5
3
330
0
100
AcDbSymbolTable
 70
     1
  0
STYLE
  5
11
330
3
100
AcDbSymbolTableRecord
100
AcDbTextStyleTableRecord
  2
STANDARD
 70
     0
 40
0.0
 41
1.0
 50
0.0
 71
     0
 42
2.5
  3
txt
  4

  0
ENDTAB
  0
TABLE
  2
VIEW
  5
6
330
0
100
AcDbSymbolTable
 70
     0
  0
ENDTAB
  0
TABLE
  2
UCS
  5
7
330
0
100
AcDbSymbolTable
 70
     0
  0
ENDTAB
  0
TABLE
  2
APPID
  5
9
330
0
100
AcDbSymbolTable
 70
     2
  0
APPID
  5
12
330
9
100
AcDbSymbolTableRecord
100
AcDbRegAppTableRecord
  2
ACAD
 70
     0
  0
ENDTAB
  0
TABLE
  2
DIMSTYLE
  5
A
330
0
100
AcDbSymbolTable
 70
     1
  0
DIMSTYLE
105
27
330
A
100
AcDbSymbolTableRecord
100
AcDbDimStyleTableRecord
  2
ISO-25
 70
     0
  3

  4

  5

  6

  7

 40
1.0
 41
2.5
 42
0.625
 43
3.75
 44
1.25
 45
0.0
 46
0.0
 47
0.0
 48
0.0
140
2.5
141
2.5
142
0.0
143
0.03937007874016
144
1.0
145
0.0
146
1.0
147
0.625
 71
     0
 72
     0
 73
     0
 74
     0
 75
     0
 76
     0
 77
     1
 78
     8
170
     0
171
     3
172
     1
173
     0
174
     0
175
     0
176
     0
177
     0
178
     0
270
     2
271
     2
272
     2
273
     2
274
     3
340
11
275
     0
280
     0
281
     0
282
     0
283
     0
284
     8
285
     0
286
     0
287
     3
288
     0
  0
ENDTAB
  0
TABLE
  2
BLOCK_RECORD
  5
1
330
0
100
AcDbSymbolTable
 70
     1
  0
BLOCK_RECORD
  5
1F
330
1
100
AcDbSymbolTableRecord
100
AcDbBlockTableRecord
  2
*MODEL_SPACE
  0
BLOCK_RECORD
  5
1B
330
1
100
AcDbSymbolTableRecord
100
AcDbBlockTableRecord
  2
*PAPER_SPACE
  0
ENDTAB
  0
ENDSEC
  0
SECTION
  2
BLOCKS
  0
BLOCK
  5
20
330
1F
100
AcDbEntity
  8
0
100
AcDbBlockBegin
  2
*MODEL_SPACE
 70
     0
 10
0.0
 20
0.0
 30
0.0
  3
*MODEL_SPACE
  1

  0
ENDBLK
  5
21
330
1F
100
AcDbEntity
  8
0
100
AcDbBlockEnd
  0
BLOCK
  5
1C
330
1B
100
AcDbEntity
 67
     1
  8
0
100
AcDbBlockBegin
  2
*PAPER_SPACE
  1

  0
ENDBLK
  5
1D
330
1B
100
AcDbEntity
 67
     1
  8
0
100
AcDbBlockEnd
  0
ENDSEC
  0
SECTION
  2
ENTITIES
  0
LINE
  5
100
100
AcDbEntity
  8
0
 62
7
100
AcDbLine
 10
24.333194
 20
285.701250
 30
0.0
 11
30.138206
 21
285.701250
 31
0.0
  0
LINE
  5
101
100
AcDbEntity
  8
0
 62
7
100
AcDbLine
 10
30.138206
 20
285.701250
 30
0.0
 11
35.943224
 21
285.701250
 31
0.0
  0
LINE
  5
102
100
AcDbEntity
  8
0
 62
7
100
AcDbLine
 10
35.943224
 20
285.701250
 30
0.0
 11
41.748236
 21
285.701250
 31
0.0
  0
LINE
  5
103
100
AcDbEntity
  8
0
 62
7
100
AcDbLine
 10
41.748236
 20
285.701250
 30
0.0
 11
47.553251
 21
285.701250
 31
0.0
  0
LINE
  5
104
100
AcDbEntity
  8
0
 62
7
100
AcDbLine
 10
47.553251
 20
285.701250
 30
0.0
 11
53.358265
 21
285.701250
 31
0.0
  0
LINE
  5
105
100
AcDbEntity
  8
0
 62
7
100
AcDbLine
 10
53.358265
 20
285.701250
 30
0.0
 11
59.163278
 21
285.701250
 31
0.0
  0
LINE
  5
106
100
AcDbEntity
  8
0
 62
7
100
AcDbLine
 10
59.163278
 20
285.701250
 30
0.0
 11
64.968293
 21
285.701250
 31
0.0
  0
LINE
  5
107
100
AcDbEntity
  8
0
 62
7
100
AcDbLine
 10
64.968293
 20
285.701250
 30
0.0
 11
70.773307
 21
285.701250
 31
0.0
  0
LINE
  5
108
100
AcDbEntity
  8
0
 62
7
100
AcDbLine
 10
70.773307
 20
285.701250
 30
0.0
 11
76.578321
 21
285.701250
 31
0.0
  0
LINE
  5
109
100
AcDbEntity
  8
0
 62
7
100
AcDbLine
 10
76.578321
 20
285.701250
 30
0.0
 11
82.383335
 21
285.701250
 31
0.0
  0
LINE
  5
10a
100
AcDbEntity
  8
0
 62
7
100
AcDbLine
 10
82.383335
 20
285.701250
 30
0.0
 11
88.188350
 21
285.701250
 31
0.0
  0
LINE
  5
10b
100
AcDbEntity
  8
0
 62
7
100
AcDbLine
 10
88.188350
 20
285.701250
 30
0.0
 11
93.993364
 21
285.701250
 31
0.0
  0
LINE
  5
10c
100
AcDbEntity
  8
0
 62
7
100
AcDbLine
 10
93.993364
 20
285.701250
 30
0.0
 11
99.798379
 21
285.701250
 31
0.0
  0
LINE
  5
10d
100
AcDbEntity
  8
0
 62
7
100
AcDbLine
 10
99.798379
 20
285.701250
 30
0.0
 11
105.603392
 21
285.701250
 31
0.0
  0
LINE
  5
10e
100
AcDbEntity
  8
0
 62
7
100
AcDbLine
 10
105.603392
 20
285.701250
 30
0.0
 11
111.408409
 21
285.701250
 31
0.0
  0
LINE
  5
10f
100
AcDbEntity
  8
0
 62
7
100
AcDbLine
 10
111.408409
 20
285.701250
 30
0.0
 11
117.213422
 21
285.701250
 31
0.0
  0
LINE
  5
110
100
AcDbEntity
  8
0
 62
7
100
AcDbLine
 10
120.923448
 20
281.991225
 30
0.0
 11
120.923448
 21
276.388233
 31
0.0
  0
LINE
  5
111
100
AcDbEntity
  8
0
 62
7
100
AcDbLine
 10
120.923448
 20
276.388233
 30
0.0
 11
120.923448
 21
270.785241
 31
0.0
  0
LINE
  5
112
100
AcDbEntity
  8
0
 62
7
100
AcDbLine
 10
120.923448
 20
270.785241
 30
0.0
 11
120.923448
 21
265.182250
 31
0.0
  0
LINE
  5
113
100
AcDbEntity
  8
0
 62
7
100
AcDbLine
 10
120.923448
 20
265.182250
 30
0.0
 11
120.923448
 21
259.579258
 31
0.0
  0
LINE
  5
114
100
AcDbEntity
  8
0
 62
7
100
AcDbLine
 10
120.923448
 20
259.579258
 30
0.0
 11
120.923448
 21
253.976275
 31
0.0
  0
LINE
  5
115
100
AcDbEntity
  8
0
 62
7
100
AcDbLine
 10
120.923448
 20
253.976275
 30
0.0
 11
120.923448
 21
248.373289
 31
0.0
  0
LINE
  5
116
100
AcDbEntity
  8
0
 62
7
100
AcDbLine
 10
120.923448
 20
248.373289
 30
0.0
 11
120.923448
 21
242.770275
 31
0.0
  0
LINE
  5
117
100
AcDbEntity
  8
0
 62
7
100
AcDbLine
 10
120.923448
 20
242.770275
 30
0.0
 11
120.923448
 21
237.167289
 31
0.0
  0
SPLINE
  5
118
100
AcDbEntity
  8
0
 62
7
100
AcDbSpline
 70
0
 71
3
 72
13
 73
9
 74
7
 40
0.000000
 40
0.000000
 40
0.000000
 40
0.000000
 40
0.967845
 40
1.936204
 40
2.904047
 40
3.871891
 40
4.840252
 40
5.808098
 40
5.808098
 40
5.808098
 40
5.808098
 10
117.213422
 20
285.701250
 30
0.0
 10
117.536881
 20
285.675564
 30
0.0
 10
118.183971
 20
285.624178
 30
0.0
 10
119.087404
 20
285.234723
 30
0.0
 10
119.869118
 20
284.646923
 30
0.0
 10
120.456920
 20
283.865209
 30
0.0
 10
120.846375
 20
282.961775
 30
0.0
 10
120.897762
 20
282.314684
 30
0.0
 10
120.923448
 20
281.991225
 30
0.0
 11
117.213422
 21
285.701250
 31
0.0
 11
118.172619
 21
285.572151
 31
0.0
 11
119.067266
 21
285.201576
 31
0.0
 11
119.836805
 21
284.614610
 31
0.0
 11
120.423772
 21
283.845070
 31
0.0
 11
120.794348
 21
282.950422
 31
0.0
 11
120.923448
 21
281.991225
 31
0.0
  0
LINE
  5
119
100
AcDbEntity
  8
0
 62
7
100
AcDbLine
 10
117.213422
 20
233.457252
 30
0.0
 11
110.851181
 21
233.457252
 31
0.0
  0
LINE
  5
11a
100
AcDbEntity
  8
0
 62
7
100
AcDbLine
 10
110.851181
 20
233.457252
 30
0.0
 11
104.488942
 21
233.457252
 31
0.0
  0
LINE
  5
11b
100
AcDbEntity
  8
0
 62
7
100
AcDbLine
 10
104.488942
 20
233.457252
 30
0.0
 11
98.126701
 21
233.457252
 31
0.0
  0
LINE
  5
11c
100
AcDbEntity
  8
0
 62
7
100
AcDbLine
 10
98.126701
 20
233.457252
 30
0.0
 11
91.764462
 21
233.457252
 31
0.0
  0
LINE
  5
11d
100
AcDbEntity
  8
0
 62
7
100
AcDbLine
 10
91.764462
 20
233.457252
 30
0.0
 11
85.402221
 21
233.457252
 31
0.0
  0
LINE
  5
11e
100
AcDbEntity
  8
0
 62
7
100
AcDbLine
 10
85.402221
 20
233.457252
 30
0.0
 11
79.039982
 21
233.457252
 31
0.0
  0
LINE
  5
11f
100
AcDbEntity
  8
0
 62
7
100
AcDbLine
 10
79.039982
 20
233.457252
 30
0.0
 11
72.677742
 21
233.457252
 31
0.0
  0
LINE
  5
120
100
AcDbEntity
  8
0
 62
7
100
AcDbLine
 10
72.677742
 20
233.457252
 30
0.0
 11
66.315502
 21
233.457252
 31
0.0
  0
LINE
  5
121
100
AcDbEntity
  8
0
 62
7
100
AcDbLine
 10
66.315502
 20
233.457252
 30
0.0
 11
59.953262
 21
233.457252
 31
0.0
  0
LINE
  5
122
100
AcDbEntity
  8
0
 62
7
100
AcDbLine
 10
59.953262
 20
233.457252
 30
0.0
 11
53.591023
 21
233.457252
 31
0.0
  0
LINE
  5
123
100
AcDbEntity
  8
0
 62
7
100
AcDbLine
 10
53.591023
 20
233.457252
 30
0.0
 11
47.228783
 21
233.457252
 31
0.0
  0
LINE
  5
124
100
AcDbEntity
  8
0
 62
7
100
AcDbLine
 10
47.228783
 20
233.457252
 30
0.0
 11
40.866543
 21
233.457252
 31
0.0
  0
LINE
  5
125
100
AcDbEntity
  8
0
 62
7
100
AcDbLine
 10
40.866543
 20
233.457252
 30
0.0
 11
34.504305
 21
233.457252
 31
0.0
  0
LINE
  5
126
100
AcDbEntity
  8
0
 62
7
100
AcDbLine
 10
34.504305
 20
233.457252
 30
0.0
 11
28.142063
 21
233.457252
 31
0.0
  0
LINE
  5
127
100
AcDbEntity
  8
0
 62
7
100
AcDbLine
 10
28.142063
 20
233.457252
 30
0.0
 11
21.779825
 21
233.457252
 31
0.0
  0
LINE
  5
128
100
AcDbEntity
  8
0
 62
7
100
AcDbLine
 10
21.779825
 20
233.457252
 30
0.0
 11
15.417583
 21
233.457252
 31
0.0
  0
SPLINE
  5
129
100
AcDbEntity
  8
0
 62
7
100
AcDbSpline
 70
0
 71
3
 72
13
 73
9
 74
7
 40
0.000000
 40
0.000000
 40
0.000000
 40
0.000000
 40
0.967849
 40
1.936208
 40
2.904058
 40
3.871908
 40
4.840268
 40
5.808115
 40
5.808115
 40
5.808115
 40
5.808115
 10
120.923448
 20
237.167289
 30
0.0
 10
120.897763
 20
236.843828
 30
0.0
 10
120.846381
 20
236.196736
 30
0.0
 10
120.456924
 20
235.293300
 30
0.0
 10
119.869127
 20
234.511579
 30
0.0
 10
119.087412
 20
233.923770
 30
0.0
 10
118.183973
 20
233.534321
 30
0.0
 10
117.536882
 20
233.482937
 30
0.0
 10
117.213422
 20
233.457252
 30
0.0
 11
120.923448
 21
237.167289
 31
0.0
 11
120.794352
 21
236.208087
 31
0.0
 11
120.423779
 21
235.313440
 31
0.0
 11
119.836813
 21
234.543892
 31
0.0
 11
119.067271
 21
233.956919
 31
0.0
 11
118.172620
 21
233.586348
 31
0.0
 11
117.213422
 21
233.457252
 31
0.0
  0
LINE
  5
12a
100
AcDbEntity
  8
0
 62
7
100
AcDbLine
 10
12.124831
 20
236.746862
 30
0.0
 11
12.124831
 21
246.038662
 31
0.0
  0
LINE
  5
12b
100
AcDbEntity
  8
0
 62
7
100
AcDbLine
 10
12.124831
 20
246.038662
 30
0.0
 11
12.124831
 21
255.330476
 31
0.0
  0
LINE
  5
12c
100
AcDbEntity
  8
0
 62
7
100
AcDbLine
 10
12.124831
 20
255.330476
 30
0.0
 11
12.124831
 21
264.622290
 31
0.0
  0
LINE
  5
12d
100
AcDbEntity
  8
0
 62
7
100
AcDbLine
 10
12.124831
 20
264.622290
 30
0.0
 11
12.124831
 21
273.914101
 31
0.0
  0
SPLINE
  5
12e
100
AcDbEntity
  8
0
 62
7
100
AcDbSpline
 70
0
 71
3
 72
13
 73
9
 74
7
 40
0.000000
 40
0.000000
 40
0.000000
 40
0.000000
 40
0.858734
 40
1.717808
 40
2.576378
 40
3.435068
 40
4.294214
 40
5.152913
 40
5.152913
 40
5.152913
 40
5.152913
 10
15.417583
 20
233.457252
 30
0.0
 10
15.130592
 20
233.479949
 30
0.0
 10
14.556495
 20
233.525352
 30
0.0
 10
13.754652
 20
233.869960
 30
0.0
 10
13.060718
 20
234.390935
 30
0.0
 10
12.539001
 20
235.084297
 30
0.0
 10
12.193253
 20
235.885763
 30
0.0
 10
12.147635
 20
236.459879
 30
0.0
 10
12.124831
 20
236.746862
 30
0.0
 11
15.417583
 21
233.457252
 31
0.0
 11
14.566472
 21
233.571416
 31
0.0
 11
13.772489
 21
233.899442
 31
0.0
 11
13.089447
 21
234.419630
 31
0.0
 11
12.568413
 21
235.102178
 31
0.0
 11
12.239442
 21
235.895846
 31
0.0
 11
12.124831
 21
236.746862
 31
0.0
  0
LINE
  5
12f
100
AcDbEntity
  8
0
 62
7
100
AcDbLine
 10
13.504220
 20
277.117783
 30
0.0
 11
21.302551
 21
284.494903
 31
0.0
  0
SPLINE
  5
130
100
AcDbEntity
  8
0
 62
7
100
AcDbSpline
 70
0
 71
3
 72
10
 73
6
 74
4
 40
0.000000
 40
0.000000
 40
0.000000
 40
0.000000
 40
1.190738
 40
2.382203
 40
3.572941
 40
3.572941
 40
3.572941
 40
3.572941
 10
12.124831
 20
273.914101
 30
0.0
 10
12.158560
 20
274.311174
 30
0.0
 10
12.226038
 20
275.105562
 30
0.0
 10
12.708230
 20
276.225470
 30
0.0
 10
13.238944
 20
276.820406
 30
0.0
 10
13.504220
 20
277.117783
 30
0.0
 11
12.124831
 21
273.914101
 31
0.0
 11
12.289483
 21
275.093400
 31
0.0
 11
12.760665
 21
276.187739
 31
0.0
 11
13.504220
 21
277.117783
 31
0.0
  0
LINE
  5
131
100
AcDbEntity
  8
0
 62
7
100
AcDbLine
 10
24.333194
 20
285.701250
 30
0.0
 11
24.333194
 21
285.701250
 31
0.0
  0
SPLINE
  5
132
100
AcDbEntity
  8
0
 62
7
100
AcDbSpline
 70
0
 71
3
 72
10
 73
6
 74
4
 40
0.000000
 40
0.000000
 40
0.000000
 40
0.000000
 40
1.110131
 40
2.220776
 40
3.330908
 40
3.330908
 40
3.330908
 40
3.330908
 10
21.302551
 20
284.494903
 30
0.0
 10
21.591494
 20
284.728132
 30
0.0
 10
22.169514
 20
285.194699
 30
0.0
 10
23.222474
 20
285.613830
 30
0.0
 10
23.963011
 20
285.672115
 30
0.0
 10
24.333194
 20
285.701250
 30
0.0
 11
21.302551
 21
284.494903
 31
0.0
 11
22.200368
 21
285.147831
 31
0.0
 11
23.232268
 21
285.558579
 31
0.0
 11
24.333194
 21
285.701250
 31
0.0
  0
ENDSEC
  0
SECTION
  2
OBJECTS
  0
DICTIONARY
  5
C
330
0
100
AcDbDictionary
  3
ACAD_GROUP
350
D
  3
ACAD_MLINESTYLE
350
17
  0
DICTIONARY
  5
D
330
C
100
AcDbDictionary
  0
DICTIONARY
  5
1A
330
C
100
AcDbDictionary
  0
DICTIONARY
  5
17
330
C
100
AcDbDictionary
  3
STANDARD
350
18
  0
DICTIONARY
  5
19
330
C
100
AcDbDictionary
  0
ENDSEC
  0
EOF
