  0
SECTION
  2
HEADER
  9
$ACADVER
  1
AC1015
  9
$ACADMAINTVER
 70
     6
  9
$DWGCODEPAGE
  3
ANSI_1252
  9
$INSBASE
 10
0.0
 20
0.0
 30
0.0
  9
$EXTMIN
 10
0.0
 20
0.0
 30
0.0
  9
$EXTMAX
 10
600.0
 20
300.0
 30
0.0
  9
$LIMMIN
 10
0.0
 20
0.0
  9
$LIMMAX
 10
600.0
 20
300.0
  9
$ORTHOMODE
 70
     0
  9
$REGENMODE
 70
     1
  9
$FILLMODE
 70
     1
  9
$QTEXTMODE
 70
     0
  9
$MIRRTEXT
 70
     1
  9
$LTSCALE
 40
1.0
  9
$ATTMODE
 70
     1
  9
$TEXTSIZE
 40
3.5
  9
$TRACEWID
 40
1.0
  9
$TEXTSTYLE
  7
Standard
  9
$CLAYER
  8
0
  9
$CELTYPE
  6
ByLayer
  9
$CECOLOR
 62
   256
  9
$CELTSCALE
 40
1.0
  9
$DISPSILH
 70
     0
  9
$DIMSCALE
 40
1.0
  9
$DIMASZ
 40
3.302
  9
$DIMEXO
 40
1.0
  9
$DIMDLI
 40
3.75
  9
$DIMRND
 40
0.0
  9
$DIMDLE
 40
0.0
  9
$DIMEXE
 40
1.0
  9
$DIMTP
 40
0.0
  9
$DIMTM
 40
0.0
  9
$DIMTXT
 40
3.5
  9
$DIMCEN
 40
2.5
  9
$DIMTSZ
 40
0.0
  9
$DIMTOL
 70
     0
  9
$DIMLIM
 70
     0
  9
$DIMTIH
 70
     1
  9
$DIMTOH
 70
     1
  9
$DIMSE1
 70
     0
  9
$DIMSE2
 70
     0
  9
$DIMTAD
 70
     1
  9
$DIMZIN
 70
     0
  9
$DIMBLK
  1

  9
$DIMASO
 70
     1
  9
$DIMSHO
 70
     1
  9
$DIMPOST
  1

  9
$DIMAPOST
  1

  9
$DIMALT
 70
     0
  9
$DIMALTD
 70
     3
  9
$DIMALTF
 40
0.0393700787
  9
$DIMLFAC
 40
1.0
  9
$DIMTOFL
 70
     1
  9
$DIMTVP
 40
0.0
  9
$DIMTIX
 70
     0
  9
$DIMSOXD
 70
     0
  9
$DIMSAH
 70
     0
  9
$DIMBLK1
  1

  9
$DIMBLK2
  1

  9
$DIMSTYLE
  2
ISO-25
  9
$DIMCLRD
 70
     0
  9
$DIMCLRE
 70
     0
  9
$DIMCLRT
 70
     0
  9
$DIMTFAC
 40
1.0
  9
$DIMGAP
 40
1.524
  9
$DIMJUST
 70
     0
  9
$DIMSD1
 70
     0
  9
$DIMSD2
 70
     0
  9
$DIMTOLJ
 70
     0
  9
$DIMTZIN
 70
     0
  9
$DIMALTZ
 70
     0
  9
$DIMALTTZ
 70
     0
  9
$DIMUPT
 70
     0
  9
$DIMDEC
 70
     2
  9
$DIMTDEC
 70
     2
  9
$DIMALTU
 70
     2
  9
$DIMALTTD
 70
     3
  9
$DIMTXSTY
  7
Standard
  9
$DIMAUNIT
 70
     0
  9
$DIMADEC
 70
     2
  9
$DIMALTRND
 40
0.0
  9
$DIMAZIN
 70
     0
  9
$DIMDSEP
 70
    44
  9
$DIMATFIT
 70
     3
  9
$DIMFRAC
 70
     0
  9
$DIMLDRBLK
  1

  9
$DIMLUNIT
 70
     2
  9
$DIMLWD
 70
    -2
  9
$DIMLWE
 70
    -2
  9
$DIMTMOVE
 70
     0
  9
$LUNITS
 70
     2
  9
$LUPREC
 70
     2
  9
$SKETCHINC
 40
1.0
  9
$FILLETRAD
 40
10.0
  9
$AUNITS
 70
     0
  9
$AUPREC
 70
     2
  9
$MENU
  1
.
  9
$ELEVATION
 40
0.0
  9
$PELEVATION
 40
0.0
  9
$THICKNESS
 40
0.0
  9
$LIMCHECK
 70
     0
  9
$CHAMFERA
 40
0.0
  9
$CHAMFERB
 40
0.0
  9
$CHAMFERC
 40
0.0
  9
$CHAMFERD
 40
0.0
  9
$SKPOLY
 70
     0
  9
$TDCREATE
 40
2458451.629916586
  9
$TDUCREATE
 40
2458451.629916586
  9
$TDUPDATE
 40
2458451.629916864
  9
$TDUUPDATE
 40
2458451.629916864
  9
$TDINDWG
 40
0.0000000116
  9
$TDUSRTIMER
 40
0.0000000116
  9
$USRTIMER
 70
     1
  9
$ANGBASE
 50
0.0
  9
$ANGDIR
 70
     0
  9
$PDMODE
 70
     0
  9
$PDSIZE
 40
-1.0
  9
$PLINEWID
 40
0.0
  9
$SPLFRAME
 70
     0
  9
$SPLINETYPE
 70
     6
  9
$SPLINESEGS
 70
     8
  9
$HANDSEED
  5
221
  9
$SURFTAB1
 70
     6
  9
$SURFTAB2
 70
     6
  9
$SURFTYPE
 70
     6
  9
$SURFU
 70
     6
  9
$SURFV
 70
     6
  9
$UCSBASE
  2

  9
$UCSNAME
  2

  9
$UCSORG
 10
0.0
 20
0.0
 30
0.0
  9
$UCSXDIR
 10
1.0
 20
0.0
 30
0.0
  9
$UCSYDIR
 10
0.0
 20
1.0
 30
0.0
  9
$UCSORTHOREF
  2

  9
$UCSORTHOVIEW
 70
     0
  9
$UCSORGTOP
 10
0.0
 20
0.0
 30
0.0
  9
$UCSORGBOTTOM
 10
0.0
 20
0.0
 30
0.0
  9
$UCSORGLEFT
 10
0.0
 20
0.0
 30
0.0
  9
$UCSORGRIGHT
 10
0.0
 20
0.0
 30
0.0
  9
$UCSORGFRONT
 10
0.0
 20
0.0
 30
0.0
  9
$UCSORGBACK
 10
0.0
 20
0.0
 30
0.0
  9
$PUCSBASE
  2

  9
$PUCSNAME
  2

  9
$PUCSORG
 10
0.0
 20
0.0
 30
0.0
  9
$PUCSXDIR
 10
1.0
 20
0.0
 30
0.0
  9
$PUCSYDIR
 10
0.0
 20
1.0
 30
0.0
  9
$PUCSORTHOREF
  2

  9
$PUCSORTHOVIEW
 70
     0
  9
$PUCSORGTOP
 10
0.0
 20
0.0
 30
0.0
  9
$PUCSORGBOTTOM
 10
0.0
 20
0.0
 30
0.0
  9
$PUCSORGLEFT
 10
0.0
 20
0.0
 30
0.0
  9
$PUCSORGRIGHT
 10
0.0
 20
0.0
 30
0.0
  9
$PUCSORGFRONT
 10
0.0
 20
0.0
 30
0.0
  9
$PUCSORGBACK
 10
0.0
 20
0.0
 30
0.0
  9
$USERI1
 70
     0
  9
$USERI2
 70
     0
  9
$USERI3
 70
     0
  9
$USERI4
 70
     0
  9
$USERI5
 70
     0
  9
$USERR1
 40
0.0
  9
$USERR2
 40
0.0
  9
$USERR3
 40
0.0
  9
$USERR4
 40
0.0
  9
$USERR5
 40
0.0
  9
$WORLDVIEW
 70
     1
  9
$SHADEDGE
 70
     3
  9
$SHADEDIF
 70
    70
  9
$TILEMODE
 70
     1
  9
$MAXACTVP
 70
    64
  9
$PINSBASE
 10
0.0
 20
0.0
 30
0.0
  9
$PLIMCHECK
 70
     0
  9
$PEXTMIN
 10
1.0000000000E+20
 20
1.0000000000E+20
 30
1.0000000000E+20
  9
$PEXTMAX
 10
-1.0000000000E+20
 20
-1.0000000000E+20
 30
-1.0000000000E+20
  9
$PLIMMIN
 10
0.0
 20
0.0
  9
$PLIMMAX
 10
420.0
 20
297.0
  9
$UNITMODE
 70
     0
  9
$VISRETAIN
 70
     1
  9
$PLINEGEN
 70
     0
  9
$PSLTSCALE
 70
     1
  9
$TREEDEPTH
 70
  3020
  9
$CMLSTYLE
  2
Standard
  9
$CMLJUST
 70
     0
  9
$CMLSCALE
 40
20.0
  9
$PROXYGRAPHICS
 70
     1
  9
$MEASUREMENT
 70
     1
  9
$CELWEIGHT
370
    -1
  9
$ENDCAPS
280
     0
  9
$JOINSTYLE
280
     0
  9
$LWDISPLAY
290
     1
  9
$INSUNITS
 70
     4
  9
$HYPERLINKBASE
  1

  9
$STYLESHEET
  1

  9
$XEDIT
290
     1
  9
$CEPSNTYPE
380
     0
  9
$PSTYLEMODE
290
     1
  9
$FINGERPRINTGUID
  2
{276FEBAE-0A3B-495A-A7DA-D15B32EB6FE1}
  9
$VERSIONGUID
  2
{FAEB1C32-E019-11D5-929B-00C0DF256EC4}
  9
$EXTNAMES
290
     1
  9
$PSVPSCALE
 40
0.0
  9
$OLESTARTUP
290
     0
  0
ENDSEC
  0
SECTION
  2
CLASSES
  0
CLASS
  1
ACDBDICTIONARYWDFLT
  2
AcDbDictionaryWithDefault
  3
ObjectDBX Classes
 90
        0
280
     0
281
     0
  0
CLASS
  1
VISUALSTYLE
  2
AcDbVisualStyle
  3
ObjectDBX Classes
 90
     4095
280
     0
281
     0
  0
CLASS
  1
MATERIAL
  2
AcDbMaterial
  3
ObjectDBX Classes
 90
     1153
280
     0
281
     0
  0
CLASS
  1
SCALE
  2
AcDbScale
  3
ObjectDBX Classes
 90
     1153
280
     0
281
     0
  0
CLASS
  1
TABLESTYLE
  2
AcDbTableStyle
  3
ObjectDBX Classes
 90
     4095
280
     0
281
     0
  0
CLASS
  1
MLEADERSTYLE
  2
AcDbMLeaderStyle
  3
ACDB_MLEADERSTYLE_CLASS
 90
     4095
280
     0
281
     0
  0
CLASS
  1
SUN
  2
AcDbSun
  3
SCENEOE
 90
     1153
280
     0
281
     0
  0
CLASS
  1
ACDBPLACEHOLDER
  2
AcDbPlaceHolder
  3
ObjectDBX Classes
 90
        0
280
     0
281
     0
  0
CLASS
  1
LAYOUT
  2
AcDbLayout
  3
ObjectDBX Classes
 90
        0
280
     0
281
     0
  0
ENDSEC
  0
SECTION
  2
TABLES
  0
TABLE
  2
VPORT
  5
8
330
0
100
AcDbSymbolTable
 70
     1
  0
VPORT
  5
29
330
8
100
AcDbSymbolTableRecord
100
AcDbViewportTableRecord
  2
*Active
 70
     0
 10
0.0
 20
0.0
 11
1.0
 21
1.0
 12
300.0
 22
150.0
 13
0.0
 23
0.0
 14
10.0
 24
10.0
 15
10.0
 25
10.0
 16
0.0
 26
0.0
 36
1.0
 17
0.0
 27
0.0
 37
0.0
 40
300.0
 41
2.0
 42
50.0
 43
0.0
 44
0.0
 50
0.0
 51
0.0
 71
     0
 72
  2000
 73
     1
 74
     3
 75
     0
 76
     0
 77
     0
 78
     0
281
     0
 65
     1
110
0.0
120
0.0
130
0.0
111
1.0
121
0.0
131
0.0
112
0.0
122
1.0
132
0.0
 79
     0
146
0.0
  0
ENDTAB
  0
TABLE
  2
LTYPE
  5
5
330
0
100
AcDbSymbolTable
 70
     6
  0
LTYPE
  5
14
330
5
100
AcDbSymbolTableRecord
100
AcDbLinetypeTableRecord
  2
ByBlock
 70
     0
  3

 72
    65
 73
     0
 40
0.0
  0
LTYPE
  5
15
330
5
100
AcDbSymbolTableRecord
100
AcDbLinetypeTableRecord
  2
ByLayer
 70
     0
  3

 72
    65
 73
     0
 40
0.0
  0
LTYPE
  5
16
330
5
100
AcDbSymbolTableRecord
100
AcDbLinetypeTableRecord
  2
Continuous
 70
     0
  3
Solid line
 72
    65
 73
     0
 40
0.0
  0
LTYPE
  5
6E
330
5
100
AcDbSymbolTableRecord
100
AcDbLinetypeTableRecord
  2
HIDDEN
 70
     0
  3
Hidden __ __ __ __ __ __ __ __ __ __ __ __ __ __
 72
    65
 73
     2
 40
1.905
 49
1.27
 74
     0
 49
-0.635
 74
     0
  0
LTYPE
  5
6F
330
5
100
AcDbSymbolTableRecord
100
AcDbLinetypeTableRecord
  2
PHANTOM
 70
     0
  3
Phantom ______  __  __  ______  __  __  ______
 72
    65
 73
     6
 40
12.7
 49
6.35
 74
     0
 49
-1.27
 74
     0
 49
1.27
 74
     0
 49
-1.27
 74
     0
 49
1.27
 74
     0
 49
-1.27
 74
     0
  0
LTYPE
  5
70
330
5
100
AcDbSymbolTableRecord
100
AcDbLinetypeTableRecord
  2
CENTER
 70
     0
  3
Center ____ _ ____ _ ____ _ ____ _ ____ _ ____
 72
    65
 73
     4
 40
10.16
 49
6.35
 74
     0
 49
-1.27
 74
     0
 49
1.27
 74
     0
 49
-1.27
 74
     0
  0
LTYPE
  5
71
330
5
100
AcDbSymbolTableRecord
100
AcDbLinetypeTableRecord
  2
CENTERX2
 70
     0
  3
Center (2x) ________  __  ________  __  _____
 72
    65
 73
     4
 40
20.32
 49
12.7
 74
     0
 49
-2.54
 74
     0
 49
2.54
 74
     0
 49
-2.54
 74
     0
  0
LTYPE
  5
72
330
5
100
AcDbSymbolTableRecord
100
AcDbLinetypeTableRecord
  2
DOT2
 70
     0
  3
Dot (.5x) ........................................
 72
    65
 73
     2
 40
0.635
 49
0.0
 74
     0
 49
-0.635
 74
     0
  0
ENDTAB
  0
TABLE
  2
LAYER
  5
2
330
0
100
AcDbSymbolTable
 70
     1
  0
LAYER
  5
10
330
2
100
AcDbSymbolTableRecord
100
AcDbLayerTableRecord
  2
0
 70
     0
 62
     7
  6
Continuous
370
    -3
390
F
  0
ENDTAB
  0
TABLE
  2
STYLE
  5
3
330
0
100
AcDbSymbolTable
 70
     1
  0
STYLE
  5
11
330
3
100
AcDbSymbolTableRecord
100
AcDbTextStyleTableRecord
  2
Standard
 70
     0
 40
0.0
 41
1.0
 50
0.0
 71
     0
 42
3.5
  3
txt
  4

  0
ENDTAB
  0
TABLE
  2
VIEW
  5
6
330
0
100
AcDbSymbolTable
 70
     0
  0
ENDTAB
  0
TABLE
  2
UCS
  5
7
330
0
100
AcDbSymbolTable
 70
     0
  0
ENDTAB
  0
TABLE
  2
APPID
  5
9
330
0
100
AcDbSymbolTable
 70
     1
  0
APPID
  5
12
330
9
100
AcDbSymbolTableRecord
100
AcDbRegAppTableRecord
  2
ACAD
 70
     0
  0
ENDTAB
  0
TABLE
  2
DIMSTYLE
  5
A
330
0
100
AcDbSymbolTable
 70
     1
100
AcDbDimStyleTable
  0
DIMSTYLE
105
27
330
A
100
AcDbSymbolTableRecord
100
AcDbDimStyleTableRecord
  2
ISO-25
 70
     0
 41
2.5
 42
0.625
 43
3.75
 44
1.25
 73
     0
 74
     0
 77
     1
 78
     8
140
2.5
141
2.5
143
0.0393700787
147
0.625
171
     3
172
     1
178
     0
271
     2
272
     2
274
     3
278
    44
283
     0
284
     8
340
11
  0
ENDTAB
  0
TABLE
  2
BLOCK_RECORD
  5
1
330
0
100
AcDbSymbolTable
 70
     7
  0
BLOCK_RECORD
  5
1F
330
1
100
AcDbSymbolTableRecord
100
AcDbBlockTableRecord
  2
*Model_Space
340
22
  0
BLOCK_RECORD
  5
1B
330
1
100
AcDbSymbolTableRecord
100
AcDbBlockTableRecord
  2
*Paper_Space
340
1E
  0
BLOCK_RECORD
  5
23
330
1
100
AcDbSymbolTableRecord
100
AcDbBlockTableRecord
  2
*Paper_Space0
340
26
  0
BLOCK_RECORD
  5
7E
330
1
100
AcDbSymbolTableRecord
100
AcDbBlockTableRecord
  2
SW_CENTERMARKSYMBOL_0
340
0
102
{BLKREFS
331
89
102
}
  0
BLOCK_RECORD
  5
F3
330
1
100
AcDbSymbolTableRecord
100
AcDbBlockTableRecord
  2
SW_CENTERMARKSYMBOL_1
340
0
102
{BLKREFS
331
FE
102
}
  0
BLOCK_RECORD
  5
1F1
330
1
100
AcDbSymbolTableRecord
100
AcDbBlockTableRecord
  2
SW_CENTERMARKSYMBOL_2
340
0
102
{BLKREFS
331
1FC
102
}
  0
BLOCK_RECORD
  5
1FD
330
1
100
AcDbSymbolTableRecord
100
AcDbBlockTableRecord
  2
SW_CENTERMARKSYMBOL_3
340
0
102
{BLKREFS
331
208
102
}
  0
BLOCK_RECORD
  5
209
330
1
100
AcDbSymbolTableRecord
100
AcDbBlockTableRecord
  2
SW_CENTERMARKSYMBOL_4
340
0
102
{BLKREFS
331
214
102
}
  0
BLOCK_RECORD
  5
215
330
1
100
AcDbSymbolTableRecord
100
AcDbBlockTableRecord
  2
SW_CENTERMARKSYMBOL_5
340
0
102
{BLKREFS
331
220
102
}
  0
ENDTAB
  0
ENDSEC
  0
SECTION
  2
BLOCKS
  0
BLOCK
  5
20
330
1F
100
AcDbEntity
  8
0
100
AcDbBlockBegin
  2
*Model_Space
 70
     0
 10
0.0
 20
0.0
 30
0.0
  3
*Model_Space
  1

  0
ENDBLK
  5
21
330
1F
100
AcDbEntity
  8
0
100
AcDbBlockEnd
  0
BLOCK
  5
1C
330
1B
100
AcDbEntity
 67
     1
  8
0
100
AcDbBlockBegin
  2
*Paper_Space
 70
     0
 10
0.0
 20
0.0
 30
0.0
  3
*Paper_Space
  1

  0
ENDBLK
  5
1D
330
1B
100
AcDbEntity
 67
     1
  8
0
100
AcDbBlockEnd
  0
BLOCK
  5
24
330
23
100
AcDbEntity
  8
0
100
AcDbBlockBegin
  2
*Paper_Space0
 70
     0
 10
0.0
 20
0.0
 30
0.0
  3
*Paper_Space0
  1

  0
ENDBLK
  5
25
330
23
100
AcDbEntity
  8
0
100
AcDbBlockEnd
  0
BLOCK
  5
7F
330
7E
100
AcDbEntity
  8
0
100
AcDbBlockBegin
  2
SW_CENTERMARKSYMBOL_0
 70
     0
 10
0.0
 20
0.0
 30
0.0
  3
SW_CENTERMARKSYMBOL_0
  1

  0
LINE
  5
81
330
7E
100
AcDbEntity
  8
0
  6
Continuous
 62
     0
370
    18
100
AcDbLine
 10
0.0
 20
0.0
 30
0.0
 11
0.0
 21
2.5
 31
0.0
  0
LINE
  5
82
330
7E
100
AcDbEntity
  8
0
  6
Continuous
 62
     0
370
    18
100
AcDbLine
 10
0.0
 20
0.0
 30
0.0
 11
-2.5
 21
0.0
 31
0.0
  0
LINE
  5
83
330
7E
100
AcDbEntity
  8
0
  6
Continuous
 62
     0
370
    18
100
AcDbLine
 10
0.0
 20
0.0
 30
0.0
 11
0.0
 21
-2.5
 31
0.0
  0
LINE
  5
84
330
7E
100
AcDbEntity
  8
0
  6
Continuous
 62
     0
370
    18
100
AcDbLine
 10
0.0
 20
0.0
 30
0.0
 11
2.5
 21
0.0
 31
0.0
  0
LINE
  5
85
330
7E
100
AcDbEntity
  8
0
  6
Continuous
 62
     0
370
    18
100
AcDbLine
 10
0.0
 20
5.0
 30
0.0
 11
0.0
 21
7.5
 31
0.0
  0
LINE
  5
86
330
7E
100
AcDbEntity
  8
0
  6
Continuous
 62
     0
370
    18
100
AcDbLine
 10
-5.0
 20
0.0
 30
0.0
 11
-7.5
 21
0.0
 31
0.0
  0
LINE
  5
87
330
7E
100
AcDbEntity
  8
0
  6
Continuous
 62
     0
370
    18
100
AcDbLine
 10
0.0
 20
-5.0
 30
0.0
 11
0.0
 21
-7.5
 31
0.0
  0
LINE
  5
88
330
7E
100
AcDbEntity
  8
0
  6
Continuous
 62
     0
370
    18
100
AcDbLine
 10
5.0
 20
0.0
 30
0.0
 11
7.5
 21
0.0
 31
0.0
  0
ENDBLK
  5
80
330
7E
100
AcDbEntity
  8
0
100
AcDbBlockEnd
  0
BLOCK
  5
F4
330
F3
100
AcDbEntity
  8
0
100
AcDbBlockBegin
  2
SW_CENTERMARKSYMBOL_1
 70
     0
 10
0.0
 20
0.0
 30
0.0
  3
SW_CENTERMARKSYMBOL_1
  1

  0
LINE
  5
F6
330
F3
100
AcDbEntity
  8
0
  6
Continuous
 62
     0
370
    18
100
AcDbLine
 10
0.0
 20
0.0
 30
0.0
 11
0.0
 21
2.5
 31
0.0
  0
LINE
  5
F7
330
F3
100
AcDbEntity
  8
0
  6
Continuous
 62
     0
370
    18
100
AcDbLine
 10
0.0
 20
0.0
 30
0.0
 11
-2.5
 21
0.0
 31
0.0
  0
LINE
  5
F8
330
F3
100
AcDbEntity
  8
0
  6
Continuous
 62
     0
370
    18
100
AcDbLine
 10
0.0
 20
0.0
 30
0.0
 11
0.0
 21
-2.5
 31
0.0
  0
LINE
  5
F9
330
F3
100
AcDbEntity
  8
0
  6
Continuous
 62
     0
370
    18
100
AcDbLine
 10
0.0
 20
0.0
 30
0.0
 11
2.5
 21
0.0
 31
0.0
  0
LINE
  5
FA
330
F3
100
AcDbEntity
  8
0
  6
Continuous
 62
     0
370
    18
100
AcDbLine
 10
0.0
 20
5.0
 30
0.0
 11
0.0
 21
7.5
 31
0.0
  0
LINE
  5
FB
330
F3
100
AcDbEntity
  8
0
  6
Continuous
 62
     0
370
    18
100
AcDbLine
 10
-5.0
 20
0.0
 30
0.0
 11
-7.5
 21
0.0
 31
0.0
  0
LINE
  5
FC
330
F3
100
AcDbEntity
  8
0
  6
Continuous
 62
     0
370
    18
100
AcDbLine
 10
0.0
 20
-5.0
 30
0.0
 11
0.0
 21
-7.5
 31
0.0
  0
LINE
  5
FD
330
F3
100
AcDbEntity
  8
0
  6
Continuous
 62
     0
370
    18
100
AcDbLine
 10
5.0
 20
0.0
 30
0.0
 11
7.5
 21
0.0
 31
0.0
  0
ENDBLK
  5
F5
330
F3
100
AcDbEntity
  8
0
100
AcDbBlockEnd
  0
BLOCK
  5
1F2
330
1F1
100
AcDbEntity
  8
0
100
AcDbBlockBegin
  2
SW_CENTERMARKSYMBOL_2
 70
     0
 10
0.0
 20
0.0
 30
0.0
  3
SW_CENTERMARKSYMBOL_2
  1

  0
LINE
  5
1F4
330
1F1
100
AcDbEntity
  8
0
  6
Continuous
 62
     0
370
    18
100
AcDbLine
 10
0.0
 20
0.0
 30
0.0
 11
0.0
 21
2.5
 31
0.0
  0
LINE
  5
1F5
330
1F1
100
AcDbEntity
  8
0
  6
Continuous
 62
     0
370
    18
100
AcDbLine
 10
0.0
 20
0.0
 30
0.0
 11
-2.5
 21
0.0
 31
0.0
  0
LINE
  5
1F6
330
1F1
100
AcDbEntity
  8
0
  6
Continuous
 62
     0
370
    18
100
AcDbLine
 10
0.0
 20
0.0
 30
0.0
 11
0.0
 21
-2.5
 31
0.0
  0
LINE
  5
1F7
330
1F1
100
AcDbEntity
  8
0
  6
Continuous
 62
     0
370
    18
100
AcDbLine
 10
0.0
 20
0.0
 30
0.0
 11
2.5
 21
0.0
 31
0.0
  0
LINE
  5
1F8
330
1F1
100
AcDbEntity
  8
0
  6
Continuous
 62
     0
370
    18
100
AcDbLine
 10
0.0
 20
2.5
 30
0.0
 11
0.0
 21
4.5
 31
0.0
  0
LINE
  5
1F9
330
1F1
100
AcDbEntity
  8
0
  6
Continuous
 62
     0
370
    18
100
AcDbLine
 10
-2.5
 20
0.0
 30
0.0
 11
-4.5
 21
0.0
 31
0.0
  0
LINE
  5
1FA
330
1F1
100
AcDbEntity
  8
0
  6
Continuous
 62
     0
370
    18
100
AcDbLine
 10
0.0
 20
-2.5
 30
0.0
 11
0.0
 21
-4.5
 31
0.0
  0
LINE
  5
1FB
330
1F1
100
AcDbEntity
  8
0
  6
Continuous
 62
     0
370
    18
100
AcDbLine
 10
2.5
 20
0.0
 30
0.0
 11
4.5
 21
0.0
 31
0.0
  0
ENDBLK
  5
1F3
330
1F1
100
AcDbEntity
  8
0
100
AcDbBlockEnd
  0
BLOCK
  5
1FE
330
1FD
100
AcDbEntity
  8
0
100
AcDbBlockBegin
  2
SW_CENTERMARKSYMBOL_3
 70
     0
 10
0.0
 20
0.0
 30
0.0
  3
SW_CENTERMARKSYMBOL_3
  1

  0
LINE
  5
200
330
1FD
100
AcDbEntity
  8
0
  6
Continuous
 62
     0
370
    18
100
AcDbLine
 10
0.0
 20
0.0
 30
0.0
 11
0.0
 21
2.5
 31
0.0
  0
LINE
  5
201
330
1FD
100
AcDbEntity
  8
0
  6
Continuous
 62
     0
370
    18
100
AcDbLine
 10
0.0
 20
0.0
 30
0.0
 11
-2.5
 21
0.0
 31
0.0
  0
LINE
  5
202
330
1FD
100
AcDbEntity
  8
0
  6
Continuous
 62
     0
370
    18
100
AcDbLine
 10
0.0
 20
0.0
 30
0.0
 11
0.0
 21
-2.5
 31
0.0
  0
LINE
  5
203
330
1FD
100
AcDbEntity
  8
0
  6
Continuous
 62
     0
370
    18
100
AcDbLine
 10
0.0
 20
0.0
 30
0.0
 11
2.5
 21
0.0
 31
0.0
  0
LINE
  5
204
330
1FD
100
AcDbEntity
  8
0
  6
Continuous
 62
     0
370
    18
100
AcDbLine
 10
0.0
 20
2.5
 30
0.0
 11
0.0
 21
3.5
 31
0.0
  0
LINE
  5
205
330
1FD
100
AcDbEntity
  8
0
  6
Continuous
 62
     0
370
    18
100
AcDbLine
 10
-2.5
 20
0.0
 30
0.0
 11
-3.5
 21
0.0
 31
0.0
  0
LINE
  5
206
330
1FD
100
AcDbEntity
  8
0
  6
Continuous
 62
     0
370
    18
100
AcDbLine
 10
0.0
 20
-2.5
 30
0.0
 11
0.0
 21
-3.5
 31
0.0
  0
LINE
  5
207
330
1FD
100
AcDbEntity
  8
0
  6
Continuous
 62
     0
370
    18
100
AcDbLine
 10
2.5
 20
0.0
 30
0.0
 11
3.5
 21
0.0
 31
0.0
  0
ENDBLK
  5
1FF
330
1FD
100
AcDbEntity
  8
0
100
AcDbBlockEnd
  0
BLOCK
  5
20A
330
209
100
AcDbEntity
  8
0
100
AcDbBlockBegin
  2
SW_CENTERMARKSYMBOL_4
 70
     0
 10
0.0
 20
0.0
 30
0.0
  3
SW_CENTERMARKSYMBOL_4
  1

  0
LINE
  5
20C
330
209
100
AcDbEntity
  8
0
  6
Continuous
 62
     0
370
    18
100
AcDbLine
 10
0.0
 20
0.0
 30
0.0
 11
0.0
 21
2.5
 31
0.0
  0
LINE
  5
20D
330
209
100
AcDbEntity
  8
0
  6
Continuous
 62
     0
370
    18
100
AcDbLine
 10
0.0
 20
0.0
 30
0.0
 11
-2.5
 21
0.0
 31
0.0
  0
LINE
  5
20E
330
209
100
AcDbEntity
  8
0
  6
Continuous
 62
     0
370
    18
100
AcDbLine
 10
0.0
 20
0.0
 30
0.0
 11
0.0
 21
-2.5
 31
0.0
  0
LINE
  5
20F
330
209
100
AcDbEntity
  8
0
  6
Continuous
 62
     0
370
    18
100
AcDbLine
 10
0.0
 20
0.0
 30
0.0
 11
2.5
 21
0.0
 31
0.0
  0
LINE
  5
210
330
209
100
AcDbEntity
  8
0
  6
Continuous
 62
     0
370
    18
100
AcDbLine
 10
0.0
 20
2.5
 30
0.0
 11
0.0
 21
3.5
 31
0.0
  0
LINE
  5
211
330
209
100
AcDbEntity
  8
0
  6
Continuous
 62
     0
370
    18
100
AcDbLine
 10
-2.5
 20
0.0
 30
0.0
 11
-3.5
 21
0.0
 31
0.0
  0
LINE
  5
212
330
209
100
AcDbEntity
  8
0
  6
Continuous
 62
     0
370
    18
100
AcDbLine
 10
0.0
 20
-2.5
 30
0.0
 11
0.0
 21
-3.5
 31
0.0
  0
LINE
  5
213
330
209
100
AcDbEntity
  8
0
  6
Continuous
 62
     0
370
    18
100
AcDbLine
 10
2.5
 20
0.0
 30
0.0
 11
3.5
 21
0.0
 31
0.0
  0
ENDBLK
  5
20B
330
209
100
AcDbEntity
  8
0
100
AcDbBlockEnd
  0
BLOCK
  5
216
330
215
100
AcDbEntity
  8
0
100
AcDbBlockBegin
  2
SW_CENTERMARKSYMBOL_5
 70
     0
 10
0.0
 20
0.0
 30
0.0
  3
SW_CENTERMARKSYMBOL_5
  1

  0
LINE
  5
218
330
215
100
AcDbEntity
  8
0
  6
Continuous
 62
     0
370
    18
100
AcDbLine
 10
0.0
 20
0.0
 30
0.0
 11
0.0
 21
2.5
 31
0.0
  0
LINE
  5
219
330
215
100
AcDbEntity
  8
0
  6
Continuous
 62
     0
370
    18
100
AcDbLine
 10
0.0
 20
0.0
 30
0.0
 11
-2.5
 21
0.0
 31
0.0
  0
LINE
  5
21A
330
215
100
AcDbEntity
  8
0
  6
Continuous
 62
     0
370
    18
100
AcDbLine
 10
0.0
 20
0.0
 30
0.0
 11
0.0
 21
-2.5
 31
0.0
  0
LINE
  5
21B
330
215
100
AcDbEntity
  8
0
  6
Continuous
 62
     0
370
    18
100
AcDbLine
 10
0.0
 20
0.0
 30
0.0
 11
2.5
 21
0.0
 31
0.0
  0
LINE
  5
21C
330
215
100
AcDbEntity
  8
0
  6
Continuous
 62
     0
370
    18
100
AcDbLine
 10
0.0
 20
2.5
 30
0.0
 11
0.0
 21
3.5
 31
0.0
  0
LINE
  5
21D
330
215
100
AcDbEntity
  8
0
  6
Continuous
 62
     0
370
    18
100
AcDbLine
 10
-2.5
 20
0.0
 30
0.0
 11
-3.5
 21
0.0
 31
0.0
  0
LINE
  5
21E
330
215
100
AcDbEntity
  8
0
  6
Continuous
 62
     0
370
    18
100
AcDbLine
 10
0.0
 20
-2.5
 30
0.0
 11
0.0
 21
-3.5
 31
0.0
  0
LINE
  5
21F
330
215
100
AcDbEntity
  8
0
  6
Continuous
 62
     0
370
    18
100
AcDbLine
 10
2.5
 20
0.0
 30
0.0
 11
3.5
 21
0.0
 31
0.0
  0
ENDBLK
  5
217
330
215
100
AcDbEntity
  8
0
100
AcDbBlockEnd
  0
ENDSEC
  0
SECTION
  2
ENTITIES
  0
ARC
  5
73
330
1F
100
AcDbEntity
  8
0
  6
Continuous
 62
     7
370
    25
100
AcDbCircle
 10
18.306059357
 20
256.2044517725
 30
0.0
 40
5.000000000000034
100
AcDbArc
 50
36.8698976458
 51
323.1301023542
  0
LINE
  5
74
330
1F
100
AcDbEntity
  8
0
  6
Continuous
 62
     7
370
    25
100
AcDbLine
 10
22.306059357
 20
253.2044517725
 30
0.0
 11
22.306059357
 21
259.2044517725
 31
0.0
  0
CIRCLE
  5
75
330
1F
100
AcDbEntity
  8
0
  6
Continuous
 62
     7
370
    25
100
AcDbCircle
 10
37.806059357
 20
256.2044517725
 30
0.0
 40
4.999999999999972
  0
LINE
  5
76
330
1F
100
AcDbEntity
  8
0
  6
Continuous
 62
     7
370
    25
100
AcDbLine
 10
5.806059357
 20
251.2044517725
 30
0.0
 11
10.806059357
 21
246.2044517725
 31
0.0
  0
LINE
  5
77
330
1F
100
AcDbEntity
  8
0
  6
Continuous
 62
     7
370
    25
100
AcDbLine
 10
5.806059357
 20
261.2044517725
 30
0.0
 11
5.806059357
 21
251.2044517725
 31
0.0
  0
LINE
  5
78
330
1F
100
AcDbEntity
  8
0
  6
Continuous
 62
     7
370
    25
100
AcDbLine
 10
10.806059357
 20
266.2044517725
 30
0.0
 11
5.806059357
 21
261.2044517725
 31
0.0
  0
LINE
  5
79
330
1F
100
AcDbEntity
  8
0
  6
Continuous
 62
     7
370
    25
100
AcDbLine
 10
45.306059357
 20
266.2044517725
 30
0.0
 11
10.806059357
 21
266.2044517725
 31
0.0
  0
LINE
  5
7A
330
1F
100
AcDbEntity
  8
0
  6
Continuous
 62
     7
370
    25
100
AcDbLine
 10
50.306059357
 20
261.2044517725
 30
0.0
 11
45.306059357
 21
266.2044517725
 31
0.0
  0
LINE
  5
7B
330
1F
100
AcDbEntity
  8
0
  6
Continuous
 62
     7
370
    25
100
AcDbLine
 10
50.306059357
 20
251.2044517725
 30
0.0
 11
50.306059357
 21
261.2044517725
 31
0.0
  0
LINE
  5
7C
330
1F
100
AcDbEntity
  8
0
  6
Continuous
 62
     7
370
    25
100
AcDbLine
 10
45.306059357
 20
246.2044517725
 30
0.0
 11
50.306059357
 21
251.2044517725
 31
0.0
  0
LINE
  5
7D
330
1F
100
AcDbEntity
  8
0
  6
Continuous
 62
     7
370
    25
100
AcDbLine
 10
10.806059357
 20
246.2044517725
 30
0.0
 11
45.306059357
 21
246.2044517725
 31
0.0
  0
INSERT
  5
89
330
1F
100
AcDbEntity
  8
0
  6
Continuous
 62
     7
370
    18
100
AcDbBlockReference
  2
SW_CENTERMARKSYMBOL_0
 10
37.806059357
 20
256.2044517725
 30
0.0
  0
ARC
  5
8A
330
1F
100
AcDbEntity
  8
0
  6
Continuous
 62
     7
370
    25
100
AcDbCircle
 10
16.451772465
 20
225.9323990107
 30
0.0
 40
14.00000000000001
100
AcDbArc
 50
178.843290987
 51
181.156709013
  0
ARC
  5
8B
330
1F
100
AcDbEntity
  8
0
  6
Continuous
 62
     7
370
    25
100
AcDbCircle
 10
4.9996478313
 20
221.680388091
 30
0.0
 40
5.199999999999998
100
AcDbArc
 50
92.8559320063
 51
119.3029530363
  0
ARC
  5
8C
330
1F
100
AcDbEntity
  8
0
  6
Continuous
 62
     7
370
    25
100
AcDbCircle
 10
16.451772465
 20
225.9323990107
 30
0.0
 40
11.749
100
AcDbArc
 50
170.750291265
 51
175.4035548889
  0
ARC
  5
8D
330
1F
100
AcDbEntity
  8
0
  6
Continuous
 62
     7
370
    25
100
AcDbCircle
 10
6.3499985776
 20
232.801527035
 30
0.0
 40
5.199999999999987
100
AcDbArc
 50
226.8508931176
 51
253.2979141476
  0
ARC
  5
8E
330
1F
100
AcDbEntity
  8
0
  6
Continuous
 62
     7
370
    25
100
AcDbCircle
 10
16.451772465
 20
225.9323990107
 30
0.0
 40
14.00000000000001
100
AcDbArc
 50
164.9971371409
 51
167.3105551668
  0
ARC
  5
8F
330
1F
100
AcDbEntity
  8
0
  6
Continuous
 62
     7
370
    25
100
AcDbCircle
 10
4.3148529419
 20
224.5446166148
 30
0.0
 40
5.200000000000034
100
AcDbArc
 50
79.0097781601
 51
105.4567991901
  0
ARC
  5
90
330
1F
100
AcDbEntity
  8
0
  6
Continuous
 62
     7
370
    25
100
AcDbCircle
 10
16.451772465
 20
225.9323990107
 30
0.0
 40
11.74900000000001
100
AcDbArc
 50
156.9041374188
 51
161.5574010427
  0
ARC
  5
91
330
1F
100
AcDbEntity
  8
0
  6
Continuous
 62
     7
370
    25
100
AcDbCircle
 10
8.2874277037
 20
235.0194353871
 30
0.0
 40
5.199999999999982
100
AcDbArc
 50
213.0047392714
 51
239.4517603014
  0
ARC
  5
92
330
1F
100
AcDbEntity
  8
0
  6
Continuous
 62
     7
370
    25
100
AcDbCircle
 10
16.451772465
 20
225.9323990107
 30
0.0
 40
14.00000000000001
100
AcDbArc
 50
151.1509832947
 51
153.4644013206
  0
ARC
  5
93
330
1F
100
AcDbEntity
  8
0
  6
Continuous
 62
     7
370
    25
100
AcDbCircle
 10
4.3354116994
 20
227.4894980071
 30
0.0
 40
5.200000000000021
100
AcDbArc
 50
65.163624314
 51
91.610645344
  0
ARC
  5
94
330
1F
100
AcDbEntity
  8
0
  6
Continuous
 62
     7
370
    25
100
AcDbCircle
 10
16.451772465
 20
225.9323990107
 30
0.0
 40
11.74900000000001
100
AcDbArc
 50
143.0579835727
 51
147.7112471966
  0
ARC
  5
95
330
1F
100
AcDbEntity
  8
0
  6
Continuous
 62
     7
370
    25
100
AcDbCircle
 10
10.6993388712
 20
236.7092382151
 30
0.0
 40
5.200000000000008
100
AcDbArc
 50
199.1585854253
 51
225.6056064553
  0
ARC
  5
96
330
1F
100
AcDbEntity
  8
0
  6
Continuous
 62
     7
370
    25
100
AcDbCircle
 10
16.451772465
 20
225.9323990107
 30
0.0
 40
14.00000000000002
100
AcDbArc
 50
137.3048294486
 51
139.6182474745
  0
ARC
  5
97
330
1F
100
AcDbEntity
  8
0
  6
Continuous
 62
     7
370
    25
100
AcDbCircle
 10
5.0601293033
 20
230.3438864656
 30
0.0
 40
5.199999999999991
100
AcDbArc
 50
51.3174704678
 51
77.7644914978
  0
ARC
  5
98
330
1F
100
AcDbEntity
  8
0
  6
Continuous
 62
     7
370
    25
100
AcDbCircle
 10
16.451772465
 20
225.9323990107
 30
0.0
 40
11.749
100
AcDbArc
 50
129.2118297265
 51
133.8650933504
  0
ARC
  5
99
330
1F
100
AcDbEntity
  8
0
  6
Continuous
 62
     7
370
    25
100
AcDbCircle
 10
13.4455605699
 20
237.7727303207
 30
0.0
 40
5.200000000000002
100
AcDbArc
 50
185.3124315791
 51
211.7594526091
  0
ARC
  5
9A
330
1F
100
AcDbEntity
  8
0
  6
Continuous
 62
     7
370
    25
100
AcDbCircle
 10
16.451772465
 20
225.9323990107
 30
0.0
 40
14.00000000000003
100
AcDbArc
 50
123.4586756024
 51
125.7720936283
  0
ARC
  5
9B
330
1F
100
AcDbEntity
  8
0
  6
Continuous
 62
     7
370
    25
100
AcDbCircle
 10
6.4468878009
 20
232.9418953082
 30
0.0
 40
5.200000000000001
100
AcDbArc
 50
37.4713166217
 51
63.9183376517
  0
ARC
  5
9C
330
1F
100
AcDbEntity
  8
0
  6
Continuous
 62
     7
370
    25
100
AcDbCircle
 10
16.451772465
 20
225.9323990107
 30
0.0
 40
11.74900000000002
100
AcDbArc
 50
115.3656758804
 51
120.0189395043
  0
ARC
  5
9D
330
1F
100
AcDbEntity
  8
0
  6
Continuous
 62
     7
370
    25
100
AcDbCircle
 10
16.3664923769
 20
238.1481054084
 30
0.0
 40
5.199999999999999
100
AcDbArc
 50
171.466277733
 51
197.9132987629
  0
ARC
  5
9E
330
1F
100
AcDbEntity
  8
0
  6
Continuous
 62
     7
370
    25
100
AcDbCircle
 10
16.451772465
 20
225.9323990107
 30
0.0
 40
14.00000000000001
100
AcDbArc
 50
109.6125217563
 51
111.9259397822
  0
ARC
  5
9F
330
1F
100
AcDbEntity
  8
0
  6
Continuous
 62
     7
370
    25
100
AcDbCircle
 10
8.4150938288
 20
235.1325377046
 30
0.0
 40
5.199999999999998
100
AcDbArc
 50
23.6251627755
 51
50.0721838055
  0
ARC
  5
A0
330
1F
100
AcDbEntity
  8
0
  6
Continuous
 62
     7
370
    25
100
AcDbCircle
 10
16.451772465
 20
225.9323990107
 30
0.0
 40
11.74900000000002
100
AcDbArc
 50
101.5195220342
 51
106.1727856581
  0
ARC
  5
A1
330
1F
100
AcDbEntity
  8
0
  6
Continuous
 62
     7
370
    25
100
AcDbCircle
 10
19.2923803525
 20
237.8135480425
 30
0.0
 40
5.199999999999997
100
AcDbArc
 50
157.6201238868
 51
184.0671449168
  0
ARC
  5
A2
330
1F
100
AcDbEntity
  8
0
  6
Continuous
 62
     7
370
    25
100
AcDbCircle
 10
16.451772465
 20
225.9323990107
 30
0.0
 40
14.00000000000001
100
AcDbArc
 50
95.7663679101
 51
98.079785936
  0
ARC
  5
A3
330
1F
100
AcDbEntity
  8
0
  6
Continuous
 62
     7
370
    25
100
AcDbCircle
 10
10.850362407
 20
236.7885014812
 30
0.0
 40
5.200000000000006
100
AcDbArc
 50
9.7790089294
 51
36.2260299594
  0
ARC
  5
A4
330
1F
100
AcDbEntity
  8
0
  6
Continuous
 62
     7
370
    25
100
AcDbCircle
 10
16.451772465
 20
225.9323990107
 30
0.0
 40
11.749
100
AcDbArc
 50
87.673368188
 51
92.326631812
  0
ARC
  5
A5
330
1F
100
AcDbEntity
  8
0
  6
Continuous
 62
     7
370
    25
100
AcDbCircle
 10
22.0531825229
 20
236.7885014812
 30
0.0
 40
5.200000000000001
100
AcDbArc
 50
143.7739700406
 51
170.2209910706
  0
ARC
  5
A6
330
1F
100
AcDbEntity
  8
0
  6
Continuous
 62
     7
370
    25
100
AcDbCircle
 10
16.451772465
 20
225.9323990107
 30
0.0
 40
14.00000000000001
100
AcDbArc
 50
81.920214064
 51
84.2336320899
  0
ARC
  5
A7
330
1F
100
AcDbEntity
  8
0
  6
Continuous
 62
     7
370
    25
100
AcDbCircle
 10
13.6111645774
 20
237.8135480425
 30
0.0
 40
5.200000000000001
100
AcDbArc
 50
355.9328550832
 51
22.3798761132
  0
ARC
  5
A8
330
1F
100
AcDbEntity
  8
0
  6
Continuous
 62
     7
370
    25
100
AcDbCircle
 10
16.451772465
 20
225.9323990107
 30
0.0
 40
11.74900000000001
100
AcDbArc
 50
73.8272143419
 51
78.4804779658
  0
ARC
  5
A9
330
1F
100
AcDbEntity
  8
0
  6
Continuous
 62
     7
370
    25
100
AcDbCircle
 10
24.4884511011
 20
235.1325377046
 30
0.0
 40
5.200000000000021
100
AcDbArc
 50
129.9278161945
 51
156.3748372245
  0
ARC
  5
AA
330
1F
100
AcDbEntity
  8
0
  6
Continuous
 62
     7
370
    25
100
AcDbCircle
 10
16.451772465
 20
225.9323990107
 30
0.0
 40
14.00000000000003
100
AcDbArc
 50
68.0740602178
 51
70.3874782437
  0
ARC
  5
AB
330
1F
100
AcDbEntity
  8
0
  6
Continuous
 62
     7
370
    25
100
AcDbCircle
 10
16.5370525531
 20
238.1481054084
 30
0.0
 40
5.199999999999999
100
AcDbArc
 50
342.0867012371
 51
8.533722267
  0
ARC
  5
AC
330
1F
100
AcDbEntity
  8
0
  6
Continuous
 62
     7
370
    25
100
AcDbCircle
 10
16.451772465
 20
225.9323990107
 30
0.0
 40
11.74900000000001
100
AcDbArc
 50
59.9810604957
 51
64.6343241196
  0
ARC
  5
AD
330
1F
100
AcDbEntity
  8
0
  6
Continuous
 62
     7
370
    25
100
AcDbCircle
 10
26.4566571291
 20
232.9418953082
 30
0.0
 40
5.200000000000005
100
AcDbArc
 50
116.0816623483
 51
142.5286833783
  0
ARC
  5
AE
330
1F
100
AcDbEntity
  8
0
  6
Continuous
 62
     7
370
    25
100
AcDbCircle
 10
16.451772465
 20
225.9323990107
 30
0.0
 40
14.00000000000001
100
AcDbArc
 50
54.2279063717
 51
56.5413243976
  0
ARC
  5
AF
330
1F
100
AcDbEntity
  8
0
  6
Continuous
 62
     7
370
    25
100
AcDbCircle
 10
19.45798436
 20
237.7727303207
 30
0.0
 40
5.200000000000006
100
AcDbArc
 50
328.2405473909
 51
354.6875684209
  0
ARC
  5
B0
330
1F
100
AcDbEntity
  8
0
  6
Continuous
 62
     7
370
    25
100
AcDbCircle
 10
16.451772465
 20
225.9323990107
 30
0.0
 40
11.749
100
AcDbArc
 50
46.1349066496
 51
50.7881702735
  0
ARC
  5
B1
330
1F
100
AcDbEntity
  8
0
  6
Continuous
 62
     7
370
    25
100
AcDbCircle
 10
27.8434156266
 20
230.3438864656
 30
0.0
 40
5.200000000000006
100
AcDbArc
 50
102.2355085022
 51
128.6825295322
  0
ARC
  5
B2
330
1F
100
AcDbEntity
  8
0
  6
Continuous
 62
     7
370
    25
100
AcDbCircle
 10
16.451772465
 20
225.9323990107
 30
0.0
 40
14.00000000000002
100
AcDbArc
 50
40.3817525255
 51
42.6951705514
  0
ARC
  5
B3
330
1F
100
AcDbEntity
  8
0
  6
Continuous
 62
     7
370
    25
100
AcDbCircle
 10
22.2042060587
 20
236.7092382151
 30
0.0
 40
5.200000000000006
100
AcDbArc
 50
314.3943935447
 51
340.8414145747
  0
ARC
  5
B4
330
1F
100
AcDbEntity
  8
0
  6
Continuous
 62
     7
370
    25
100
AcDbCircle
 10
16.451772465
 20
225.9323990107
 30
0.0
 40
11.74900000000001
100
AcDbArc
 50
32.2887528034
 51
36.9420164273
  0
ARC
  5
B5
330
1F
100
AcDbEntity
  8
0
  6
Continuous
 62
     7
370
    25
100
AcDbCircle
 10
28.5681332306
 20
227.4894980071
 30
0.0
 40
5.200000000000021
100
AcDbArc
 50
88.389354656
 51
114.836375686
  0
ARC
  5
B6
330
1F
100
AcDbEntity
  8
0
  6
Continuous
 62
     7
370
    25
100
AcDbCircle
 10
16.451772465
 20
225.9323990107
 30
0.0
 40
14.00000000000001
100
AcDbArc
 50
26.5355986794
 51
28.8490167053
  0
ARC
  5
B7
330
1F
100
AcDbEntity
  8
0
  6
Continuous
 62
     7
370
    25
100
AcDbCircle
 10
24.6161172262
 20
235.0194353871
 30
0.0
 40
5.200000000000015
100
AcDbArc
 50
300.5482396986
 51
326.9952607286
  0
ARC
  5
B8
330
1F
100
AcDbEntity
  8
0
  6
Continuous
 62
     7
370
    25
100
AcDbCircle
 10
16.451772465
 20
225.9323990107
 30
0.0
 40
11.749
100
AcDbArc
 50
18.4425989573
 51
23.0958625812
  0
ARC
  5
B9
330
1F
100
AcDbEntity
  8
0
  6
Continuous
 62
     7
370
    25
100
AcDbCircle
 10
28.588691988
 20
224.5446166148
 30
0.0
 40
5.199999999999991
100
AcDbArc
 50
74.5432008099
 51
100.9902218399
  0
ARC
  5
BA
330
1F
100
AcDbEntity
  8
0
  6
Continuous
 62
     7
370
    25
100
AcDbCircle
 10
16.451772465
 20
225.9323990107
 30
0.0
 40
14.0
100
AcDbArc
 50
12.6894448332
 51
15.0028628591
  0
ARC
  5
BB
330
1F
100
AcDbEntity
  8
0
  6
Continuous
 62
     7
370
    25
100
AcDbCircle
 10
26.5535463524
 20
232.801527035
 30
0.0
 40
5.19999999999998
100
AcDbArc
 50
286.7020858524
 51
313.1491068824
  0
ARC
  5
BC
330
1F
100
AcDbEntity
  8
0
  6
Continuous
 62
     7
370
    25
100
AcDbCircle
 10
16.451772465
 20
225.9323990107
 30
0.0
 40
11.749
100
AcDbArc
 50
4.5964451111
 51
9.249708735
  0
ARC
  5
BD
330
1F
100
AcDbEntity
  8
0
  6
Continuous
 62
     7
370
    25
100
AcDbCircle
 10
27.9038970986
 20
221.680388091
 30
0.0
 40
5.19999999999999
100
AcDbArc
 50
60.6970469637
 51
87.1440679937
  0
ARC
  5
BE
330
1F
100
AcDbEntity
  8
0
  6
Continuous
 62
     7
370
    25
100
AcDbCircle
 10
16.451772465
 20
225.9323990107
 30
0.0
 40
14.0
100
AcDbArc
 50
358.843290987
 51
1.156709013
  0
ARC
  5
BF
330
1F
100
AcDbEntity
  8
0
  6
Continuous
 62
     7
370
    25
100
AcDbCircle
 10
27.9038970986
 20
230.1844099304
 30
0.0
 40
5.19999999999999
100
AcDbArc
 50
272.8559320063
 51
299.3029530363
  0
ARC
  5
C0
330
1F
100
AcDbEntity
  8
0
  6
Continuous
 62
     7
370
    25
100
AcDbCircle
 10
16.451772465
 20
225.9323990107
 30
0.0
 40
11.749
100
AcDbArc
 50
350.750291265
 51
355.4035548889
  0
ARC
  5
C1
330
1F
100
AcDbEntity
  8
0
  6
Continuous
 62
     7
370
    25
100
AcDbCircle
 10
26.5535463524
 20
219.0632709864
 30
0.0
 40
5.199999999999974
100
AcDbArc
 50
46.8508931176
 51
73.2979141476
  0
ARC
  5
C2
330
1F
100
AcDbEntity
  8
0
  6
Continuous
 62
     7
370
    25
100
AcDbCircle
 10
16.451772465
 20
225.9323990107
 30
0.0
 40
14.0
100
AcDbArc
 50
344.9971371409
 51
347.3105551668
  0
ARC
  5
C3
330
1F
100
AcDbEntity
  8
0
  6
Continuous
 62
     7
370
    25
100
AcDbCircle
 10
28.588691988
 20
227.3201814066
 30
0.0
 40
5.199999999999999
100
AcDbArc
 50
259.0097781601
 51
285.4567991901
  0
ARC
  5
C4
330
1F
100
AcDbEntity
  8
0
  6
Continuous
 62
     7
370
    25
100
AcDbCircle
 10
16.451772465
 20
225.9323990107
 30
0.0
 40
11.74899999999999
100
AcDbArc
 50
336.9041374188
 51
341.5574010427
  0
ARC
  5
C5
330
1F
100
AcDbEntity
  8
0
  6
Continuous
 62
     7
370
    25
100
AcDbCircle
 10
24.6161172262
 20
216.8453626343
 30
0.0
 40
5.199999999999994
100
AcDbArc
 50
33.0047392714
 51
59.4517603014
  0
ARC
  5
C6
330
1F
100
AcDbEntity
  8
0
  6
Continuous
 62
     7
370
    25
100
AcDbCircle
 10
16.451772465
 20
225.9323990107
 30
0.0
 40
14.0
100
AcDbArc
 50
331.1509832947
 51
333.4644013207
  0
ARC
  5
C7
330
1F
100
AcDbEntity
  8
0
  6
Continuous
 62
     7
370
    25
100
AcDbCircle
 10
28.5681332306
 20
224.3753000143
 30
0.0
 40
5.200000000000007
100
AcDbArc
 50
245.163624314
 51
271.610645344
  0
ARC
  5
C8
330
1F
100
AcDbEntity
  8
0
  6
Continuous
 62
     7
370
    25
100
AcDbCircle
 10
16.451772465
 20
225.9323990107
 30
0.0
 40
11.749
100
AcDbArc
 50
323.0579835727
 51
327.7112471966
  0
ARC
  5
C9
330
1F
100
AcDbEntity
  8
0
  6
Continuous
 62
     7
370
    25
100
AcDbCircle
 10
22.2042060587
 20
215.1555598064
 30
0.0
 40
5.200000000000021
100
AcDbArc
 50
19.1585854253
 51
45.6056064553
  0
ARC
  5
CA
330
1F
100
AcDbEntity
  8
0
  6
Continuous
 62
     7
370
    25
100
AcDbCircle
 10
16.451772465
 20
225.9323990107
 30
0.0
 40
14.0
100
AcDbArc
 50
317.3048294486
 51
319.6182474745
  0
ARC
  5
CB
330
1F
100
AcDbEntity
  8
0
  6
Continuous
 62
     7
370
    25
100
AcDbCircle
 10
27.8434156266
 20
221.5209115559
 30
0.0
 40
5.200000000000013
100
AcDbArc
 50
231.3174704678
 51
257.7644914978
  0
ARC
  5
CC
330
1F
100
AcDbEntity
  8
0
  6
Continuous
 62
     7
370
    25
100
AcDbCircle
 10
16.451772465
 20
225.9323990107
 30
0.0
 40
11.749
100
AcDbArc
 50
309.2118297265
 51
313.8650933504
  0
ARC
  5
CD
330
1F
100
AcDbEntity
  8
0
  6
Continuous
 62
     7
370
    25
100
AcDbCircle
 10
19.45798436
 20
214.0920677008
 30
0.0
 40
5.200000000000003
100
AcDbArc
 50
5.3124315791
 51
31.7594526091
  0
ARC
  5
CE
330
1F
100
AcDbEntity
  8
0
  6
Continuous
 62
     7
370
    25
100
AcDbCircle
 10
16.451772465
 20
225.9323990107
 30
0.0
 40
14.0
100
AcDbArc
 50
303.4586756024
 51
305.7720936283
  0
ARC
  5
CF
330
1F
100
AcDbEntity
  8
0
  6
Continuous
 62
     7
370
    25
100
AcDbCircle
 10
26.4566571291
 20
218.9229027132
 30
0.0
 40
5.200000000000012
100
AcDbArc
 50
217.4713166217
 51
243.9183376517
  0
ARC
  5
D0
330
1F
100
AcDbEntity
  8
0
  6
Continuous
 62
     7
370
    25
100
AcDbCircle
 10
16.451772465
 20
225.9323990107
 30
0.0
 40
11.749
100
AcDbArc
 50
295.3656758804
 51
300.0189395043
  0
ARC
  5
D1
330
1F
100
AcDbEntity
  8
0
  6
Continuous
 62
     7
370
    25
100
AcDbCircle
 10
16.5370525531
 20
213.7166926131
 30
0.0
 40
5.199999999999996
100
AcDbArc
 50
351.466277733
 51
17.9132987629
  0
ARC
  5
D2
330
1F
100
AcDbEntity
  8
0
  6
Continuous
 62
     7
370
    25
100
AcDbCircle
 10
16.451772465
 20
225.9323990107
 30
0.0
 40
13.99999999999999
100
AcDbArc
 50
289.6125217563
 51
291.9259397822
  0
ARC
  5
D3
330
1F
100
AcDbEntity
  8
0
  6
Continuous
 62
     7
370
    25
100
AcDbCircle
 10
24.4884511011
 20
216.7322603169
 30
0.0
 40
5.200000000000013
100
AcDbArc
 50
203.6251627755
 51
230.0721838055
  0
ARC
  5
D4
330
1F
100
AcDbEntity
  8
0
  6
Continuous
 62
     7
370
    25
100
AcDbCircle
 10
16.451772465
 20
225.9323990107
 30
0.0
 40
11.74899999999999
100
AcDbArc
 50
281.5195220342
 51
286.1727856581
  0
ARC
  5
D5
330
1F
100
AcDbEntity
  8
0
  6
Continuous
 62
     7
370
    25
100
AcDbCircle
 10
13.6111645774
 20
214.0512499789
 30
0.0
 40
5.199999999999999
100
AcDbArc
 50
337.6201238868
 51
4.0671449168
  0
ARC
  5
D6
330
1F
100
AcDbEntity
  8
0
  6
Continuous
 62
     7
370
    25
100
AcDbCircle
 10
16.451772465
 20
225.9323990107
 30
0.0
 40
14.00000000000001
100
AcDbArc
 50
275.7663679101
 51
278.079785936
  0
ARC
  5
D7
330
1F
100
AcDbEntity
  8
0
  6
Continuous
 62
     7
370
    25
100
AcDbCircle
 10
22.0531825229
 20
215.0762965403
 30
0.0
 40
5.200000000000006
100
AcDbArc
 50
189.7790089294
 51
216.2260299594
  0
ARC
  5
D8
330
1F
100
AcDbEntity
  8
0
  6
Continuous
 62
     7
370
    25
100
AcDbCircle
 10
16.451772465
 20
225.9323990107
 30
0.0
 40
11.749
100
AcDbArc
 50
267.673368188
 51
272.326631812
  0
ARC
  5
D9
330
1F
100
AcDbEntity
  8
0
  6
Continuous
 62
     7
370
    25
100
AcDbCircle
 10
10.850362407
 20
215.0762965403
 30
0.0
 40
5.200000000000007
100
AcDbArc
 50
323.7739700407
 51
350.2209910706
  0
ARC
  5
DA
330
1F
100
AcDbEntity
  8
0
  6
Continuous
 62
     7
370
    25
100
AcDbCircle
 10
16.451772465
 20
225.9323990107
 30
0.0
 40
13.99999999999999
100
AcDbArc
 50
261.920214064
 51
264.2336320899
  0
ARC
  5
DB
330
1F
100
AcDbEntity
  8
0
  6
Continuous
 62
     7
370
    25
100
AcDbCircle
 10
19.2923803525
 20
214.0512499789
 30
0.0
 40
5.199999999999998
100
AcDbArc
 50
175.9328550832
 51
202.3798761132
  0
ARC
  5
DC
330
1F
100
AcDbEntity
  8
0
  6
Continuous
 62
     7
370
    25
100
AcDbCircle
 10
16.451772465
 20
225.9323990107
 30
0.0
 40
11.749
100
AcDbArc
 50
253.8272143419
 51
258.4804779658
  0
ARC
  5
DD
330
1F
100
AcDbEntity
  8
0
  6
Continuous
 62
     7
370
    25
100
AcDbCircle
 10
8.4150938288
 20
216.7322603169
 30
0.0
 40
5.200000000000009
100
AcDbArc
 50
309.9278161945
 51
336.3748372245
  0
ARC
  5
DE
330
1F
100
AcDbEntity
  8
0
  6
Continuous
 62
     7
370
    25
100
AcDbCircle
 10
16.451772465
 20
225.9323990107
 30
0.0
 40
14.0
100
AcDbArc
 50
248.0740602178
 51
250.3874782437
  0
ARC
  5
DF
330
1F
100
AcDbEntity
  8
0
  6
Continuous
 62
     7
370
    25
100
AcDbCircle
 10
16.3664923769
 20
213.7166926131
 30
0.0
 40
5.2
100
AcDbArc
 50
162.0867012371
 51
188.533722267
  0
ARC
  5
E0
330
1F
100
AcDbEntity
  8
0
  6
Continuous
 62
     7
370
    25
100
AcDbCircle
 10
16.451772465
 20
225.9323990107
 30
0.0
 40
11.74899999999999
100
AcDbArc
 50
239.9810604957
 51
244.6343241196
  0
ARC
  5
E1
330
1F
100
AcDbEntity
  8
0
  6
Continuous
 62
     7
370
    25
100
AcDbCircle
 10
6.4468878009
 20
218.9229027132
 30
0.0
 40
5.19999999999998
100
AcDbArc
 50
296.0816623483
 51
322.5286833783
  0
ARC
  5
E2
330
1F
100
AcDbEntity
  8
0
  6
Continuous
 62
     7
370
    25
100
AcDbCircle
 10
16.451772465
 20
225.9323990107
 30
0.0
 40
13.99999999999998
100
AcDbArc
 50
234.2279063717
 51
236.5413243976
  0
ARC
  5
E3
330
1F
100
AcDbEntity
  8
0
  6
Continuous
 62
     7
370
    25
100
AcDbCircle
 10
13.4455605699
 20
214.0920677008
 30
0.0
 40
5.200000000000005
100
AcDbArc
 50
148.2405473909
 51
174.6875684209
  0
ARC
  5
E4
330
1F
100
AcDbEntity
  8
0
  6
Continuous
 62
     7
370
    25
100
AcDbCircle
 10
16.451772465
 20
225.9323990107
 30
0.0
 40
11.749
100
AcDbArc
 50
226.1349066496
 51
230.7881702735
  0
ARC
  5
E5
330
1F
100
AcDbEntity
  8
0
  6
Continuous
 62
     7
370
    25
100
AcDbCircle
 10
5.0601293033
 20
221.5209115559
 30
0.0
 40
5.199999999999999
100
AcDbArc
 50
282.2355085022
 51
308.6825295322
  0
ARC
  5
E6
330
1F
100
AcDbEntity
  8
0
  6
Continuous
 62
     7
370
    25
100
AcDbCircle
 10
16.451772465
 20
225.9323990107
 30
0.0
 40
14.00000000000001
100
AcDbArc
 50
220.3817525255
 51
222.6951705514
  0
ARC
  5
E7
330
1F
100
AcDbEntity
  8
0
  6
Continuous
 62
     7
370
    25
100
AcDbCircle
 10
10.6993388712
 20
215.1555598064
 30
0.0
 40
5.199999999999995
100
AcDbArc
 50
134.3943935447
 51
160.8414145747
  0
ARC
  5
E8
330
1F
100
AcDbEntity
  8
0
  6
Continuous
 62
     7
370
    25
100
AcDbCircle
 10
16.451772465
 20
225.9323990107
 30
0.0
 40
11.74899999999999
100
AcDbArc
 50
212.2887528034
 51
216.9420164273
  0
ARC
  5
E9
330
1F
100
AcDbEntity
  8
0
  6
Continuous
 62
     7
370
    25
100
AcDbCircle
 10
4.3354116994
 20
224.3753000143
 30
0.0
 40
5.200000000000006
100
AcDbArc
 50
268.389354656
 51
294.836375686
  0
ARC
  5
EA
330
1F
100
AcDbEntity
  8
0
  6
Continuous
 62
     7
370
    25
100
AcDbCircle
 10
16.451772465
 20
225.9323990107
 30
0.0
 40
14.00000000000001
100
AcDbArc
 50
206.5355986794
 51
208.8490167053
  0
ARC
  5
EB
330
1F
100
AcDbEntity
  8
0
  6
Continuous
 62
     7
370
    25
100
AcDbCircle
 10
8.2874277037
 20
216.8453626343
 30
0.0
 40
5.199999999999999
100
AcDbArc
 50
120.5482396986
 51
146.9952607286
  0
ARC
  5
EC
330
1F
100
AcDbEntity
  8
0
  6
Continuous
 62
     7
370
    25
100
AcDbCircle
 10
16.451772465
 20
225.9323990107
 30
0.0
 40
11.749
100
AcDbArc
 50
198.4425989573
 51
203.0958625812
  0
ARC
  5
ED
330
1F
100
AcDbEntity
  8
0
  6
Continuous
 62
     7
370
    25
100
AcDbCircle
 10
4.3148529419
 20
227.3201814066
 30
0.0
 40
5.199999999999997
100
AcDbArc
 50
254.5432008099
 51
280.9902218399
  0
ARC
  5
EE
330
1F
100
AcDbEntity
  8
0
  6
Continuous
 62
     7
370
    25
100
AcDbCircle
 10
16.451772465
 20
225.9323990107
 30
0.0
 40
14.00000000000001
100
AcDbArc
 50
192.6894448332
 51
195.0028628591
  0
ARC
  5
EF
330
1F
100
AcDbEntity
  8
0
  6
Continuous
 62
     7
370
    25
100
AcDbCircle
 10
6.3499985776
 20
219.0632709864
 30
0.0
 40
5.199999999999993
100
AcDbArc
 50
106.7020858524
 51
133.1491068824
  0
ARC
  5
F0
330
1F
100
AcDbEntity
  8
0
  6
Continuous
 62
     7
370
    25
100
AcDbCircle
 10
16.451772465
 20
225.9323990107
 30
0.0
 40
11.749
100
AcDbArc
 50
184.5964451111
 51
189.249708735
  0
ARC
  5
F1
330
1F
100
AcDbEntity
  8
0
  6
Continuous
 62
     7
370
    25
100
AcDbCircle
 10
4.9996478313
 20
230.1844099304
 30
0.0
 40
5.199999999999996
100
AcDbArc
 50
240.6970469637
 51
267.1440679937
  0
CIRCLE
  5
F2
330
1F
100
AcDbEntity
  8
0
  6
Continuous
 62
     7
370
    25
100
AcDbCircle
 10
16.451772465
 20
225.9323990107
 30
0.0
 40
5.000000000000002
  0
INSERT
  5
FE
330
1F
100
AcDbEntity
  8
0
  6
Continuous
 62
     7
370
    18
100
AcDbBlockReference
  2
SW_CENTERMARKSYMBOL_1
 10
16.451772465
 20
225.9323990107
 30
0.0
  0
ARC
  5
FF
330
1F
100
AcDbEntity
  8
0
  6
Continuous
 62
     7
370
    25
100
AcDbCircle
 10
55.6007443175
 20
232.353638909
 30
0.0
 40
7.500000000000027
100
AcDbArc
 50
130.0705364793
 51
133.0063865976
  0
ARC
  5
100
330
1F
100
AcDbEntity
  8
0
  6
Continuous
 62
     7
370
    25
100
AcDbCircle
 10
50.3793439008
 20
235.5229711037
 30
0.0
 40
2.600000000000025
100
AcDbArc
 50
27.4112000832
 51
81.2967491217
  0
ARC
  5
101
330
1F
100
AcDbEntity
  8
0
  6
Continuous
 62
     7
370
    25
100
AcDbCircle
 10
55.6007443175
 20
232.353638909
 30
0.0
 40
5.249000000000001
100
AcDbArc
 50
111.6723344354
 51
123.7122809492
  0
ARC
  5
102
330
1F
100
AcDbEntity
  8
0
  6
Continuous
 62
     7
370
    25
100
AcDbCircle
 10
55.9585285609
 20
238.4511530998
 30
0.0
 40
2.600000000000005
100
AcDbArc
 50
154.0878662629
 51
207.9734153014
  0
ARC
  5
103
330
1F
100
AcDbEntity
  8
0
  6
Continuous
 62
     7
370
    25
100
AcDbCircle
 10
55.6007443175
 20
232.353638909
 30
0.0
 40
7.500000000000032
100
AcDbArc
 50
102.378228787
 51
105.3140789053
  0
ARC
  5
104
330
1F
100
AcDbEntity
  8
0
  6
Continuous
 62
     7
370
    25
100
AcDbCircle
 10
52.450285967
 20
237.5864489622
 30
0.0
 40
2.600000000000017
100
AcDbArc
 50
359.7188923909
 51
53.6044414294
  0
ARC
  5
105
330
1F
100
AcDbEntity
  8
0
  6
Continuous
 62
     7
370
    25
100
AcDbCircle
 10
55.6007443175
 20
232.353638909
 30
0.0
 40
5.249000000000003
100
AcDbArc
 50
83.9800267431
 51
96.0199732569
  0
ARC
  5
106
330
1F
100
AcDbEntity
  8
0
  6
Continuous
 62
     7
370
    25
100
AcDbCircle
 10
58.751202668
 20
237.5864489622
 30
0.0
 40
2.600000000000021
100
AcDbArc
 50
126.3955585706
 51
180.2811076091
  0
ARC
  5
107
330
1F
100
AcDbEntity
  8
0
  6
Continuous
 62
     7
370
    25
100
AcDbCircle
 10
55.6007443175
 20
232.353638909
 30
0.0
 40
7.500000000000028
100
AcDbArc
 50
74.6859210947
 51
77.621771213
  0
ARC
  5
108
330
1F
100
AcDbEntity
  8
0
  6
Continuous
 62
     7
370
    25
100
AcDbCircle
 10
55.2429600741
 20
238.4511530998
 30
0.0
 40
2.600000000000005
100
AcDbArc
 50
332.0265846986
 51
25.9121337371
  0
ARC
  5
109
330
1F
100
AcDbEntity
  8
0
  6
Continuous
 62
     7
370
    25
100
AcDbCircle
 10
55.6007443175
 20
232.353638909
 30
0.0
 40
5.249000000000009
100
AcDbArc
 50
56.2877190508
 51
68.3276655646
  0
ARC
  5
10A
330
1F
100
AcDbEntity
  8
0
  6
Continuous
 62
     7
370
    25
100
AcDbCircle
 10
60.8221447342
 20
235.5229711037
 30
0.0
 40
2.600000000000004
100
AcDbArc
 50
98.7032508783
 51
152.5887999168
  0
ARC
  5
10B
330
1F
100
AcDbEntity
  8
0
  6
Continuous
 62
     7
370
    25
100
AcDbCircle
 10
55.6007443175
 20
232.353638909
 30
0.0
 40
7.500000000000011
100
AcDbArc
 50
46.9936134024
 51
49.9294635207
  0
ARC
  5
10C
330
1F
100
AcDbEntity
  8
0
  6
Continuous
 62
     7
370
    25
100
AcDbCircle
 10
58.1175982397
 20
237.9189902192
 30
0.0
 40
2.600000000000029
100
AcDbArc
 50
304.3342770063
 51
358.2198260448
  0
ARC
  5
10D
330
1F
100
AcDbEntity
  8
0
  6
Continuous
 62
     7
370
    25
100
AcDbCircle
 10
55.6007443175
 20
232.353638909
 30
0.0
 40
5.248999999999999
100
AcDbArc
 50
28.5954113585
 51
40.6353578723
  0
ARC
  5
10E
330
1F
100
AcDbEntity
  8
0
  6
Continuous
 62
     7
370
    25
100
AcDbCircle
 10
61.6969268896
 20
232.7334374339
 30
0.0
 40
2.599999999999994
100
AcDbArc
 50
71.010943186
 51
124.8964922245
  0
ARC
  5
10F
330
1F
100
AcDbEntity
  8
0
  6
Continuous
 62
     7
370
    25
100
AcDbCircle
 10
55.6007443175
 20
232.353638909
 30
0.0
 40
7.500000000000001
100
AcDbArc
 50
19.30130571
 51
22.2371558284
  0
ARC
  5
110
330
1F
100
AcDbEntity
  8
0
  6
Continuous
 62
     7
370
    25
100
AcDbCircle
 10
60.415655503
 20
236.1118724232
 30
0.0
 40
2.599999999999997
100
AcDbArc
 50
276.641969314
 51
330.5275183525
  0
ARC
  5
111
330
1F
100
AcDbEntity
  8
0
  6
Continuous
 62
     7
370
    25
100
AcDbCircle
 10
55.6007443175
 20
232.353638909
 30
0.0
 40
5.248999999999998
100
AcDbArc
 50
0.9031036661
 51
12.94305018
  0
ARC
  5
112
330
1F
100
AcDbEntity
  8
0
  6
Continuous
 62
     7
370
    25
100
AcDbCircle
 10
55.6007443175
 20
232.353638909
 30
0.0
 40
7.500000000000001
100
AcDbArc
 50
351.6089980177
 51
354.5448481361
  0
ARC
  5
113
330
1F
100
AcDbEntity
  8
0
  6
Continuous
 62
     7
370
    25
100
AcDbCircle
 10
61.6106746397
 20
233.4437886207
 30
0.0
 40
2.600000000000001
100
AcDbArc
 50
248.9496616216
 51
302.8352106601
  0
ARC
  5
114
330
1F
100
AcDbEntity
  8
0
  6
Continuous
 62
     7
370
    25
100
AcDbCircle
 10
55.6007443175
 20
232.353638909
 30
0.0
 40
5.248999999999999
100
AcDbArc
 50
333.2107959738
 51
345.2507424877
  0
ARC
  5
115
330
1F
100
AcDbEntity
  8
0
  6
Continuous
 62
     7
370
    25
100
AcDbCircle
 10
59.3763387847
 20
227.5523291615
 30
0.0
 40
2.600000000000015
100
AcDbArc
 50
15.6263278014
 51
69.5118768399
  0
ARC
  5
116
330
1F
100
AcDbEntity
  8
0
  6
Continuous
 62
     7
370
    25
100
AcDbCircle
 10
55.6007443175
 20
232.353638909
 30
0.0
 40
7.499999999999996
100
AcDbArc
 50
323.9166903254
 51
326.8525404438
  0
ARC
  5
117
330
1F
100
AcDbEntity
  8
0
  6
Continuous
 62
     7
370
    25
100
AcDbCircle
 10
61.4288911671
 20
230.525964657
 30
0.0
 40
2.600000000000003
100
AcDbArc
 50
221.2573539293
 51
275.1429029678
  0
ARC
  5
118
330
1F
100
AcDbEntity
  8
0
  6
Continuous
 62
     7
370
    25
100
AcDbCircle
 10
55.6007443175
 20
232.353638909
 30
0.0
 40
5.248999999999999
100
AcDbArc
 50
305.5184882815
 51
317.5584347954
  0
ARC
  5
119
330
1F
100
AcDbEntity
  8
0
  6
Continuous
 62
     7
370
    25
100
AcDbCircle
 10
56.7125872931
 20
226.3476840249
 30
0.0
 40
2.60000000000001
100
AcDbArc
 50
347.9340201091
 51
41.8195691476
  0
ARC
  5
11A
330
1F
100
AcDbEntity
  8
0
  6
Continuous
 62
     7
370
    25
100
AcDbCircle
 10
55.6007443175
 20
232.353638909
 30
0.0
 40
7.499999999999996
100
AcDbArc
 50
296.2243826331
 51
299.1602327515
  0
ARC
  5
11B
330
1F
100
AcDbEntity
  8
0
  6
Continuous
 62
     7
370
    25
100
AcDbCircle
 10
59.9119494881
 20
228.0268388386
 30
0.0
 40
2.600000000000018
100
AcDbArc
 50
193.565046237
 51
247.4505952755
  0
ARC
  5
11C
330
1F
100
AcDbEntity
  8
0
  6
Continuous
 62
     7
370
    25
100
AcDbCircle
 10
55.6007443175
 20
232.353638909
 30
0.0
 40
5.248999999999998
100
AcDbArc
 50
277.8261805892
 51
289.8661271031
  0
ARC
  5
11D
330
1F
100
AcDbEntity
  8
0
  6
Continuous
 62
     7
370
    25
100
AcDbCircle
 10
53.7941259749
 20
226.5189307727
 30
0.0
 40
2.60000000000001
100
AcDbArc
 50
320.2417124168
 51
14.1272614553
  0
ARC
  5
11E
330
1F
100
AcDbEntity
  8
0
  6
Continuous
 62
     7
370
    25
100
AcDbCircle
 10
55.6007443175
 20
232.353638909
 30
0.0
 40
7.499999999999991
100
AcDbArc
 50
268.5320749408
 51
271.4679250592
  0
ARC
  5
11F
330
1F
100
AcDbEntity
  8
0
  6
Continuous
 62
     7
370
    25
100
AcDbCircle
 10
57.4073626601
 20
226.5189307727
 30
0.0
 40
2.599999999999997
100
AcDbArc
 50
165.8727385447
 51
219.7582875832
  0
ARC
  5
120
330
1F
100
AcDbEntity
  8
0
  6
Continuous
 62
     7
370
    25
100
AcDbCircle
 10
55.6007443175
 20
232.353638909
 30
0.0
 40
5.249000000000009
100
AcDbArc
 50
250.1338728969
 51
262.1738194108
  0
ARC
  5
121
330
1F
100
AcDbEntity
  8
0
  6
Continuous
 62
     7
370
    25
100
AcDbCircle
 10
51.289539147
 20
228.0268388386
 30
0.0
 40
2.600000000000005
100
AcDbArc
 50
292.5494047245
 51
346.434953763
  0
ARC
  5
122
330
1F
100
AcDbEntity
  8
0
  6
Continuous
 62
     7
370
    25
100
AcDbCircle
 10
55.6007443175
 20
232.353638909
 30
0.0
 40
7.499999999999988
100
AcDbArc
 50
240.8397672485
 51
243.7756173669
  0
ARC
  5
123
330
1F
100
AcDbEntity
  8
0
  6
Continuous
 62
     7
370
    25
100
AcDbCircle
 10
54.4889013419
 20
226.3476840249
 30
0.0
 40
2.600000000000012
100
AcDbArc
 50
138.1804308524
 51
192.0659798909
  0
ARC
  5
124
330
1F
100
AcDbEntity
  8
0
  6
Continuous
 62
     7
370
    25
100
AcDbCircle
 10
55.6007443175
 20
232.353638909
 30
0.0
 40
5.24900000000001
100
AcDbArc
 50
222.4415652046
 51
234.4815117185
  0
ARC
  5
125
330
1F
100
AcDbEntity
  8
0
  6
Continuous
 62
     7
370
    25
100
AcDbCircle
 10
49.7725974679
 20
230.525964657
 30
0.0
 40
2.6
100
AcDbArc
 50
264.8570970322
 51
318.7426460707
  0
ARC
  5
126
330
1F
100
AcDbEntity
  8
0
  6
Continuous
 62
     7
370
    25
100
AcDbCircle
 10
55.6007443175
 20
232.353638909
 30
0.0
 40
7.500000000000005
100
AcDbArc
 50
213.1474595562
 51
216.0833096746
  0
ARC
  5
127
330
1F
100
AcDbEntity
  8
0
  6
Continuous
 62
     7
370
    25
100
AcDbCircle
 10
51.8251498503
 20
227.5523291615
 30
0.0
 40
2.600000000000016
100
AcDbArc
 50
110.4881231601
 51
164.3736721986
  0
ARC
  5
128
330
1F
100
AcDbEntity
  8
0
  6
Continuous
 62
     7
370
    25
100
AcDbCircle
 10
55.6007443175
 20
232.353638909
 30
0.0
 40
5.249
100
AcDbArc
 50
194.7492575123
 51
206.7892040262
  0
ARC
  5
129
330
1F
100
AcDbEntity
  8
0
  6
Continuous
 62
     7
370
    25
100
AcDbCircle
 10
49.5908139953
 20
233.4437886207
 30
0.0
 40
2.59999999999999
100
AcDbArc
 50
237.1647893399
 51
291.0503383784
  0
ARC
  5
12A
330
1F
100
AcDbEntity
  8
0
  6
Continuous
 62
     7
370
    25
100
AcDbCircle
 10
55.6007443175
 20
232.353638909
 30
0.0
 40
7.500000000000004
100
AcDbArc
 50
185.4551518639
 51
188.3910019823
  0
ARC
  5
12B
330
1F
100
AcDbEntity
  8
0
  6
Continuous
 62
     7
370
    25
100
AcDbCircle
 10
50.0263415503
 20
229.8568964992
 30
0.0
 40
2.6
100
AcDbArc
 50
82.7958154678
 51
136.6813645063
  0
ARC
  5
12C
330
1F
100
AcDbEntity
  8
0
  6
Continuous
 62
     7
370
    25
100
AcDbCircle
 10
55.6007443175
 20
232.353638909
 30
0.0
 40
5.249000000000009
100
AcDbArc
 50
167.05694982
 51
179.0968963339
  0
ARC
  5
12D
330
1F
100
AcDbEntity
  8
0
  6
Continuous
 62
     7
370
    25
100
AcDbCircle
 10
50.785833132
 20
236.1118724232
 30
0.0
 40
2.599999999999993
100
AcDbArc
 50
209.4724816475
 51
263.358030686
  0
ARC
  5
12E
330
1F
100
AcDbEntity
  8
0
  6
Continuous
 62
     7
370
    25
100
AcDbCircle
 10
55.6007443175
 20
232.353638909
 30
0.0
 40
7.500000000000011
100
AcDbArc
 50
157.7628441716
 51
160.69869429
  0
ARC
  5
12F
330
1F
100
AcDbEntity
  8
0
  6
Continuous
 62
     7
370
    25
100
AcDbCircle
 10
49.5045617454
 20
232.7334374339
 30
0.0
 40
2.600000000000001
100
AcDbArc
 50
55.1035077755
 51
108.989056814
  0
ARC
  5
130
330
1F
100
AcDbEntity
  8
0
  6
Continuous
 62
     7
370
    25
100
AcDbCircle
 10
55.6007443175
 20
232.353638909
 30
0.0
 40
5.249000000000016
100
AcDbArc
 50
139.3646421277
 51
151.4045886415
  0
ARC
  5
131
330
1F
100
AcDbEntity
  8
0
  6
Continuous
 62
     7
370
    25
100
AcDbCircle
 10
53.0838903954
 20
237.9189902192
 30
0.0
 40
2.600000000000009
100
AcDbArc
 50
181.7801739552
 51
235.6657229937
  0
LINE
  5
132
330
1F
100
AcDbEntity
  8
0
  6
Continuous
 62
     7
370
    25
100
AcDbLine
 10
56.1007443175
 20
233.7678524714
 30
0.0
 11
56.1007443175
 21
230.9394253466
 31
0.0
  0
ARC
  5
133
330
1F
100
AcDbEntity
  8
0
  6
Continuous
 62
     7
370
    25
100
AcDbCircle
 10
55.6007443175
 20
232.353638909
 30
0.0
 40
1.500000000000011
100
AcDbArc
 50
70.5287793655
 51
289.4712206345
  0
ARC
  5
134
330
1F
100
AcDbEntity
  8
0
  6
Continuous
 62
     7
370
    25
100
AcDbCircle
 10
61.1751470847
 20
229.8568964992
 30
0.0
 40
2.600000000000009
100
AcDbArc
 50
43.3186354937
 51
97.2041845322
  0
ARC
  5
135
330
1F
100
AcDbEntity
  8
0
  6
Continuous
 62
     7
370
    25
100
AcDbCircle
 10
45.2102225886
 20
280.4592382281
 30
0.0
 40
13.5
100
AcDbArc
 50
168.0135492849
 51
170.3864507151
  0
ARC
  5
136
330
1F
100
AcDbEntity
  8
0
  6
Continuous
 62
     7
370
    25
100
AcDbCircle
 10
33.6232188646
 20
278.532176512
 30
0.0
 40
5.000000000000034
100
AcDbArc
 50
81.3735217574
 51
108.8886776571
  0
ARC
  5
137
330
1F
100
AcDbEntity
  8
0
  6
Continuous
 62
     7
370
    25
100
AcDbCircle
 10
45.2102225886
 20
280.4592382281
 30
0.0
 40
11.24900000000001
100
AcDbArc
 50
159.5539716321
 51
164.4460283679
  0
ARC
  5
138
330
1F
100
AcDbEntity
  8
0
  6
Continuous
 62
     7
370
    25
100
AcDbCircle
 10
36.968838119
 20
288.8289338129
 30
0.0
 40
4.999999999999987
100
AcDbArc
 50
215.1113223429
 51
242.6264782426
  0
ARC
  5
139
330
1F
100
AcDbEntity
  8
0
  6
Continuous
 62
     7
370
    25
100
AcDbCircle
 10
45.2102225886
 20
280.4592382281
 30
0.0
 40
13.50000000000002
100
AcDbArc
 50
153.6135492849
 51
155.9864507151
  0
ARC
  5
13A
330
1F
100
AcDbEntity
  8
0
  6
Continuous
 62
     7
370
    25
100
AcDbCircle
 10
33.5080051328
 20
281.4742893481
 30
0.0
 40
5.000000000000059
100
AcDbArc
 50
66.9735217574
 51
94.4886776571
  0
ARC
  5
13B
330
1F
100
AcDbEntity
  8
0
  6
Continuous
 62
     7
370
    25
100
AcDbCircle
 10
45.2102225886
 20
280.4592382281
 30
0.0
 40
11.24900000000003
100
AcDbArc
 50
145.1539716321
 51
150.0460283679
  0
ARC
  5
13C
330
1F
100
AcDbEntity
  8
0
  6
Continuous
 62
     7
370
    25
100
AcDbCircle
 10
39.3092150175
 20
290.6155334091
 30
0.0
 40
5.000000000000002
100
AcDbArc
 50
200.7113223429
 51
228.2264782426
  0
ARC
  5
13D
330
1F
100
AcDbEntity
  8
0
  6
Continuous
 62
     7
370
    25
100
AcDbCircle
 10
45.2102225886
 20
280.4592382281
 30
0.0
 40
13.5
100
AcDbArc
 50
139.2135492849
 51
141.5864507151
  0
ARC
  5
13E
330
1F
100
AcDbEntity
  8
0
  6
Continuous
 62
     7
370
    25
100
AcDbCircle
 10
34.1280847616
 20
284.3526227893
 30
0.0
 40
5.000000000000009
100
AcDbArc
 50
52.5735217574
 51
80.0886776571
  0
ARC
  5
13F
330
1F
100
AcDbEntity
  8
0
  6
Continuous
 62
     7
370
    25
100
AcDbCircle
 10
45.2102225886
 20
280.4592382281
 30
0.0
 40
11.24900000000003
100
AcDbArc
 50
130.7539716321
 51
135.6460283679
  0
ARC
  5
140
330
1F
100
AcDbEntity
  8
0
  6
Continuous
 62
     7
370
    25
100
AcDbCircle
 10
42.0203739241
 20
291.7639756269
 30
0.0
 40
5.000000000000001
100
AcDbArc
 50
186.3113223429
 51
213.8264782426
  0
ARC
  5
141
330
1F
100
AcDbEntity
  8
0
  6
Continuous
 62
     7
370
    25
100
AcDbCircle
 10
45.2102225886
 20
280.4592382281
 30
0.0
 40
13.50000000000001
100
AcDbArc
 50
124.8135492849
 51
127.1864507151
  0
ARC
  5
142
330
1F
100
AcDbEntity
  8
0
  6
Continuous
 62
     7
370
    25
100
AcDbCircle
 10
35.4444958673
 20
286.9863205596
 30
0.0
 40
5.000000000000025
100
AcDbArc
 50
38.1735217574
 51
65.6886776571
  0
ARC
  5
143
330
1F
100
AcDbEntity
  8
0
  6
Continuous
 62
     7
370
    25
100
AcDbCircle
 10
45.2102225886
 20
280.4592382281
 30
0.0
 40
11.24899999999999
100
AcDbArc
 50
116.3539716321
 51
121.2460283679
  0
ARC
  5
144
330
1F
100
AcDbEntity
  8
0
  6
Continuous
 62
     7
370
    25
100
AcDbCircle
 10
44.9319627538
 20
292.202099618
 30
0.0
 40
5.000000000000012
100
AcDbArc
 50
171.9113223429
 51
199.4264782426
  0
ARC
  5
145
330
1F
100
AcDbEntity
  8
0
  6
Continuous
 62
     7
370
    25
100
AcDbCircle
 10
45.2102225886
 20
280.4592382281
 30
0.0
 40
13.50000000000001
100
AcDbArc
 50
110.4135492849
 51
112.7864507151
  0
ARC
  5
146
330
1F
100
AcDbEntity
  8
0
  6
Continuous
 62
     7
370
    25
100
AcDbCircle
 10
37.3745234987
 20
289.2098977421
 30
0.0
 40
4.999999999999985
100
AcDbArc
 50
23.7735217574
 51
51.2886776571
  0
ARC
  5
147
330
1F
100
AcDbEntity
  8
0
  6
Continuous
 62
     7
370
    25
100
AcDbCircle
 10
45.2102225886
 20
280.4592382281
 30
0.0
 40
11.24899999999998
100
AcDbArc
 50
101.9539716321
 51
106.8460283679
  0
ARC
  5
148
330
1F
100
AcDbEntity
  8
0
  6
Continuous
 62
     7
370
    25
100
AcDbCircle
 10
47.8610356722
 20
291.9023764408
 30
0.0
 40
4.999999999999997
100
AcDbArc
 50
157.5113223429
 51
185.0264782426
  0
ARC
  5
149
330
1F
100
AcDbEntity
  8
0
  6
Continuous
 62
     7
370
    25
100
AcDbCircle
 10
45.2102225886
 20
280.4592382281
 30
0.0
 40
13.5
100
AcDbArc
 50
96.0135492849
 51
98.3864507151
  0
ARC
  5
14A
330
1F
100
AcDbEntity
  8
0
  6
Continuous
 62
     7
370
    25
100
AcDbCircle
 10
39.7968969216
 20
290.8836388047
 30
0.0
 40
5.000000000000019
100
AcDbArc
 50
9.3735217574
 51
36.8886776571
  0
ARC
  5
14B
330
1F
100
AcDbEntity
  8
0
  6
Continuous
 62
     7
370
    25
100
AcDbCircle
 10
45.2102225886
 20
280.4592382281
 30
0.0
 40
11.24899999999998
100
AcDbArc
 50
87.5539716321
 51
92.4460283679
  0
ARC
  5
14C
330
1F
100
AcDbEntity
  8
0
  6
Continuous
 62
     7
370
    25
100
AcDbCircle
 10
50.6235482556
 20
290.8836388047
 30
0.0
 40
5.000000000000012
100
AcDbArc
 50
143.1113223429
 51
170.6264782426
  0
ARC
  5
14D
330
1F
100
AcDbEntity
  8
0
  6
Continuous
 62
     7
370
    25
100
AcDbCircle
 10
45.2102225886
 20
280.4592382281
 30
0.0
 40
13.50000000000001
100
AcDbArc
 50
81.6135492849
 51
83.9864507151
  0
ARC
  5
14E
330
1F
100
AcDbEntity
  8
0
  6
Continuous
 62
     7
370
    25
100
AcDbCircle
 10
42.559409505
 20
291.9023764408
 30
0.0
 40
5.000000000000005
100
AcDbArc
 50
354.9735217574
 51
22.4886776571
  0
ARC
  5
14F
330
1F
100
AcDbEntity
  8
0
  6
Continuous
 62
     7
370
    25
100
AcDbCircle
 10
45.2102225886
 20
280.4592382281
 30
0.0
 40
11.249
100
AcDbArc
 50
73.1539716321
 51
78.0460283679
  0
ARC
  5
150
330
1F
100
AcDbEntity
  8
0
  6
Continuous
 62
     7
370
    25
100
AcDbCircle
 10
53.0459216785
 20
289.2098977421
 30
0.0
 40
5.000000000000016
100
AcDbArc
 50
128.7113223429
 51
156.2264782426
  0
ARC
  5
151
330
1F
100
AcDbEntity
  8
0
  6
Continuous
 62
     7
370
    25
100
AcDbCircle
 10
45.2102225886
 20
280.4592382281
 30
0.0
 40
13.5
100
AcDbArc
 50
67.2135492849
 51
69.5864507151
  0
ARC
  5
152
330
1F
100
AcDbEntity
  8
0
  6
Continuous
 62
     7
370
    25
100
AcDbCircle
 10
45.4884824235
 20
292.202099618
 30
0.0
 40
5.000000000000026
100
AcDbArc
 50
340.5735217574
 51
8.0886776571
  0
ARC
  5
153
330
1F
100
AcDbEntity
  8
0
  6
Continuous
 62
     7
370
    25
100
AcDbCircle
 10
45.2102225886
 20
280.4592382281
 30
0.0
 40
11.24899999999998
100
AcDbArc
 50
58.7539716321
 51
63.6460283679
  0
ARC
  5
154
330
1F
100
AcDbEntity
  8
0
  6
Continuous
 62
     7
370
    25
100
AcDbCircle
 10
54.97594931
 20
286.9863205596
 30
0.0
 40
5.000000000000005
100
AcDbArc
 50
114.3113223429
 51
141.8264782426
  0
ARC
  5
155
330
1F
100
AcDbEntity
  8
0
  6
Continuous
 62
     7
370
    25
100
AcDbCircle
 10
45.2102225886
 20
280.4592382281
 30
0.0
 40
13.50000000000004
100
AcDbArc
 50
52.8135492849
 51
55.1864507151
  0
ARC
  5
156
330
1F
100
AcDbEntity
  8
0
  6
Continuous
 62
     7
370
    25
100
AcDbCircle
 10
48.4000712531
 20
291.7639756269
 30
0.0
 40
4.999999999999989
100
AcDbArc
 50
326.1735217574
 51
353.6886776571
  0
ARC
  5
157
330
1F
100
AcDbEntity
  8
0
  6
Continuous
 62
     7
370
    25
100
AcDbCircle
 10
45.2102225886
 20
280.4592382281
 30
0.0
 40
11.24900000000002
100
AcDbArc
 50
44.3539716321
 51
49.2460283679
  0
ARC
  5
158
330
1F
100
AcDbEntity
  8
0
  6
Continuous
 62
     7
370
    25
100
AcDbCircle
 10
56.2923604156
 20
284.3526227893
 30
0.0
 40
5.000000000000012
100
AcDbArc
 50
99.9113223429
 51
127.4264782426
  0
ARC
  5
159
330
1F
100
AcDbEntity
  8
0
  6
Continuous
 62
     7
370
    25
100
AcDbCircle
 10
45.2102225886
 20
280.4592382281
 30
0.0
 40
13.49999999999998
100
AcDbArc
 50
38.4135492849
 51
40.7864507151
  0
ARC
  5
15A
330
1F
100
AcDbEntity
  8
0
  6
Continuous
 62
     7
370
    25
100
AcDbCircle
 10
51.1112301597
 20
290.6155334091
 30
0.0
 40
5.000000000000015
100
AcDbArc
 50
311.7735217574
 51
339.2886776571
  0
ARC
  5
15B
330
1F
100
AcDbEntity
  8
0
  6
Continuous
 62
     7
370
    25
100
AcDbCircle
 10
45.2102225886
 20
280.4592382281
 30
0.0
 40
11.249
100
AcDbArc
 50
29.9539716321
 51
34.8460283679
  0
ARC
  5
15C
330
1F
100
AcDbEntity
  8
0
  6
Continuous
 62
     7
370
    25
100
AcDbCircle
 10
56.9124400444
 20
281.4742893481
 30
0.0
 40
5.000000000000012
100
AcDbArc
 50
85.5113223429
 51
113.0264782426
  0
ARC
  5
15D
330
1F
100
AcDbEntity
  8
0
  6
Continuous
 62
     7
370
    25
100
AcDbCircle
 10
45.2102225886
 20
280.4592382281
 30
0.0
 40
13.49999999999999
100
AcDbArc
 50
24.0135492849
 51
26.3864507151
  0
ARC
  5
15E
330
1F
100
AcDbEntity
  8
0
  6
Continuous
 62
     7
370
    25
100
AcDbCircle
 10
53.4516070583
 20
288.8289338129
 30
0.0
 40
5.000000000000005
100
AcDbArc
 50
297.3735217574
 51
324.8886776571
  0
ARC
  5
15F
330
1F
100
AcDbEntity
  8
0
  6
Continuous
 62
     7
370
    25
100
AcDbCircle
 10
45.2102225886
 20
280.4592382281
 30
0.0
 40
11.249
100
AcDbArc
 50
15.5539716321
 51
20.4460283679
  0
ARC
  5
160
330
1F
100
AcDbEntity
  8
0
  6
Continuous
 62
     7
370
    25
100
AcDbCircle
 10
56.7972263127
 20
278.532176512
 30
0.0
 40
5.000000000000065
100
AcDbArc
 50
71.1113223429
 51
98.6264782426
  0
ARC
  5
161
330
1F
100
AcDbEntity
  8
0
  6
Continuous
 62
     7
370
    25
100
AcDbCircle
 10
55.2741474609
 20
286.5164354614
 30
0.0
 40
4.999999999999993
100
AcDbArc
 50
282.9735217574
 51
310.4886776571
  0
ARC
  5
162
330
1F
100
AcDbEntity
  8
0
  6
Continuous
 62
     7
370
    25
100
AcDbCircle
 10
45.2102225886
 20
280.4592382281
 30
0.0
 40
11.249
100
AcDbArc
 50
1.1539716321
 51
6.0460283679
  0
ARC
  5
163
330
1F
100
AcDbEntity
  8
0
  6
Continuous
 62
     7
370
    25
100
AcDbCircle
 10
55.9539585229
 20
275.7111480507
 30
0.0
 40
4.999999999999987
100
AcDbArc
 50
56.7113223429
 51
84.2264782426
  0
ARC
  5
164
330
1F
100
AcDbEntity
  8
0
  6
Continuous
 62
     7
370
    25
100
AcDbCircle
 10
45.2102225886
 20
280.4592382281
 30
0.0
 40
13.5
100
AcDbArc
 50
355.2135492849
 51
357.5864507151
  0
ARC
  5
165
330
1F
100
AcDbEntity
  8
0
  6
Continuous
 62
     7
370
    25
100
AcDbCircle
 10
56.4643344513
 20
283.823341131
 30
0.0
 40
5.000000000000039
100
AcDbArc
 50
268.5735217574
 51
296.0886776571
  0
ARC
  5
166
330
1F
100
AcDbEntity
  8
0
  6
Continuous
 62
     7
370
    25
100
AcDbCircle
 10
45.2102225886
 20
280.4592382281
 30
0.0
 40
11.249
100
AcDbArc
 50
346.7539716321
 51
351.6460283679
  0
ARC
  5
167
330
1F
100
AcDbEntity
  8
0
  6
Continuous
 62
     7
370
    25
100
AcDbCircle
 10
54.4356222918
 20
273.1884595575
 30
0.0
 40
4.999999999999956
100
AcDbArc
 50
42.3113223429
 51
69.8264782426
  0
ARC
  5
168
330
1F
100
AcDbEntity
  8
0
  6
Continuous
 62
     7
370
    25
100
AcDbCircle
 10
45.2102225886
 20
280.4592382281
 30
0.0
 40
13.5
100
AcDbArc
 50
340.8135492849
 51
343.1864507151
  0
ARC
  5
169
330
1F
100
AcDbEntity
  8
0
  6
Continuous
 62
     7
370
    25
100
AcDbCircle
 10
56.9473842036
 20
280.9188678429
 30
0.0
 40
5.000000000000038
100
AcDbArc
 50
254.1735217574
 51
281.6886776571
  0
ARC
  5
16A
330
1F
100
AcDbEntity
  8
0
  6
Continuous
 62
     7
370
    25
100
AcDbCircle
 10
45.2102225886
 20
280.4592382281
 30
0.0
 40
11.249
100
AcDbArc
 50
332.3539716321
 51
337.2460283679
  0
ARC
  5
16B
330
1F
100
AcDbEntity
  8
0
  6
Continuous
 62
     7
370
    25
100
AcDbCircle
 10
52.3376202686
 20
271.1226208283
 30
0.0
 40
4.999999999999996
100
AcDbArc
 50
27.9113223429
 51
55.4264782426
  0
ARC
  5
16C
330
1F
100
AcDbEntity
  8
0
  6
Continuous
 62
     7
370
    25
100
AcDbCircle
 10
45.2102225886
 20
280.4592382281
 30
0.0
 40
13.5
100
AcDbArc
 50
326.4135492849
 51
328.7864507151
  0
ARC
  5
16D
330
1F
100
AcDbEntity
  8
0
  6
Continuous
 62
     7
370
    25
100
AcDbCircle
 10
56.6929449254
 20
277.9855143357
 30
0.0
 40
4.999999999999974
100
AcDbArc
 50
239.7735217574
 51
267.2886776571
  0
ARC
  5
16E
330
1F
100
AcDbEntity
  8
0
  6
Continuous
 62
     7
370
    25
100
AcDbCircle
 10
45.2102225886
 20
280.4592382281
 30
0.0
 40
11.249
100
AcDbArc
 50
317.9539716321
 51
322.8460283679
  0
ARC
  5
16F
330
1F
100
AcDbEntity
  8
0
  6
Continuous
 62
     7
370
    25
100
AcDbCircle
 10
49.7917776364
 20
269.6434361079
 30
0.0
 40
4.999999999999991
100
AcDbArc
 50
13.5113223429
 51
41.0264782426
  0
ARC
  5
170
330
1F
100
AcDbEntity
  8
0
  6
Continuous
 62
     7
370
    25
100
AcDbCircle
 10
45.2102225886
 20
280.4592382281
 30
0.0
 40
13.50000000000002
100
AcDbArc
 50
312.0135492849
 51
314.3864507151
  0
ARC
  5
171
330
1F
100
AcDbEntity
  8
0
  6
Continuous
 62
     7
370
    25
100
AcDbCircle
 10
55.7170039722
 20
275.2075939984
 30
0.0
 40
4.999999999999988
100
AcDbArc
 50
225.3735217574
 51
252.8886776571
  0
ARC
  5
172
330
1F
100
AcDbEntity
  8
0
  6
Continuous
 62
     7
370
    25
100
AcDbCircle
 10
45.2102225886
 20
280.4592382281
 30
0.0
 40
11.24900000000002
100
AcDbArc
 50
303.5539716321
 51
308.4460283679
  0
ARC
  5
173
330
1F
100
AcDbEntity
  8
0
  6
Continuous
 62
     7
370
    25
100
AcDbCircle
 10
46.9580590509
 20
268.8438480125
 30
0.0
 40
5.000000000000002
100
AcDbArc
 50
359.1113223429
 51
26.6264782426
  0
ARC
  5
174
330
1F
100
AcDbEntity
  8
0
  6
Continuous
 62
     7
370
    25
100
AcDbCircle
 10
45.2102225886
 20
280.4592382281
 30
0.0
 40
13.50000000000001
100
AcDbArc
 50
297.6135492849
 51
299.9864507151
  0
ARC
  5
175
330
1F
100
AcDbEntity
  8
0
  6
Continuous
 62
     7
370
    25
100
AcDbCircle
 10
54.0808833035
 20
272.7596537822
 30
0.0
 40
4.999999999999995
100
AcDbArc
 50
210.9735217574
 51
238.4886776571
  0
ARC
  5
176
330
1F
100
AcDbEntity
  8
0
  6
Continuous
 62
     7
370
    25
100
AcDbCircle
 10
45.2102225886
 20
280.4592382281
 30
0.0
 40
11.24900000000004
100
AcDbArc
 50
289.1539716321
 51
294.0460283679
  0
ARC
  5
177
330
1F
100
AcDbEntity
  8
0
  6
Continuous
 62
     7
370
    25
100
AcDbCircle
 10
44.0145174723
 20
268.7740976028
 30
0.0
 40
5.000000000000002
100
AcDbArc
 50
344.7113223429
 51
12.2264782426
  0
ARC
  5
178
330
1F
100
AcDbEntity
  8
0
  6
Continuous
 62
     7
370
    25
100
AcDbCircle
 10
45.2102225886
 20
280.4592382281
 30
0.0
 40
13.50000000000001
100
AcDbArc
 50
283.2135492849
 51
285.5864507151
  0
ARC
  5
179
330
1F
100
AcDbEntity
  8
0
  6
Continuous
 62
     7
370
    25
100
AcDbCircle
 10
51.8873863981
 20
270.7955067738
 30
0.0
 40
5.000000000000004
100
AcDbArc
 50
196.5735217574
 51
224.0886776571
  0
ARC
  5
17A
330
1F
100
AcDbEntity
  8
0
  6
Continuous
 62
     7
370
    25
100
AcDbCircle
 10
45.2102225886
 20
280.4592382281
 30
0.0
 40
11.249
100
AcDbArc
 50
274.7539716321
 51
279.6460283679
  0
ARC
  5
17B
330
1F
100
AcDbEntity
  8
0
  6
Continuous
 62
     7
370
    25
100
AcDbCircle
 10
41.1461064436
 20
269.4385675535
 30
0.0
 40
4.999999999999992
100
AcDbArc
 50
330.3113223429
 51
357.8264782426
  0
ARC
  5
17C
330
1F
100
AcDbEntity
  8
0
  6
Continuous
 62
     7
370
    25
100
AcDbCircle
 10
45.2102225886
 20
280.4592382281
 30
0.0
 40
13.50000000000002
100
AcDbArc
 50
268.8135492849
 51
271.1864507151
  0
ARC
  5
17D
330
1F
100
AcDbEntity
  8
0
  6
Continuous
 62
     7
370
    25
100
AcDbCircle
 10
49.2743387336
 20
269.4385675535
 30
0.0
 40
4.999999999999995
100
AcDbArc
 50
182.1735217574
 51
209.6886776571
  0
ARC
  5
17E
330
1F
100
AcDbEntity
  8
0
  6
Continuous
 62
     7
370
    25
100
AcDbCircle
 10
45.2102225886
 20
280.4592382281
 30
0.0
 40
11.24899999999999
100
AcDbArc
 50
260.3539716321
 51
265.2460283679
  0
ARC
  5
17F
330
1F
100
AcDbEntity
  8
0
  6
Continuous
 62
     7
370
    25
100
AcDbCircle
 10
38.5330587791
 20
270.7955067738
 30
0.0
 40
5.00000000000003
100
AcDbArc
 50
315.9113223429
 51
343.4264782426
  0
ARC
  5
180
330
1F
100
AcDbEntity
  8
0
  6
Continuous
 62
     7
370
    25
100
AcDbCircle
 10
45.2102225886
 20
280.4592382281
 30
0.0
 40
13.50000000000001
100
AcDbArc
 50
254.4135492849
 51
256.7864507151
  0
ARC
  5
181
330
1F
100
AcDbEntity
  8
0
  6
Continuous
 62
     7
370
    25
100
AcDbCircle
 10
46.405927705
 20
268.7740976028
 30
0.0
 40
5.000000000000018
100
AcDbArc
 50
167.7735217574
 51
195.2886776571
  0
ARC
  5
182
330
1F
100
AcDbEntity
  8
0
  6
Continuous
 62
     7
370
    25
100
AcDbCircle
 10
45.2102225886
 20
280.4592382281
 30
0.0
 40
11.24900000000005
100
AcDbArc
 50
245.9539716321
 51
250.8460283679
  0
ARC
  5
183
330
1F
100
AcDbEntity
  8
0
  6
Continuous
 62
     7
370
    25
100
AcDbCircle
 10
36.3395618737
 20
272.7596537822
 30
0.0
 40
4.999999999999966
100
AcDbArc
 50
301.5113223429
 51
329.0264782426
  0
ARC
  5
184
330
1F
100
AcDbEntity
  8
0
  6
Continuous
 62
     7
370
    25
100
AcDbCircle
 10
45.2102225886
 20
280.4592382281
 30
0.0
 40
13.50000000000003
100
AcDbArc
 50
240.0135492849
 51
242.3864507151
  0
ARC
  5
185
330
1F
100
AcDbEntity
  8
0
  6
Continuous
 62
     7
370
    25
100
AcDbCircle
 10
43.4623861264
 20
268.8438480125
 30
0.0
 40
5.000000000000014
100
AcDbArc
 50
153.3735217574
 51
180.8886776571
  0
ARC
  5
186
330
1F
100
AcDbEntity
  8
0
  6
Continuous
 62
     7
370
    25
100
AcDbCircle
 10
45.2102225886
 20
280.4592382281
 30
0.0
 40
11.249
100
AcDbArc
 50
231.5539716321
 51
236.4460283679
  0
ARC
  5
187
330
1F
100
AcDbEntity
  8
0
  6
Continuous
 62
     7
370
    25
100
AcDbCircle
 10
34.703441205
 20
275.2075939984
 30
0.0
 40
4.999999999999989
100
AcDbArc
 50
287.1113223429
 51
314.6264782426
  0
ARC
  5
188
330
1F
100
AcDbEntity
  8
0
  6
Continuous
 62
     7
370
    25
100
AcDbCircle
 10
45.2102225886
 20
280.4592382281
 30
0.0
 40
13.50000000000001
100
AcDbArc
 50
225.6135492849
 51
227.9864507151
  0
ARC
  5
189
330
1F
100
AcDbEntity
  8
0
  6
Continuous
 62
     7
370
    25
100
AcDbCircle
 10
40.6286675408
 20
269.6434361079
 30
0.0
 40
4.999999999999984
100
AcDbArc
 50
138.9735217574
 51
166.4886776571
  0
ARC
  5
18A
330
1F
100
AcDbEntity
  8
0
  6
Continuous
 62
     7
370
    25
100
AcDbCircle
 10
45.2102225886
 20
280.4592382281
 30
0.0
 40
11.24900000000001
100
AcDbArc
 50
217.1539716321
 51
222.0460283679
  0
ARC
  5
18B
330
1F
100
AcDbEntity
  8
0
  6
Continuous
 62
     7
370
    25
100
AcDbCircle
 10
33.7275002519
 20
277.9855143357
 30
0.0
 40
4.999999999999931
100
AcDbArc
 50
272.7113223429
 51
300.2264782426
  0
ARC
  5
18C
330
1F
100
AcDbEntity
  8
0
  6
Continuous
 62
     7
370
    25
100
AcDbCircle
 10
45.2102225886
 20
280.4592382281
 30
0.0
 40
13.5
100
AcDbArc
 50
211.2135492849
 51
213.5864507151
  0
ARC
  5
18D
330
1F
100
AcDbEntity
  8
0
  6
Continuous
 62
     7
370
    25
100
AcDbCircle
 10
38.0828249087
 20
271.1226208283
 30
0.0
 40
5.000000000000001
100
AcDbArc
 50
124.5735217574
 51
152.0886776571
  0
ARC
  5
18E
330
1F
100
AcDbEntity
  8
0
  6
Continuous
 62
     7
370
    25
100
AcDbCircle
 10
45.2102225886
 20
280.4592382281
 30
0.0
 40
11.249
100
AcDbArc
 50
202.7539716321
 51
207.6460283679
  0
ARC
  5
18F
330
1F
100
AcDbEntity
  8
0
  6
Continuous
 62
     7
370
    25
100
AcDbCircle
 10
33.4730609737
 20
280.9188678429
 30
0.0
 40
4.999999999999986
100
AcDbArc
 50
258.3113223429
 51
285.8264782426
  0
ARC
  5
190
330
1F
100
AcDbEntity
  8
0
  6
Continuous
 62
     7
370
    25
100
AcDbCircle
 10
45.2102225886
 20
280.4592382281
 30
0.0
 40
13.50000000000001
100
AcDbArc
 50
196.8135492849
 51
199.1864507151
  0
ARC
  5
191
330
1F
100
AcDbEntity
  8
0
  6
Continuous
 62
     7
370
    25
100
AcDbCircle
 10
35.9848228855
 20
273.1884595575
 30
0.0
 40
4.999999999999992
100
AcDbArc
 50
110.1735217574
 51
137.6886776571
  0
ARC
  5
192
330
1F
100
AcDbEntity
  8
0
  6
Continuous
 62
     7
370
    25
100
AcDbCircle
 10
45.2102225886
 20
280.4592382281
 30
0.0
 40
11.24900000000002
100
AcDbArc
 50
188.3539716321
 51
193.2460283679
  0
ARC
  5
193
330
1F
100
AcDbEntity
  8
0
  6
Continuous
 62
     7
370
    25
100
AcDbCircle
 10
33.956110726
 20
283.823341131
 30
0.0
 40
5.000000000000018
100
AcDbArc
 50
243.9113223429
 51
271.4264782426
  0
ARC
  5
194
330
1F
100
AcDbEntity
  8
0
  6
Continuous
 62
     7
370
    25
100
AcDbCircle
 10
45.2102225886
 20
280.4592382281
 30
0.0
 40
13.50000000000001
100
AcDbArc
 50
182.4135492849
 51
184.7864507151
  0
ARC
  5
195
330
1F
100
AcDbEntity
  8
0
  6
Continuous
 62
     7
370
    25
100
AcDbCircle
 10
34.4664866543
 20
275.7111480507
 30
0.0
 40
4.999999999999993
100
AcDbArc
 50
95.7735217574
 51
123.2886776571
  0
ARC
  5
196
330
1F
100
AcDbEntity
  8
0
  6
Continuous
 62
     7
370
    25
100
AcDbCircle
 10
45.2102225886
 20
280.4592382281
 30
0.0
 40
11.24900000000001
100
AcDbArc
 50
173.9539716321
 51
178.8460283679
  0
ARC
  5
197
330
1F
100
AcDbEntity
  8
0
  6
Continuous
 62
     7
370
    25
100
AcDbCircle
 10
35.1462977163
 20
286.5164354614
 30
0.0
 40
4.99999999999998
100
AcDbArc
 50
229.5113223429
 51
257.0264782426
  0
LINE
  5
198
330
1F
100
AcDbEntity
  8
0
  6
Continuous
 62
     7
370
    25
100
AcDbLine
 10
45.7102225886
 20
281.8734517905
 30
0.0
 11
45.7102225886
 21
279.0450246657
 31
0.0
  0
ARC
  5
199
330
1F
100
AcDbEntity
  8
0
  6
Continuous
 62
     7
370
    25
100
AcDbCircle
 10
45.2102225886
 20
280.4592382281
 30
0.0
 40
1.500000000000011
100
AcDbArc
 50
70.5287793655
 51
289.4712206345
  0
ARC
  5
19A
330
1F
100
AcDbEntity
  8
0
  6
Continuous
 62
     7
370
    25
100
AcDbCircle
 10
45.2102225886
 20
280.4592382281
 30
0.0
 40
13.5
100
AcDbArc
 50
9.6135492849
 51
11.9864507151
  0
ARC
  5
19B
330
1F
100
AcDbEntity
  8
0
  6
Continuous
 62
     7
370
    25
100
AcDbCircle
 10
14.4336356142
 20
282.9447650453
 30
0.0
 40
7.999999999999998
100
AcDbArc
 50
204.2311565087
 51
207.1974149199
  0
ARC
  5
19C
330
1F
100
AcDbEntity
  8
0
  6
Continuous
 62
     7
370
    25
100
AcDbCircle
 10
9.6520021043
 20
278.427678612
 30
0.0
 40
2.800000000000003
100
AcDbArc
 50
104.0164690327
 51
153.856583834
  0
ARC
  5
19D
330
1F
100
AcDbEntity
  8
0
  6
Continuous
 62
     7
370
    25
100
AcDbCircle
 10
14.4336356142
 20
282.9447650453
 30
0.0
 40
5.749000000000003
100
AcDbArc
 50
187.4635039642
 51
198.2507817501
  0
ARC
  5
19E
330
1F
100
AcDbEntity
  8
0
  6
Continuous
 62
     7
370
    25
100
AcDbCircle
 10
8.1656423325
 20
284.9398462691
 30
0.0
 40
2.800000000000032
100
AcDbArc
 50
231.8577018803
 51
281.6978166816
  0
ARC
  5
19F
330
1F
100
AcDbEntity
  8
0
  6
Continuous
 62
     7
370
    25
100
AcDbCircle
 10
14.4336356142
 20
282.9447650453
 30
0.0
 40
8.0
100
AcDbArc
 50
178.5168707944
 51
181.4831292056
  0
ARC
  5
1A0
330
1F
100
AcDbEntity
  8
0
  6
Continuous
 62
     7
370
    25
100
AcDbCircle
 10
8.1656423325
 20
280.9496838216
 30
0.0
 40
2.799999999999984
100
AcDbArc
 50
78.3021833184
 51
128.1422981197
  0
ARC
  5
1A1
330
1F
100
AcDbEntity
  8
0
  6
Continuous
 62
     7
370
    25
100
AcDbCircle
 10
14.4336356142
 20
282.9447650453
 30
0.0
 40
5.748999999999998
100
AcDbArc
 50
161.7492182499
 51
172.5364960358
  0
ARC
  5
1A2
330
1F
100
AcDbEntity
  8
0
  6
Continuous
 62
     7
370
    25
100
AcDbCircle
 10
9.6520021043
 20
287.4618514787
 30
0.0
 40
2.799999999999986
100
AcDbArc
 50
206.143416166
 51
255.9835309673
  0
ARC
  5
1A3
330
1F
100
AcDbEntity
  8
0
  6
Continuous
 62
     7
370
    25
100
AcDbCircle
 10
14.4336356142
 20
282.9447650453
 30
0.0
 40
8.000000000000027
100
AcDbArc
 50
152.8025850801
 51
155.7688434913
  0
ARC
  5
1A4
330
1F
100
AcDbEntity
  8
0
  6
Continuous
 62
     7
370
    25
100
AcDbCircle
 10
7.9207355019
 20
283.8668393357
 30
0.0
 40
2.800000000000044
100
AcDbArc
 50
52.5878976041
 51
102.4280124054
  0
ARC
  5
1A5
330
1F
100
AcDbEntity
  8
0
  6
Continuous
 62
     7
370
    25
100
AcDbCircle
 10
14.4336356142
 20
282.9447650453
 30
0.0
 40
5.749000000000026
100
AcDbArc
 50
136.0349325356
 51
146.8222103215
  0
ARC
  5
1A6
330
1F
100
AcDbEntity
  8
0
  6
Continuous
 62
     7
370
    25
100
AcDbCircle
 10
12.0854230357
 20
289.0891923218
 30
0.0
 40
2.800000000000001
100
AcDbArc
 50
180.4291304517
 51
230.269245253
  0
ARC
  5
1A7
330
1F
100
AcDbEntity
  8
0
  6
Continuous
 62
     7
370
    25
100
AcDbCircle
 10
14.4336356142
 20
282.9447650453
 30
0.0
 40
7.999999999999994
100
AcDbArc
 50
127.0882993658
 51
130.054557777
  0
ARC
  5
1A8
330
1F
100
AcDbEntity
  8
0
  6
Continuous
 62
     7
370
    25
100
AcDbCircle
 10
8.9657884141
 20
286.601366728
 30
0.0
 40
2.799999999999994
100
AcDbArc
 50
26.8736118898
 51
76.7137266911
  0
ARC
  5
1A9
330
1F
100
AcDbEntity
  8
0
  6
Continuous
 62
     7
370
    25
100
AcDbCircle
 10
14.4336356142
 20
282.9447650453
 30
0.0
 40
5.748999999999992
100
AcDbArc
 50
110.3206468213
 51
121.1079246072
  0
ARC
  5
1AA
330
1F
100
AcDbEntity
  8
0
  6
Continuous
 62
     7
370
    25
100
AcDbCircle
 10
14.9839362672
 20
289.4995539863
 30
0.0
 40
2.800000000000009
100
AcDbArc
 50
154.7148447375
 51
204.5549595387
  0
ARC
  5
1AB
330
1F
100
AcDbEntity
  8
0
  6
Continuous
 62
     7
370
    25
100
AcDbCircle
 10
14.4336356142
 20
282.9447650453
 30
0.0
 40
8.000000000000025
100
AcDbArc
 50
101.3740136515
 51
104.3402720628
  0
ARC
  5
1AC
330
1F
100
AcDbEntity
  8
0
  6
Continuous
 62
     7
370
    25
100
AcDbCircle
 10
11.093815523
 20
288.6116593118
 30
0.0
 40
2.8
100
AcDbArc
 50
1.1593261756
 51
50.9994409768
  0
ARC
  5
1AD
330
1F
100
AcDbEntity
  8
0
  6
Continuous
 62
     7
370
    25
100
AcDbCircle
 10
14.4336356142
 20
282.9447650453
 30
0.0
 40
5.748999999999995
100
AcDbArc
 50
84.6063611071
 51
95.3936388929
  0
ARC
  5
1AE
330
1F
100
AcDbEntity
  8
0
  6
Continuous
 62
     7
370
    25
100
AcDbCircle
 10
17.7734557053
 20
288.6116593118
 30
0.0
 40
2.8
100
AcDbArc
 50
129.0005590232
 51
178.8406738244
  0
ARC
  5
1AF
330
1F
100
AcDbEntity
  8
0
  6
Continuous
 62
     7
370
    25
100
AcDbCircle
 10
14.4336356142
 20
282.9447650453
 30
0.0
 40
8.000000000000037
100
AcDbArc
 50
75.6597279372
 51
78.6259863485
  0
ARC
  5
1B0
330
1F
100
AcDbEntity
  8
0
  6
Continuous
 62
     7
370
    25
100
AcDbCircle
 10
13.8833349612
 20
289.4995539863
 30
0.0
 40
2.800000000000017
100
AcDbArc
 50
335.4450404613
 51
25.2851552625
  0
ARC
  5
1B1
330
1F
100
AcDbEntity
  8
0
  6
Continuous
 62
     7
370
    25
100
AcDbCircle
 10
14.4336356142
 20
282.9447650453
 30
0.0
 40
5.749000000000018
100
AcDbArc
 50
58.8920753928
 51
69.6793531787
  0
ARC
  5
1B2
330
1F
100
AcDbEntity
  8
0
  6
Continuous
 62
     7
370
    25
100
AcDbCircle
 10
19.9014828142
 20
286.601366728
 30
0.0
 40
2.800000000000047
100
AcDbArc
 50
103.2862733089
 51
153.1263881102
  0
ARC
  5
1B3
330
1F
100
AcDbEntity
  8
0
  6
Continuous
 62
     7
370
    25
100
AcDbCircle
 10
14.4336356142
 20
282.9447650453
 30
0.0
 40
8.000000000000023
100
AcDbArc
 50
49.945442223
 51
52.9117006342
  0
ARC
  5
1B4
330
1F
100
AcDbEntity
  8
0
  6
Continuous
 62
     7
370
    25
100
AcDbCircle
 10
16.7818481927
 20
289.0891923218
 30
0.0
 40
2.800000000000003
100
AcDbArc
 50
309.730754747
 51
359.5708695483
  0
ARC
  5
1B5
330
1F
100
AcDbEntity
  8
0
  6
Continuous
 62
     7
370
    25
100
AcDbCircle
 10
14.4336356142
 20
282.9447650453
 30
0.0
 40
5.749000000000017
100
AcDbArc
 50
33.1777896785
 51
43.9650674644
  0
ARC
  5
1B6
330
1F
100
AcDbEntity
  8
0
  6
Continuous
 62
     7
370
    25
100
AcDbCircle
 10
20.9465357264
 20
283.8668393357
 30
0.0
 40
2.800000000000037
100
AcDbArc
 50
77.5719875946
 51
127.4121023959
  0
ARC
  5
1B7
330
1F
100
AcDbEntity
  8
0
  6
Continuous
 62
     7
370
    25
100
AcDbCircle
 10
14.4336356142
 20
282.9447650453
 30
0.0
 40
8.000000000000032
100
AcDbArc
 50
24.2311565087
 51
27.1974149199
  0
ARC
  5
1B8
330
1F
100
AcDbEntity
  8
0
  6
Continuous
 62
     7
370
    25
100
AcDbCircle
 10
19.215269124
 20
287.4618514787
 30
0.0
 40
2.799999999999994
100
AcDbArc
 50
284.0164690327
 51
333.856583834
  0
ARC
  5
1B9
330
1F
100
AcDbEntity
  8
0
  6
Continuous
 62
     7
370
    25
100
AcDbCircle
 10
14.4336356142
 20
282.9447650453
 30
0.0
 40
5.749000000000009
100
AcDbArc
 50
7.4635039642
 51
18.2507817501
  0
ARC
  5
1BA
330
1F
100
AcDbEntity
  8
0
  6
Continuous
 62
     7
370
    25
100
AcDbCircle
 10
20.7016288959
 20
280.9496838216
 30
0.0
 40
2.800000000000035
100
AcDbArc
 50
51.8577018803
 51
101.6978166816
  0
ARC
  5
1BB
330
1F
100
AcDbEntity
  8
0
  6
Continuous
 62
     7
370
    25
100
AcDbCircle
 10
14.4336356142
 20
282.9447650453
 30
0.0
 40
8.0
100
AcDbArc
 50
358.5168707944
 51
1.4831292056
  0
ARC
  5
1BC
330
1F
100
AcDbEntity
  8
0
  6
Continuous
 62
     7
370
    25
100
AcDbCircle
 10
14.4336356142
 20
282.9447650453
 30
0.0
 40
5.748999999999997
100
AcDbArc
 50
341.7492182499
 51
352.5364960358
  0
ARC
  5
1BD
330
1F
100
AcDbEntity
  8
0
  6
Continuous
 62
     7
370
    25
100
AcDbCircle
 10
19.215269124
 20
278.427678612
 30
0.0
 40
2.800000000000037
100
AcDbArc
 50
26.143416166
 51
75.9835309673
  0
ARC
  5
1BE
330
1F
100
AcDbEntity
  8
0
  6
Continuous
 62
     7
370
    25
100
AcDbCircle
 10
14.4336356142
 20
282.9447650453
 30
0.0
 40
7.999999999999997
100
AcDbArc
 50
332.8025850801
 51
335.7688434913
  0
ARC
  5
1BF
330
1F
100
AcDbEntity
  8
0
  6
Continuous
 62
     7
370
    25
100
AcDbCircle
 10
20.9465357264
 20
282.022690755
 30
0.0
 40
2.800000000000049
100
AcDbArc
 50
232.5878976041
 51
282.4280124054
  0
ARC
  5
1C0
330
1F
100
AcDbEntity
  8
0
  6
Continuous
 62
     7
370
    25
100
AcDbCircle
 10
14.4336356142
 20
282.9447650453
 30
0.0
 40
5.748999999999979
100
AcDbArc
 50
316.0349325356
 51
326.8222103215
  0
ARC
  5
1C1
330
1F
100
AcDbEntity
  8
0
  6
Continuous
 62
     7
370
    25
100
AcDbCircle
 10
16.7818481927
 20
276.8003377689
 30
0.0
 40
2.800000000000057
100
AcDbArc
 50
0.4291304517
 51
50.269245253
  0
ARC
  5
1C2
330
1F
100
AcDbEntity
  8
0
  6
Continuous
 62
     7
370
    25
100
AcDbCircle
 10
14.4336356142
 20
282.9447650453
 30
0.0
 40
8.000000000000014
100
AcDbArc
 50
307.0882993658
 51
310.054557777
  0
ARC
  5
1C3
330
1F
100
AcDbEntity
  8
0
  6
Continuous
 62
     7
370
    25
100
AcDbCircle
 10
19.9014828142
 20
279.2881633627
 30
0.0
 40
2.800000000000034
100
AcDbArc
 50
206.8736118898
 51
256.7137266911
  0
ARC
  5
1C4
330
1F
100
AcDbEntity
  8
0
  6
Continuous
 62
     7
370
    25
100
AcDbCircle
 10
14.4336356142
 20
282.9447650453
 30
0.0
 40
5.749000000000006
100
AcDbArc
 50
290.3206468213
 51
301.1079246072
  0
ARC
  5
1C5
330
1F
100
AcDbEntity
  8
0
  6
Continuous
 62
     7
370
    25
100
AcDbCircle
 10
13.8833349612
 20
276.3899761044
 30
0.0
 40
2.799999999999992
100
AcDbArc
 50
334.7148447375
 51
24.5549595387
  0
ARC
  5
1C6
330
1F
100
AcDbEntity
  8
0
  6
Continuous
 62
     7
370
    25
100
AcDbCircle
 10
14.4336356142
 20
282.9447650453
 30
0.0
 40
7.99999999999998
100
AcDbArc
 50
281.3740136515
 51
284.3402720628
  0
ARC
  5
1C7
330
1F
100
AcDbEntity
  8
0
  6
Continuous
 62
     7
370
    25
100
AcDbCircle
 10
17.7734557053
 20
277.2778707788
 30
0.0
 40
2.800000000000031
100
AcDbArc
 50
181.1593261756
 51
230.9994409768
  0
ARC
  5
1C8
330
1F
100
AcDbEntity
  8
0
  6
Continuous
 62
     7
370
    25
100
AcDbCircle
 10
14.4336356142
 20
282.9447650453
 30
0.0
 40
5.748999999999942
100
AcDbArc
 50
264.6063611071
 51
275.3936388929
  0
ARC
  5
1C9
330
1F
100
AcDbEntity
  8
0
  6
Continuous
 62
     7
370
    25
100
AcDbCircle
 10
11.093815523
 20
277.2778707788
 30
0.0
 40
2.800000000000006
100
AcDbArc
 50
309.0005590232
 51
358.8406738245
  0
ARC
  5
1CA
330
1F
100
AcDbEntity
  8
0
  6
Continuous
 62
     7
370
    25
100
AcDbCircle
 10
14.4336356142
 20
282.9447650453
 30
0.0
 40
7.999999999999996
100
AcDbArc
 50
255.6597279372
 51
258.6259863485
  0
ARC
  5
1CB
330
1F
100
AcDbEntity
  8
0
  6
Continuous
 62
     7
370
    25
100
AcDbCircle
 10
14.9839362672
 20
276.3899761044
 30
0.0
 40
2.800000000000008
100
AcDbArc
 50
155.4450404613
 51
205.2851552625
  0
ARC
  5
1CC
330
1F
100
AcDbEntity
  8
0
  6
Continuous
 62
     7
370
    25
100
AcDbCircle
 10
14.4336356142
 20
282.9447650453
 30
0.0
 40
5.748999999999978
100
AcDbArc
 50
238.8920753928
 51
249.6793531787
  0
ARC
  5
1CD
330
1F
100
AcDbEntity
  8
0
  6
Continuous
 62
     7
370
    25
100
AcDbCircle
 10
8.9657884141
 20
279.2881633627
 30
0.0
 40
2.799999999999988
100
AcDbArc
 50
283.2862733089
 51
333.1263881102
  0
ARC
  5
1CE
330
1F
100
AcDbEntity
  8
0
  6
Continuous
 62
     7
370
    25
100
AcDbCircle
 10
14.4336356142
 20
282.9447650453
 30
0.0
 40
8.00000000000001
100
AcDbArc
 50
229.945442223
 51
232.9117006342
  0
ARC
  5
1CF
330
1F
100
AcDbEntity
  8
0
  6
Continuous
 62
     7
370
    25
100
AcDbCircle
 10
12.0854230357
 20
276.8003377689
 30
0.0
 40
2.80000000000003
100
AcDbArc
 50
129.730754747
 51
179.5708695483
  0
ARC
  5
1D0
330
1F
100
AcDbEntity
  8
0
  6
Continuous
 62
     7
370
    25
100
AcDbCircle
 10
14.4336356142
 20
282.9447650453
 30
0.0
 40
5.748999999999977
100
AcDbArc
 50
213.1777896785
 51
223.9650674644
  0
ARC
  5
1D1
330
1F
100
AcDbEntity
  8
0
  6
Continuous
 62
     7
370
    25
100
AcDbCircle
 10
7.9207355019
 20
282.022690755
 30
0.0
 40
2.799999999999991
100
AcDbArc
 50
257.5719875946
 51
307.4121023959
  0
LINE
  5
1D2
330
1F
100
AcDbEntity
  8
0
  6
Continuous
 62
     7
370
    25
100
AcDbLine
 10
17.4336356142
 20
285.5905163564
 30
0.0
 11
17.4336356142
 21
280.2990137343
 31
0.0
  0
ARC
  5
1D3
330
1F
100
AcDbEntity
  8
0
  6
Continuous
 62
     7
370
    25
100
AcDbCircle
 10
14.4336356142
 20
282.9447650453
 30
0.0
 40
4.000000000000005
100
AcDbArc
 50
41.4096221093
 51
318.5903778907
  0
ARC
  5
1D4
330
1F
100
AcDbEntity
  8
0
  6
Continuous
 62
     7
370
    25
100
AcDbCircle
 10
20.7016288959
 20
284.9398462691
 30
0.0
 40
2.799999999999994
100
AcDbArc
 50
258.3021833184
 51
308.1422981197
  0
ARC
  5
1D5
330
1F
100
AcDbEntity
  8
0
  6
Continuous
 62
     7
370
    25
100
AcDbCircle
 10
75.4029865654
 20
273.8631492168
 30
0.0
 40
4.036819383869191
100
AcDbArc
 50
269.6987392812
 51
330.3012607189
  0
LINE
  5
1D6
330
1F
100
AcDbEntity
  8
0
  6
Continuous
 62
     7
370
    25
100
AcDbLine
 10
75.3817611014
 20
269.8263856347
 30
0.0
 11
73.5208292993
 21
266.603157204
 31
0.0
  0
ARC
  5
1D7
330
1F
100
AcDbEntity
  8
0
  6
Continuous
 62
     7
370
    25
100
AcDbCircle
 10
75.4029865654
 20
273.8631492168
 30
0.0
 40
7.499999999999975
100
AcDbArc
 50
255.4660099534
 51
344.5339900465
  0
LINE
  5
1D8
330
1F
100
AcDbEntity
  8
0
  6
Continuous
 62
     7
370
    25
100
AcDbLine
 10
82.6314027128
 20
271.8631492168
 30
0.0
 11
78.9095391086
 21
271.8631492168
 31
0.0
  0
ARC
  5
1D9
330
1F
100
AcDbEntity
  8
0
  6
Continuous
 62
     7
370
    25
100
AcDbCircle
 10
75.4029865654
 20
273.8631492168
 30
0.0
 40
7.500000000000037
100
AcDbArc
 50
135.4660099534
 51
224.5339900466
  0
LINE
  5
1DA
330
1F
100
AcDbEntity
  8
0
  6
Continuous
 62
     7
370
    25
100
AcDbLine
 10
70.0567276842
 20
268.603157204
 30
0.0
 11
71.9176594863
 21
271.8263856347
 31
0.0
  0
ARC
  5
1DB
330
1F
100
AcDbEntity
  8
0
  6
Continuous
 62
     7
370
    25
100
AcDbCircle
 10
75.4029865654
 20
273.8631492168
 30
0.0
 40
4.036819383869203
100
AcDbArc
 50
149.698739281
 51
210.301260719
  0
LINE
  5
1DC
330
1F
100
AcDbEntity
  8
0
  6
Continuous
 62
     7
370
    25
100
AcDbLine
 10
71.9176594863
 20
275.8999127989
 30
0.0
 11
70.0567276842
 21
279.1231412296
 31
0.0
  0
ARC
  5
1DD
330
1F
100
AcDbEntity
  8
0
  6
Continuous
 62
     7
370
    25
100
AcDbCircle
 10
75.4029865654
 20
273.8631492168
 30
0.0
 40
4.036819383869176
100
AcDbArc
 50
29.6987392811
 51
90.3012607186
  0
LINE
  5
1DE
330
1F
100
AcDbEntity
  8
0
  6
Continuous
 62
     7
370
    25
100
AcDbLine
 10
78.9095391086
 20
275.8631492168
 30
0.0
 11
82.6314027128
 21
275.8631492168
 31
0.0
  0
ARC
  5
1DF
330
1F
100
AcDbEntity
  8
0
  6
Continuous
 62
     7
370
    25
100
AcDbCircle
 10
75.4029865654
 20
273.8631492168
 30
0.0
 40
7.500000000000001
100
AcDbArc
 50
15.4660099534
 51
104.5339900464
  0
LINE
  5
1E0
330
1F
100
AcDbEntity
  8
0
  6
Continuous
 62
     7
370
    25
100
AcDbLine
 10
73.5208292993
 20
281.1231412295
 30
0.0
 11
75.3817611014
 21
277.8999127989
 31
0.0
  0
CIRCLE
  5
1E1
330
1F
100
AcDbEntity
  8
0
  6
Continuous
 62
     7
370
    25
100
AcDbCircle
 10
97.9196470638
 20
273.8631492168
 30
0.0
 40
1.0
  0
CIRCLE
  5
1E2
330
1F
100
AcDbEntity
  8
0
  6
Continuous
 62
     7
370
    25
100
AcDbCircle
 10
64.1446563162
 20
293.3631492168
 30
0.0
 40
1.0
  0
LINE
  5
1E3
330
1F
100
AcDbEntity
  8
0
  6
Continuous
 62
     7
370
    25
100
AcDbLine
 10
64.1446563162
 20
289.3631492168
 30
0.0
 11
68.1313058063
 21
282.458069748
 31
0.0
  0
ARC
  5
1E4
330
1F
100
AcDbEntity
  8
0
  6
Continuous
 62
     7
370
    25
100
AcDbCircle
 10
64.1446563162
 20
293.3631492168
 30
0.0
 40
4.000000000000001
100
AcDbArc
 50
330.0000000008
 51
270.0
  0
LINE
  5
1E5
330
1F
100
AcDbEntity
  8
0
  6
Continuous
 62
     7
370
    25
100
AcDbLine
 10
71.5954074215
 20
284.458069748
 30
0.0
 11
67.6087579314
 21
291.3631492169
 31
0.0
  0
ARC
  5
1E6
330
1F
100
AcDbEntity
  8
0
  6
Continuous
 62
     7
370
    25
100
AcDbCircle
 10
75.4029865654
 20
273.8631492168
 30
0.0
 40
11.25833024919771
100
AcDbArc
 50
10.2326896647
 51
109.7673103352
  0
LINE
  5
1E7
330
1F
100
AcDbEntity
  8
0
  6
Continuous
 62
     7
370
    25
100
AcDbLine
 10
94.4555454487
 20
275.8631492168
 30
0.0
 11
86.4822464685
 21
275.8631492168
 31
0.0
  0
ARC
  5
1E8
330
1F
100
AcDbEntity
  8
0
  6
Continuous
 62
     7
370
    25
100
AcDbCircle
 10
97.9196470638
 20
273.8631492168
 30
0.0
 40
4.000000000000005
100
AcDbArc
 50
210.0000000003
 51
150.0
  0
LINE
  5
1E9
330
1F
100
AcDbEntity
  8
0
  6
Continuous
 62
     7
370
    25
100
AcDbLine
 10
86.4822464685
 20
271.8631492168
 30
0.0
 11
94.4555454487
 21
271.8631492168
 31
0.0
  0
ARC
  5
1EA
330
1F
100
AcDbEntity
  8
0
  6
Continuous
 62
     7
370
    25
100
AcDbCircle
 10
75.4029865654
 20
273.8631492168
 30
0.0
 40
11.25833024919774
100
AcDbArc
 50
250.2326896648
 51
349.7673103353
  0
LINE
  5
1EB
330
1F
100
AcDbEntity
  8
0
  6
Continuous
 62
     7
370
    25
100
AcDbLine
 10
67.6087579314
 20
256.3631492168
 30
0.0
 11
71.5954074215
 21
263.2682286856
 31
0.0
  0
ARC
  5
1EC
330
1F
100
AcDbEntity
  8
0
  6
Continuous
 62
     7
370
    25
100
AcDbCircle
 10
64.1446563162
 20
254.3631492168
 30
0.0
 40
4.000000000000028
100
AcDbArc
 50
90.0
 51
30.0
  0
LINE
  5
1ED
330
1F
100
AcDbEntity
  8
0
  6
Continuous
 62
     7
370
    25
100
AcDbLine
 10
68.1313058063
 20
265.2682286856
 30
0.0
 11
64.1446563162
 21
258.3631492168
 31
0.0
  0
ARC
  5
1EE
330
1F
100
AcDbEntity
  8
0
  6
Continuous
 62
     7
370
    25
100
AcDbCircle
 10
75.4029865654
 20
273.8631492168
 30
0.0
 40
11.25833024919774
100
AcDbArc
 50
130.2326896647
 51
229.7673103353
  0
CIRCLE
  5
1EF
330
1F
100
AcDbEntity
  8
0
  6
Continuous
 62
     7
370
    25
100
AcDbCircle
 10
75.4029865654
 20
273.8631492168
 30
0.0
 40
2.0
  0
CIRCLE
  5
1F0
330
1F
100
AcDbEntity
  8
0
  6
Continuous
 62
     7
370
    25
100
AcDbCircle
 10
64.1446563162
 20
254.3631492168
 30
0.0
 40
1.0
  0
INSERT
  5
1FC
330
1F
100
AcDbEntity
  8
0
  6
Continuous
 62
     7
370
    18
100
AcDbBlockReference
  2
SW_CENTERMARKSYMBOL_2
 10
75.4029865654
 20
273.8631492168
 30
0.0
  0
INSERT
  5
208
330
1F
100
AcDbEntity
  8
0
  6
Continuous
 62
     7
370
    18
100
AcDbBlockReference
  2
SW_CENTERMARKSYMBOL_3
 10
64.1446563162
 20
254.3631492168
 30
0.0
  0
INSERT
  5
214
330
1F
100
AcDbEntity
  8
0
  6
Continuous
 62
     7
370
    18
100
AcDbBlockReference
  2
SW_CENTERMARKSYMBOL_4
 10
97.9196470638
 20
273.8631492168
 30
0.0
  0
INSERT
  5
220
330
1F
100
AcDbEntity
  8
0
  6
Continuous
 62
     7
370
    18
100
AcDbBlockReference
  2
SW_CENTERMARKSYMBOL_5
 10
64.1446563162
 20
293.3631492168
 30
0.0
  0
ENDSEC
  0
SECTION
  2
OBJECTS
  0
DICTIONARY
  5
C
330
0
100
AcDbDictionary
281
     1
  3
ACAD_GROUP
350
D
  3
ACAD_LAYOUT
350
1A
  3
ACAD_MLINESTYLE
350
17
  3
ACAD_PLOTSETTINGS
350
19
  3
ACAD_PLOTSTYLENAME
350
E
  3
ACAD_SCALELIST
350
47
  0
DICTIONARY
  5
D
102
{ACAD_REACTORS
330
C
102
}
330
C
100
AcDbDictionary
281
     1
  0
DICTIONARY
  5
1A
102
{ACAD_REACTORS
330
C
102
}
330
C
100
AcDbDictionary
281
     1
  3
Layout1
350
1E
  3
Layout2
350
26
  3
Model
350
22
  0
DICTIONARY
  5
17
102
{ACAD_REACTORS
330
C
102
}
330
C
100
AcDbDictionary
281
     1
  3
Standard
350
18
  0
DICTIONARY
  5
19
102
{ACAD_REACTORS
330
C
102
}
330
C
100
AcDbDictionary
281
     1
  0
ACDBDICTIONARYWDFLT
  5
E
102
{ACAD_REACTORS
330
C
102
}
330
C
100
AcDbDictionary
281
     1
  3
Normal
350
F
100
AcDbDictionaryWithDefault
340
F
  0
DICTIONARY
  5
47
102
{ACAD_REACTORS
330
C
102
}
330
C
100
AcDbDictionary
281
     1
  3
A0
350
48
  3
A1
350
49
  3
A2
350
4A
  3
A3
350
4B
  3
A4
350
4C
  3
A5
350
4D
  3
A6
350
4E
  3
A7
350
4F
  3
A8
350
50
  3
A9
350
51
  3
B0
350
52
  3
B1
350
53
  3
B2
350
54
  3
B3
350
55
  3
B4
350
56
  3
B5
350
57
  3
B6
350
58
  3
B7
350
59
  3
B8
350
5A
  3
B9
350
5B
  3
C0
350
5C
  3
C1
350
5D
  3
C2
350
5E
  3
C3
350
5F
  3
C4
350
60
  3
C5
350
61
  3
C6
350
62
  3
C7
350
63
  3
C8
350
64
  3
C9
350
65
  3
D0
350
66
  3
D1
350
67
  3
D2
350
68
  0
LAYOUT
  5
1E
102
{ACAD_REACTORS
330
1A
102
}
330
1A
100
AcDbPlotSettings
  1

  2
none_device
  4

  6

 40
0.0
 41
0.0
 42
0.0
 43
0.0
 44
0.0
 45
0.0
 46
0.0
 47
0.0
 48
0.0
 49
0.0
140
0.0
141
0.0
142
1.0
143
1.0
 70
   688
 72
     1
 73
     0
 74
     5
  7

 75
    16
147
1.0
148
0.0
149
0.0
100
AcDbLayout
  1
Layout1
 70
     1
 71
     1
 10
0.0
 20
0.0
 11
420.0
 21
297.0
 12
0.0
 22
0.0
 32
0.0
 14
1.0000000000E+20
 24
1.0000000000E+20
 34
1.0000000000E+20
 15
-1.0000000000E+20
 25
-1.0000000000E+20
 35
-1.0000000000E+20
146
0.0
 13
0.0
 23
0.0
 33
0.0
 16
1.0
 26
0.0
 36
0.0
 17
0.0
 27
1.0
 37
0.0
 76
     0
330
1B
  0
LAYOUT
  5
26
102
{ACAD_REACTORS
330
1A
102
}
330
1A
100
AcDbPlotSettings
  1

  2
none_device
  4

  6

 40
0.0
 41
0.0
 42
0.0
 43
0.0
 44
0.0
 45
0.0
 46
0.0
 47
0.0
 48
0.0
 49
0.0
140
0.0
141
0.0
142
1.0
143
1.0
 70
   688
 72
     1
 73
     0
 74
     5
  7

 75
    16
147
1.0
148
0.0
149
0.0
100
AcDbLayout
  1
Layout2
 70
     1
 71
     2
 10
0.0
 20
0.0
 11
0.0
 21
0.0
 12
0.0
 22
0.0
 32
0.0
 14
0.0
 24
0.0
 34
0.0
 15
0.0
 25
0.0
 35
0.0
146
0.0
 13
0.0
 23
0.0
 33
0.0
 16
1.0
 26
0.0
 36
0.0
 17
0.0
 27
1.0
 37
0.0
 76
     0
330
23
  0
LAYOUT
  5
22
102
{ACAD_REACTORS
330
1A
102
}
330
1A
100
AcDbPlotSettings
  1

  2
none_device
  4
Letter_(8.50_x_11.00_Inches)
  6

 40
6.35
 41
6.35
 42
6.35000508
 43
6.35000508
 44
215.9
 45
279.4
 46
0.0
 47
0.0
 48
0.0
 49
0.0
140
0.0
141
0.0
142
1.0
143
1.0
 70
  1712
 72
     1
 73
     0
 74
     0
  7

 75
     0
147
1.0
148
0.0
149
0.0
100
AcDbLayout
  1
Model
 70
     1
 71
     0
 10
0.0
 20
0.0
 11
600.0
 21
300.0
 12
0.0
 22
0.0
 32
0.0
 14
0.0
 24
0.0
 34
0.0
 15
600.0
 25
300.0
 35
0.0
146
0.0
 13
0.0
 23
0.0
 33
0.0
 16
1.0
 26
0.0
 36
0.0
 17
0.0
 27
1.0
 37
0.0
 76
     0
330
1F
331
29
  0
MLINESTYLE
  5
18
102
{ACAD_REACTORS
330
17
102
}
330
17
100
AcDbMlineStyle
  2
Standard
 70
     0
  3

 62
   256
 51
90.0
 52
90.0
 71
     2
 49
0.5
 62
   256
  6
BYLAYER
 49
-0.5
 62
   256
  6
BYLAYER
  0
ACDBPLACEHOLDER
  5
F
102
{ACAD_REACTORS
330
E
102
}
330
E
  0
SCALE
  5
48
102
{ACAD_REACTORS
330
47
102
}
330
47
100
AcDbScale
 70
     0
300
1:1
140
1.0
141
1.0
290
     1
  0
SCALE
  5
49
102
{ACAD_REACTORS
330
47
102
}
330
47
100
AcDbScale
 70
     0
300
1:2
140
1.0
141
2.0
290
     0
  0
SCALE
  5
4A
102
{ACAD_REACTORS
330
47
102
}
330
47
100
AcDbScale
 70
     0
300
1:4
140
1.0
141
4.0
290
     0
  0
SCALE
  5
4B
102
{ACAD_REACTORS
330
47
102
}
330
47
100
AcDbScale
 70
     0
300
1:5
140
1.0
141
5.0
290
     0
  0
SCALE
  5
4C
102
{ACAD_REACTORS
330
47
102
}
330
47
100
AcDbScale
 70
     0
300
1:8
140
1.0
141
8.0
290
     0
  0
SCALE
  5
4D
102
{ACAD_REACTORS
330
47
102
}
330
47
100
AcDbScale
 70
     0
300
1:10
140
1.0
141
10.0
290
     0
  0
SCALE
  5
4E
102
{ACAD_REACTORS
330
47
102
}
330
47
100
AcDbScale
 70
     0
300
1:16
140
1.0
141
16.0
290
     0
  0
SCALE
  5
4F
102
{ACAD_REACTORS
330
47
102
}
330
47
100
AcDbScale
 70
     0
300
1:20
140
1.0
141
20.0
290
     0
  0
SCALE
  5
50
102
{ACAD_REACTORS
330
47
102
}
330
47
100
AcDbScale
 70
     0
300
1:30
140
1.0
141
30.0
290
     0
  0
SCALE
  5
51
102
{ACAD_REACTORS
330
47
102
}
330
47
100
AcDbScale
 70
     0
300
1:40
140
1.0
141
40.0
290
     0
  0
SCALE
  5
52
102
{ACAD_REACTORS
330
47
102
}
330
47
100
AcDbScale
 70
     0
300
1:50
140
1.0
141
50.0
290
     0
  0
SCALE
  5
53
102
{ACAD_REACTORS
330
47
102
}
330
47
100
AcDbScale
 70
     0
300
1:100
140
1.0
141
100.0
290
     0
  0
SCALE
  5
54
102
{ACAD_REACTORS
330
47
102
}
330
47
100
AcDbScale
 70
     0
300
2:1
140
2.0
141
1.0
290
     0
  0
SCALE
  5
55
102
{ACAD_REACTORS
330
47
102
}
330
47
100
AcDbScale
 70
     0
300
4:1
140
4.0
141
1.0
290
     0
  0
SCALE
  5
56
102
{ACAD_REACTORS
330
47
102
}
330
47
100
AcDbScale
 70
     0
300
8:1
140
8.0
141
1.0
290
     0
  0
SCALE
  5
57
102
{ACAD_REACTORS
330
47
102
}
330
47
100
AcDbScale
 70
     0
300
10:1
140
10.0
141
1.0
290
     0
  0
SCALE
  5
58
102
{ACAD_REACTORS
330
47
102
}
330
47
100
AcDbScale
 70
     0
300
100:1
140
100.0
141
1.0
290
     0
  0
SCALE
  5
59
102
{ACAD_REACTORS
330
47
102
}
330
47
100
AcDbScale
 70
     0
300
1/128" = 1'-0"
140
0.0078125
141
12.0
290
     0
  0
SCALE
  5
5A
102
{ACAD_REACTORS
330
47
102
}
330
47
100
AcDbScale
 70
     0
300
1/64" = 1'-0"
140
0.015625
141
12.0
290
     0
  0
SCALE
  5
5B
102
{ACAD_REACTORS
330
47
102
}
330
47
100
AcDbScale
 70
     0
300
1/32" = 1'-0"
140
0.03125
141
12.0
290
     0
  0
SCALE
  5
5C
102
{ACAD_REACTORS
330
47
102
}
330
47
100
AcDbScale
 70
     0
300
1/16" = 1'-0"
140
0.0625
141
12.0
290
     0
  0
SCALE
  5
5D
102
{ACAD_REACTORS
330
47
102
}
330
47
100
AcDbScale
 70
     0
300
3/32" = 1'-0"
140
0.09375
141
12.0
290
     0
  0
SCALE
  5
5E
102
{ACAD_REACTORS
330
47
102
}
330
47
100
AcDbScale
 70
     0
300
1/8" = 1'-0"
140
0.125
141
12.0
290
     0
  0
SCALE
  5
5F
102
{ACAD_REACTORS
330
47
102
}
330
47
100
AcDbScale
 70
     0
300
3/16" = 1'-0"
140
0.1875
141
12.0
290
     0
  0
SCALE
  5
60
102
{ACAD_REACTORS
330
47
102
}
330
47
100
AcDbScale
 70
     0
300
1/4" = 1'-0"
140
0.25
141
12.0
290
     0
  0
SCALE
  5
61
102
{ACAD_REACTORS
330
47
102
}
330
47
100
AcDbScale
 70
     0
300
3/8" = 1'-0"
140
0.375
141
12.0
290
     0
  0
SCALE
  5
62
102
{ACAD_REACTORS
330
47
102
}
330
47
100
AcDbScale
 70
     0
300
1/2" = 1'-0"
140
0.5
141
12.0
290
     0
  0
SCALE
  5
63
102
{ACAD_REACTORS
330
47
102
}
330
47
100
AcDbScale
 70
     0
300
3/4" = 1'-0"
140
0.75
141
12.0
290
     0
  0
SCALE
  5
64
102
{ACAD_REACTORS
330
47
102
}
330
47
100
AcDbScale
 70
     0
300
1" = 1'-0"
140
1.0
141
12.0
290
     0
  0
SCALE
  5
65
102
{ACAD_REACTORS
330
47
102
}
330
47
100
AcDbScale
 70
     0
300
1-1/2" = 1'-0"
140
1.5
141
12.0
290
     0
  0
SCALE
  5
66
102
{ACAD_REACTORS
330
47
102
}
330
47
100
AcDbScale
 70
     0
300
3" = 1'-0"
140
3.0
141
12.0
290
     0
  0
SCALE
  5
67
102
{ACAD_REACTORS
330
47
102
}
330
47
100
AcDbScale
 70
     0
300
6" = 1'-0"
140
6.0
141
12.0
290
     0
  0
SCALE
  5
68
102
{ACAD_REACTORS
330
47
102
}
330
47
100
AcDbScale
 70
     0
300
1'-0" = 1'-0"
140
12.0
141
12.0
290
     0
  0
ENDSEC
  0
EOF
