  0
SECTION
  2
HEADER
  9
$ACADVER
  1
AC1009
  9
$LIMMIN
 10
0.000000
 20
0.000000
  9
$LIMMAX
 10
13.437942
 20
11.393771
  0
ENDSEC
  0
SECTION
  2
TABLES
  0
TABLE
  2
LTYPE
 70
     4
  0
LTYPE
  2
CONTINUOUS
 70
     0
  3
Solid line
 72
     65
 73
     0
 40
0.000000
  0
LTYPE
  2
HIDDEN
 70
     0
  3
 _ _ _ _ _ _ _ _ _ _ _
 72
     65
 73
     2
 40
0.375000
 49
0.250000
 49
-0.125000
  0
LTYPE
  2
DASHED
 70
     0
  3
 ___ ___ ___ ___ ___ ___ ___ 
 72
     65
 73
     2
 40
0.750000
 49
0.500000
 49
-0.250000
  0
LTYPE
  2
CENTER
 70
     0
  3
___ _ ___ _ ___ _ ___
 72
     65
 73
     4
 40
2.000000
 49
1.250000
 49
-0.250000
 49
0.250000
 49
-0.250000
  0
LTYPE
  2
BORDER
 70
     0
  3
___ ___ . ___ ___ . ___ ___
 72
     65
 73
     6
 40
1.750000
 49
0.500000
 49
-0.250000
 49
0.500000
 49
-0.250000
 49
0.000000
 49
-0.250000
  0
LTYPE
  2
DOT
 70
     0
  3
.................
 72
     65
 73
     2
 40
0.250000
 49
0.000000
 49
-0.250000
  0
LTYPE
  2
DASHDOT
 70
     0
  3
__ . __ . __ . __
 72
     65
 73
     4
 40
1.000000
 49
0.500000
 49
-0.250000
 49
0.000000
 49
-0.250000
  0
LTYPE
  2
DIVIDE
 70
     0
  3
___ .. ___ .. ___ .. ___
 72
     65
 73
     6
 40
1.250000
 49
0.500000
 49
-0.250000
 49
0.000000
 49
-0.250000
 49
0.000000
 49
-0.250000
  0
ENDTAB
  0
TABLE
  2
LAYER
 70
     8
  0
LAYER
  2
BLACK
 70
     0
 62
     1
  6
CONTINUOUS
  0
LAYER
  2
WHITE
 70
     0
 62
     7
  6
CONTINUOUS
  0
LAYER
  2
RED
 70
     0
 62
     1
  6
CONTINUOUS
  0
LAYER
  2
YELLOW
 70
     0
 62
     2
  6
CONTINUOUS
  0
LAYER
  2
GREEN
 70
     0
 62
     3
  6
CONTINUOUS
  0
LAYER
  2
CYAN
 70
     0
 62
     4
  6
CONTINUOUS
  0
LAYER
  2
BLUE
 70
     0
 62
     5
  6
CONTINUOUS
  0
LAYER
  2
MAGENTA
 70
     0
 62
     6
  6
CONTINUOUS
  0
ENDTAB
  0
ENDSEC
  0
SECTION
  2
BLOCKS
  0
ENDSEC
  0
SECTION
  2
ENTITIES
  0
LINE
  8
WHITE
 10
0.000000
 20
0.000000
 30
0.000000
 11
13.437942
 21
0.000000
 31
0.000000
  6
CONTINUOUS
  0
LINE
  8
WHITE
 10
13.437942
 20
0.000000
 30
0.000000
 11
13.437942
 21
11.393771
 31
0.000000
  6
CONTINUOUS
  0
LINE
  8
WHITE
 10
13.437942
 20
11.393771
 30
0.000000
 11
0.000000
 21
11.393771
 31
0.000000
  6
CONTINUOUS
  0
LINE
  8
WHITE
 10
0.000000
 20
11.393771
 30
0.000000
 11
0.000000
 21
0.000000
 31
0.000000
  6
CONTINUOUS
  0
LINE
  8
WHITE
 10
12.225000
 20
2.683000
 30
0.000000
 11
12.082000
 21
3.076999
 31
0.000000
  6
CONTINUOUS
  0
ARC
  8
WHITE
 10
12.072576
 20
3.073665
 30
0.000000
 40
0.009996
 50
19.482638
 51
110.964649
  6
CONTINUOUS
  0
LINE
  8
WHITE
 10
12.069000
 20
3.082999
 30
0.000000
 11
11.985000
 21
3.052000
 31
0.000000
  6
CONTINUOUS
  0
ARC
  8
WHITE
 10
11.988334
 20
3.042576
 30
0.000000
 40
0.009996
 50
109.482638
 51
200.964649
  6
CONTINUOUS
  0
LINE
  8
WHITE
 10
11.979000
 20
3.039000
 30
0.000000
 11
12.118000
 21
2.654999
 31
0.000000
  6
CONTINUOUS
  0
ARC
  8
WHITE
 10
12.108700
 20
2.651400
 30
0.000000
 40
0.009972
 50
-70.652300
 51
21.155902
  6
CONTINUOUS
  0
LINE
  8
WHITE
 10
12.112004
 20
2.641991
 30
0.000000
 11
12.011000
 21
2.605000
 31
0.000000
  6
CONTINUOUS
  0
ARC
  8
WHITE
 10
11.982882
 20
2.684203
 30
0.000000
 40
0.084046
 50
-98.127634
 51
-70.454537
  6
CONTINUOUS
  0
ARC
  8
WHITE
 10
11.621100
 20
-0.008399
 30
0.000000
 40
2.632755
 50
82.362652
 51
111.270800
  6
CONTINUOUS
  0
ARC
  8
WHITE
 10
8.458839
 20
7.283903
 30
0.000000
 40
5.318506
 50
-85.901073
 51
-65.480925
  6
CONTINUOUS
  0
ARC
  8
WHITE
 10
8.742473
 20
3.332936
 30
0.000000
 40
1.357371
 50
-143.524109
 51
-85.922105
  6
CONTINUOUS
  0
ARC
  8
WHITE
 10
7.954100
 20
2.776099
 30
0.000000
 40
0.392962
 50
137.805800
 51
219.527418
  6
CONTINUOUS
  0
ARC
  8
WHITE
 10
7.265088
 20
4.614321
 30
0.000000
 40
1.623791
 50
-75.816405
 51
-55.320768
  6
CONTINUOUS
  0
ARC
  8
WHITE
 10
3.759480
 20
8.298805
 30
0.000000
 40
6.694706
 50
-48.574591
 51
-35.333756
  6
CONTINUOUS
  0
ARC
  8
WHITE
 10
9.968400
 20
3.897000
 30
0.000000
 40
0.916245
 50
38.548450
 51
144.658568
  6
CONTINUOUS
  0
ARC
  8
WHITE
 10
16.111765
 20
9.186155
 30
0.000000
 40
7.191048
 50
-138.995555
 51
-131.338873
  6
CONTINUOUS
  0
ARC
  8
WHITE
 10
11.368200
 20
3.794800
 30
0.000000
 40
0.009965
 50
-128.492369
 51
-79.594600
  6
CONTINUOUS
  0
LINE
  8
WHITE
 10
11.370000
 20
3.784998
 30
0.000000
 11
11.563000
 21
3.801000
 31
0.000000
  6
CONTINUOUS
  0
ARC
  8
WHITE
 10
11.626900
 20
3.518599
 30
0.000000
 40
0.289540
 50
36.050590
 51
102.749841
  6
CONTINUOUS
  0
ARC
  8
WHITE
 10
9.298873
 20
1.814482
 30
0.000000
 40
3.174626
 50
18.123489
 51
36.190142
  6
CONTINUOUS
  0
ARC
  8
WHITE
 10
12.236200
 20
2.775900
 30
0.000000
 40
0.083959
 50
-69.947000
 51
18.111466
  6
CONTINUOUS
  0
LINE
  8
WHITE
 10
12.264989
 20
2.697031
 30
0.000000
 11
12.253000
 21
2.693000
 31
0.000000
  6
CONTINUOUS
  0
ARC
  8
WHITE
 10
12.311275
 20
2.485631
 30
0.000000
 40
0.215402
 50
105.696467
 51
113.611360
  6
CONTINUOUS
  0
ARC
  8
WHITE
 10
8.201550
 20
10.964018
 30
0.000000
 40
8.397002
 50
-76.856154
 51
-72.446902
  6
CONTINUOUS
  0
ARC
  8
WHITE
 10
12.149700
 20
-2.082100
 30
0.000000
 40
5.235151
 50
97.437920
 51
105.689406
  6
CONTINUOUS
  0
ARC
  8
WHITE
 10
11.460488
 20
3.185000
 30
0.000000
 40
0.076866
 50
-81.386696
 51
98.613019
  6
CONTINUOUS
  0
ARC
  8
WHITE
 10
4.099000
 20
48.763900
 30
0.000000
 40
46.092691
 50
-82.688412
 51
-80.824400
  6
CONTINUOUS
  0
ARC
  8
WHITE
 10
9.474699
 20
6.889499
 30
0.000000
 40
3.874643
 50
-105.120500
 51
-82.730305
  6
CONTINUOUS
  0
ARC
  8
WHITE
 10
8.404499
 20
2.975998
 30
0.000000
 40
0.182943
 50
71.020442
 51
251.020318
  6
CONTINUOUS
  0
ARC
  8
WHITE
 10
9.156800
 20
4.748000
 30
0.000000
 40
2.107615
 50
-112.654589
 51
-81.234000
  6
CONTINUOUS
  0
ARC
  8
WHITE
 10
8.206673
 20
10.964832
 30
0.000000
 40
8.396631
 50
-81.291406
 51
-76.891459
  6
CONTINUOUS
  0
ARC
  8
WHITE
 10
8.700308
 20
6.026986
 30
0.000000
 40
3.845078
 50
-87.724138
 51
-74.095805
  6
CONTINUOUS
  0
LINE
  8
WHITE
 10
9.753973
 20
2.329093
 30
0.000000
 11
11.592000
 21
2.914000
 31
0.000000
  6
CONTINUOUS
  0
ARC
  8
WHITE
 10
11.573000
 20
2.975500
 30
0.000000
 40
0.064368
 50
-72.831828
 51
107.168300
  6
CONTINUOUS
  0
ARC
  8
WHITE
 10
7.351299
 20
16.469700
 30
0.000000
 40
14.074805
 50
-85.673900
 51
-72.626617
  6
CONTINUOUS
  0
ARC
  8
WHITE
 10
8.417015
 20
2.370988
 30
0.000000
 40
0.064133
 50
93.586318
 51
239.019464
  6
CONTINUOUS
  0
ARC
  8
WHITE
 10
8.845499
 20
3.062799
 30
0.000000
 40
0.877890
 50
-121.714784
 51
-89.510486
  6
CONTINUOUS
  0
ARC
  8
WHITE
 10
9.848787
 20
7.428676
 30
0.000000
 40
3.978716
 50
-104.970410
 51
-90.256172
  6
CONTINUOUS
  0
ARC
  8
WHITE
 10
9.159400
 20
40.443100
 30
0.000000
 40
36.999196
 50
-88.959927
 51
-86.422700
  6
CONTINUOUS
  0
ARC
  8
WHITE
 10
11.472981
 20
3.487500
 30
0.000000
 40
0.028932
 50
-80.023465
 51
99.976073
  6
CONTINUOUS
  0
ARC
  8
WHITE
 10
9.007324
 20
12.442558
 30
0.000000
 40
9.317102
 50
-83.679835
 51
-74.622607
  6
CONTINUOUS
  0
ARC
  8
WHITE
 10
9.679100
 20
6.359100
 30
0.000000
 40
3.196666
 50
-105.720100
 51
-83.644005
  6
CONTINUOUS
  0
ARC
  8
WHITE
 10
8.855971
 20
3.432470
 30
0.000000
 40
0.156486
 50
102.911601
 51
254.062258
  6
CONTINUOUS
  0
LINE
  8
WHITE
 10
11.004958
 20
3.725964
 30
0.000000
 11
9.854999
 21
3.936000
 31
0.000000
  6
CONTINUOUS
  0
ARC
  8
WHITE
 10
9.894559
 20
3.798589
 30
0.000000
 40
0.142992
 50
106.060868
 51
243.160306
  6
CONTINUOUS
  0
ARC
  8
WHITE
 10
10.461100
 20
6.545599
 30
0.000000
 40
2.943061
 50
-102.382511
 51
-79.587700
  6
CONTINUOUS
  0
ARC
  8
WHITE
 10
10.966900
 20
3.693599
 30
0.000000
 40
0.049957
 50
-58.502967
 51
40.378256
  6
CONTINUOUS
  0
ARC
  8
WHITE
 10
10.786195
 20
5.156059
 30
0.000000
 40
1.220191
 50
-105.456765
 51
-89.163919
  6
CONTINUOUS
  0
ARC
  8
WHITE
 10
10.803000
 20
4.003799
 30
0.000000
 40
0.067808
 50
-89.155138
 51
-13.462700
  6
CONTINUOUS
  0
ARC
  8
WHITE
 10
10.027475
 20
3.599053
 30
0.000000
 40
0.927018
 50
24.808145
 51
73.292426
  6
CONTINUOUS
  0
ARC
  8
WHITE
 10
10.282631
 20
4.448619
 30
0.000000
 40
0.039961
 50
73.500567
 51
142.375941
  6
CONTINUOUS
  0
ARC
  8
WHITE
 10
10.653109
 20
4.158211
 30
0.000000
 40
0.510694
 50
141.944645
 51
184.516124
  6
CONTINUOUS
  0
ARC
  8
WHITE
 10
10.784808
 20
5.156916
 30
0.000000
 40
1.220648
 50
-121.666428
 51
-105.383296
  6
CONTINUOUS
  0
LINE
  8
WHITE
 10
9.899000
 20
4.592000
 30
0.000000
 11
9.465000
 21
4.414000
 31
0.000000
  6
CONTINUOUS
  0
ARC
  8
WHITE
 10
9.723999
 20
4.338300
 30
0.000000
 40
0.269835
 50
163.707461
 51
249.839000
  6
CONTINUOUS
  0
LINE
  8
WHITE
 10
9.630998
 20
4.084998
 30
0.000000
 11
9.937999
 21
4.210999
 31
0.000000
  6
CONTINUOUS
  0
LINE
  8
WHITE
 10
9.937999
 20
4.210999
 30
0.000000
 11
10.007000
 21
4.500000
 31
0.000000
  6
CONTINUOUS
  0
ARC
  8
WHITE
 10
9.929503
 20
4.518416
 30
0.000000
 40
0.079655
 50
-13.367540
 51
112.515623
  6
CONTINUOUS
  0
LINE
  8
WHITE
 10
9.312999
 20
3.694000
 30
0.000000
 11
9.541000
 21
3.641000
 31
0.000000
  6
CONTINUOUS
  0
ARC
  8
WHITE
 10
9.546677
 20
3.669005
 30
0.000000
 40
0.028575
 50
-101.459363
 51
31.654306
  6
CONTINUOUS
  0
ARC
  8
WHITE
 10
11.849387
 20
5.101635
 30
0.000000
 40
2.683419
 50
-159.251725
 51
-148.109724
  6
CONTINUOUS
  0
ARC
  8
WHITE
 10
9.291076
 20
4.131761
 30
0.000000
 40
0.052570
 50
21.466570
 51
133.332768
  6
CONTINUOUS
  0
ARC
  8
WHITE
 10
10.088200
 20
3.277699
 30
0.000000
 40
1.220828
 50
133.038298
 51
147.201600
  6
CONTINUOUS
  0
ARC
  8
WHITE
 10
9.259909
 20
3.811513
 30
0.000000
 40
0.235423
 50
147.211750
 51
176.228240
  6
CONTINUOUS
  0
ARC
  8
WHITE
 10
9.101395
 20
3.822525
 30
0.000000
 40
0.076530
 50
176.648072
 51
256.861442
  6
CONTINUOUS
  0
LINE
  8
WHITE
 10
9.083999
 20
3.747998
 30
0.000000
 11
9.312999
 21
3.694000
 31
0.000000
  6
CONTINUOUS
  0
LINE
  8
WHITE
 10
7.866000
 20
2.911000
 30
0.000000
 11
7.763999
 21
2.841000
 31
0.000000
  6
CONTINUOUS
  0
ARC
  8
WHITE
 10
7.795368
 20
2.794679
 30
0.000000
 40
0.055943
 50
124.106212
 51
200.594809
  6
CONTINUOUS
  0
ARC
  8
WHITE
 10
8.313910
 20
2.991670
 30
0.000000
 40
0.610643
 50
-159.217450
 51
-111.108110
  6
CONTINUOUS
  0
ARC
  8
WHITE
 10
8.114673
 20
2.474010
 30
0.000000
 40
0.055968
 50
-111.676893
 51
17.671076
  6
CONTINUOUS
  0
LINE
  8
WHITE
 10
8.168000
 20
2.490999
 30
0.000000
 11
8.059000
 21
2.842999
 31
0.000000
  6
CONTINUOUS
  0
ARC
  8
WHITE
 10
7.937579
 20
2.806269
 30
0.000000
 40
0.126855
 50
16.830630
 51
124.350877
  6
CONTINUOUS
  0
LINE
  8
WHITE
 10
8.762840
 20
5.350653
 30
0.000000
 11
8.659999
 21
4.965000
 31
0.000000
  6
CONTINUOUS
  0
ARC
  8
WHITE
 10
8.669792
 20
4.962671
 30
0.000000
 40
0.010066
 50
166.622268
 51
253.890388
  6
CONTINUOUS
  0
LINE
  8
WHITE
 10
8.666999
 20
4.953000
 30
0.000000
 11
8.753999
 21
4.928999
 31
0.000000
  6
CONTINUOUS
  0
ARC
  8
WHITE
 10
8.756099
 20
4.938799
 30
0.000000
 40
0.010022
 50
-102.094757
 51
-10.305100
  6
CONTINUOUS
  0
LINE
  8
WHITE
 10
8.765959
 20
4.937006
 30
0.000000
 11
8.869772
 21
5.322583
 31
0.000000
  6
CONTINUOUS
  0
ARC
  8
WHITE
 10
8.889085
 20
5.317384
 30
0.000000
 40
0.020001
 50
74.622051
 51
164.933321
  6
CONTINUOUS
  0
LINE
  8
WHITE
 10
8.894389
 20
5.336668
 30
0.000000
 11
8.914999
 21
5.330999
 31
0.000000
  6
CONTINUOUS
  0
ARC
  8
WHITE
 10
8.893300
 20
5.249799
 30
0.000000
 40
0.084049
 50
-13.622700
 51
75.038503
  6
CONTINUOUS
  0
ARC
  8
WHITE
 10
5.883406
 20
5.951274
 30
0.000000
 40
3.174601
 50
-31.194635
 51
-13.132309
  6
CONTINUOUS
  0
ARC
  8
WHITE
 10
8.351294
 20
4.456800
 30
0.000000
 40
0.289480
 50
-97.801530
 51
-31.163529
  6
CONTINUOUS
  0
LINE
  8
WHITE
 10
8.312000
 20
4.170000
 30
0.000000
 11
8.114000
 21
4.169000
 31
0.000000
  6
CONTINUOUS
  0
ARC
  8
WHITE
 10
13.311900
 20
-0.799999
 30
0.000000
 40
7.190905
 50
136.289759
 51
143.977400
  6
CONTINUOUS
  0
ARC
  8
WHITE
 10
6.732288
 20
3.935212
 30
0.000000
 40
0.916247
 50
-139.651398
 51
-33.537366
  6
CONTINUOUS
  0
ARC
  8
WHITE
 10
0.931399
 20
-0.992000
 30
0.000000
 40
6.694780
 50
40.343610
 51
53.591560
  6
CONTINUOUS
  0
ARC
  8
WHITE
 10
4.098700
 20
2.986499
 30
0.000000
 40
1.623829
 50
60.228418
 51
80.704160
  6
CONTINUOUS
  0
ARC
  8
WHITE
 10
4.628000
 20
4.877500
 30
0.000000
 40
0.393089
 50
145.521600
 51
227.216234
  6
CONTINUOUS
  0
ARC
  8
WHITE
 10
5.460641
 20
4.389799
 30
0.000000
 40
1.357329
 50
90.871323
 51
148.449150
  6
CONTINUOUS
  0
ARC
  8
WHITE
 10
5.523984
 20
0.429070
 30
0.000000
 40
5.318562
 50
70.481269
 51
90.904777
  6
CONTINUOUS
  0
ARC
  8
WHITE
 10
8.037474
 20
7.969707
 30
0.000000
 40
2.632826
 50
-106.244052
 51
-77.328783
  6
CONTINUOUS
  0
ARC
  8
WHITE
 10
8.632951
 20
5.318913
 30
0.000000
 40
0.084032
 50
74.788761
 51
102.334537
  6
CONTINUOUS
  0
LINE
  8
WHITE
 10
8.654999
 20
5.400000
 30
0.000000
 11
8.748648
 21
5.375137
 31
0.000000
  6
CONTINUOUS
  0
ARC
  8
WHITE
 10
8.743515
 20
5.355806
 30
0.000000
 40
0.020001
 50
-14.930495
 51
75.129293
  6
CONTINUOUS
  0
ARC
  8
WHITE
 10
5.997672
 20
3.017440
 30
0.000000
 40
2.107104
 50
86.235929
 51
117.644840
  6
CONTINUOUS
  0
ARC
  8
WHITE
 10
5.105899
 20
4.722300
 30
0.000000
 40
0.183099
 50
117.979103
 51
289.820200
  6
CONTINUOUS
  0
ARC
  8
WHITE
 10
6.499746
 20
0.911506
 30
0.000000
 40
3.874606
 50
87.703579
 51
110.103424
  6
CONTINUOUS
  0
ARC
  8
WHITE
 10
4.790900
 20
-41.272000
 30
0.000000
 40
46.092710
 50
85.818250
 51
87.682190
  6
CONTINUOUS
  0
ARC
  8
WHITE
 10
8.159800
 20
4.774300
 30
0.000000
 40
0.076697
 50
-95.833482
 51
89.103870
  6
CONTINUOUS
  0
ARC
  8
WHITE
 10
8.390338
 20
10.081093
 30
0.000000
 40
5.235131
 50
-100.759578
 51
-92.510793
  6
CONTINUOUS
  0
ARC
  8
WHITE
 10
5.593200
 20
-3.259600
 30
0.000000
 40
8.397161
 50
77.483770
 51
86.293768
  6
CONTINUOUS
  0
ARC
  8
WHITE
 10
5.664199
 20
1.702800
 30
0.000000
 40
3.845003
 50
87.811949
 51
92.865230
  6
CONTINUOUS
  0
ARC
  8
WHITE
 10
5.540169
 20
4.667698
 30
0.000000
 40
0.877949
 50
94.453297
 51
126.658086
  6
CONTINUOUS
  0
ARC
  8
WHITE
 10
5.053999
 20
5.320200
 30
0.000000
 40
0.064243
 50
126.263061
 51
271.784600
  6
CONTINUOUS
  0
ARC
  8
WHITE
 10
5.224273
 20
-8.817816
 30
0.000000
 40
14.074810
 50
77.644313
 51
90.685024
  6
CONTINUOUS
  0
ARC
  8
WHITE
 10
8.249999
 20
4.993497
 30
0.000000
 40
0.064052
 50
-102.624935
 51
77.374773
  6
CONTINUOUS
  0
LINE
  8
WHITE
 10
8.263999
 20
5.056000
 30
0.000000
 11
6.381999
 21
5.479000
 31
0.000000
  6
CONTINUOUS
  0
ARC
  8
WHITE
 10
5.656199
 20
1.703000
 30
0.000000
 40
3.845122
 50
79.119651
 51
87.692715
  6
CONTINUOUS
  0
ARC
  8
WHITE
 10
6.911099
 20
0.405199
 30
0.000000
 40
3.978678
 50
95.120500
 51
102.337153
  6
CONTINUOUS
  0
ARC
  8
WHITE
 10
6.919386
 20
0.406851
 30
0.000000
 40
3.978844
 50
102.458814
 51
109.947049
  6
CONTINUOUS
  0
ARC
  8
WHITE
 10
5.583732
 20
4.301873
 30
0.000000
 40
0.156392
 50
110.876953
 51
262.011256
  6
CONTINUOUS
  0
ARC
  8
WHITE
 10
6.659258
 20
1.458300
 30
0.000000
 40
3.196567
 50
88.660221
 51
110.725916
  6
CONTINUOUS
  0
ARC
  8
WHITE
 10
6.513099
 20
-4.660600
 30
0.000000
 40
9.317213
 50
79.581460
 51
88.641462
  6
CONTINUOUS
  0
ARC
  8
WHITE
 10
8.195499
 20
4.474500
 30
0.000000
 40
0.028610
 50
-95.011575
 51
84.985699
  6
CONTINUOUS
  0
ARC
  8
WHITE
 10
9.135000
 20
-32.541200
 30
0.000000
 40
36.999194
 50
91.458909
 51
93.997000
  6
CONTINUOUS
  0
LINE
  8
WHITE
 10
6.942999
 20
3.973999
 30
0.000000
 11
7.750000
 21
4.196000
 31
0.000000
  6
CONTINUOUS
  0
ARC
  8
WHITE
 10
7.709168
 20
4.224955
 30
0.000000
 40
0.050056
 50
-35.341414
 51
64.141936
  6
CONTINUOUS
  0
ARC
  8
WHITE
 10
7.452600
 20
1.340100
 30
0.000000
 40
2.943097
 50
84.572034
 51
107.369200
  6
CONTINUOUS
  0
ARC
  8
WHITE
 10
6.649293
 20
4.027395
 30
0.000000
 40
0.143021
 50
121.764017
 51
258.999042
  6
CONTINUOUS
  0
LINE
  8
WHITE
 10
6.622001
 20
3.887003
 30
0.000000
 11
6.942999
 21
3.973999
 31
0.000000
  6
CONTINUOUS
  0
ARC
  8
WHITE
 10
7.573548
 20
3.901298
 30
0.000000
 40
0.067929
 50
56.554861
 51
94.685437
  6
CONTINUOUS
  0
ARC
  8
WHITE
 10
7.656699
 20
2.752000
 30
0.000000
 40
1.220228
 50
94.168573
 51
126.727100
  6
CONTINUOUS
  0
ARC
  8
WHITE
 10
7.437700
 20
3.734100
 30
0.000000
 40
0.510719
 50
-179.540486
 51
-137.031200
  6
CONTINUOUS
  0
ARC
  8
WHITE
 10
7.092596
 20
3.413903
 30
0.000000
 40
0.039962
 50
-135.702358
 51
-67.344670
  6
CONTINUOUS
  0
ARC
  8
WHITE
 10
6.764835
 20
4.238214
 30
0.000000
 40
0.927036
 50
-68.274454
 51
-19.812596
  6
CONTINUOUS
  0
ARC
  8
WHITE
 10
7.573251
 20
3.902147
 30
0.000000
 40
0.067388
 50
18.921863
 51
55.945937
  6
CONTINUOUS
  0
LINE
  8
WHITE
 10
6.776000
 20
3.479000
 30
0.000000
 11
6.729000
 21
3.619999
 31
0.000000
  6
CONTINUOUS
  0
LINE
  8
WHITE
 10
6.729000
 20
3.619999
 30
0.000000
 11
6.413000
 21
3.719000
 31
0.000000
  6
CONTINUOUS
  0
ARC
  8
WHITE
 10
6.527492
 20
3.474696
 30
0.000000
 40
0.269802
 50
115.109932
 51
201.229486
  6
CONTINUOUS
  0
LINE
  8
WHITE
 10
6.276000
 20
3.377000
 30
0.000000
 11
6.723999
 21
3.236999
 31
0.000000
  6
CONTINUOUS
  0
ARC
  8
WHITE
 10
6.747300
 20
3.313100
 30
0.000000
 40
0.079588
 50
-107.023813
 51
18.207600
  6
CONTINUOUS
  0
LINE
  8
WHITE
 10
6.822903
 20
3.337968
 30
0.000000
 11
6.776000
 21
3.479000
 31
0.000000
  6
CONTINUOUS
  0
LINE
  8
WHITE
 10
6.060999
 20
4.079999
 30
0.000000
 11
5.839000
 21
4.006999
 31
0.000000
  6
CONTINUOUS
  0
ARC
  8
WHITE
 10
5.862280
 20
3.934493
 30
0.000000
 40
0.076152
 50
107.800623
 51
188.679974
  6
CONTINUOUS
  0
ARC
  8
WHITE
 10
6.019800
 20
3.958300
 30
0.000000
 40
0.235461
 50
-171.377903
 51
-142.507100
  6
CONTINUOUS
  0
ARC
  8
WHITE
 10
6.799630
 20
4.560691
 30
0.000000
 40
1.220858
 50
-142.352200
 51
-128.178888
  6
CONTINUOUS
  0
ARC
  8
WHITE
 10
6.077381
 20
3.642515
 30
0.000000
 40
0.052659
 50
-127.953594
 51
-15.999258
  6
CONTINUOUS
  0
ARC
  8
WHITE
 10
8.709699
 20
2.896300
 30
0.000000
 40
2.683385
 50
153.036800
 51
164.176296
  6
CONTINUOUS
  0
ARC
  8
WHITE
 10
6.292295
 20
4.125591
 30
0.000000
 40
0.028628
 50
-26.102025
 51
106.840801
  6
CONTINUOUS
  0
LINE
  8
WHITE
 10
6.284001
 20
4.152991
 30
0.000000
 11
6.060999
 21
4.079999
 31
0.000000
  6
CONTINUOUS
  0
LINE
  8
WHITE
 10
4.737958
 20
4.819008
 30
0.000000
 11
4.815999
 21
5.178999
 31
0.000000
  6
CONTINUOUS
  0
ARC
  8
WHITE
 10
4.761496
 20
5.191685
 30
0.000000
 40
0.055960
 50
-13.102747
 51
115.960744
  6
CONTINUOUS
  0
ARC
  8
WHITE
 10
5.005890
 20
4.693695
 30
0.000000
 40
0.610687
 50
116.123571
 51
164.294866
  6
CONTINUOUS
  0
ARC
  8
WHITE
 10
4.471792
 20
4.843571
 30
0.000000
 40
0.055961
 50
163.995411
 51
240.221365
  6
CONTINUOUS
  0
LINE
  8
WHITE
 10
4.443999
 20
4.795000
 30
0.000000
 11
4.552000
 21
4.735000
 31
0.000000
  6
CONTINUOUS
  0
ARC
  8
WHITE
 10
4.613900
 20
4.845799
 30
0.000000
 40
0.126917
 50
-119.190752
 51
-12.186194
  6
CONTINUOUS
  0
LINE
  8
WHITE
 10
6.513999
 20
7.294001
 30
0.000000
 11
6.541999
 21
7.281987
 31
0.000000
  6
CONTINUOUS
  0
ARC
  8
WHITE
 10
10.614867
 20
17.077172
 30
0.000000
 40
10.608200
 50
-112.577691
 51
-97.343255
  6
CONTINUOUS
  0
ARC
  8
WHITE
 10
9.498499
 20
8.912599
 30
0.000000
 40
2.368760
 50
-95.803013
 51
-62.316400
  6
CONTINUOUS
  0
ARC
  8
WHITE
 10
10.481154
 20
7.040027
 30
0.000000
 40
0.254017
 50
-62.359614
 51
88.906910
  6
CONTINUOUS
  0
ARC
  8
WHITE
 10
10.558134
 20
11.271186
 30
0.000000
 40
3.977841
 50
-112.607311
 51
-91.039058
  6
CONTINUOUS
  0
ARC
  8
WHITE
 10
3.571500
 20
-5.480400
 30
0.000000
 40
14.172330
 50
67.351211
 51
74.193050
  6
CONTINUOUS
  0
ARC
  8
WHITE
 10
7.305179
 20
7.297703
 30
0.000000
 40
0.867619
 50
81.594907
 51
120.793903
  6
CONTINUOUS
  0
ARC
  8
WHITE
 10
8.289213
 20
5.639888
 30
0.000000
 40
2.795485
 50
120.723778
 51
135.045050
  6
CONTINUOUS
  0
ARC
  8
WHITE
 10
6.354599
 20
7.576799
 30
0.000000
 40
0.058029
 50
138.776699
 51
302.759786
  6
CONTINUOUS
  0
LINE
  8
WHITE
 10
6.386000
 20
7.528000
 30
0.000000
 11
6.704000
 21
7.765999
 31
0.000000
  6
CONTINUOUS
  0
ARC
  8
WHITE
 10
6.710000
 20
7.757999
 30
0.000000
 40
0.010000
 50
36.873336
 51
126.869898
  6
CONTINUOUS
  0
LINE
  8
WHITE
 10
6.718000
 20
7.763999
 30
0.000000
 11
6.771999
 21
7.691999
 31
0.000000
  6
CONTINUOUS
  0
ARC
  8
WHITE
 10
6.763999
 20
7.685999
 30
0.000000
 40
0.010000
 50
-53.130102
 51
36.869898
  6
CONTINUOUS
  0
LINE
  8
WHITE
 10
6.769999
 20
7.677999
 30
0.000000
 11
6.439000
 21
7.429999
 31
0.000000
  6
CONTINUOUS
  0
ARC
  8
WHITE
 10
6.477873
 20
7.379056
 30
0.000000
 40
0.064080
 50
127.346113
 51
247.156130
  6
CONTINUOUS
  0
LINE
  8
WHITE
 10
6.452996
 20
7.320002
 30
0.000000
 11
6.513999
 21
7.294001
 31
0.000000
  6
CONTINUOUS
  0
ARC
  8
WHITE
 10
9.770196
 20
7.838279
 30
0.000000
 40
1.132840
 50
-92.995283
 51
-56.648642
  6
CONTINUOUS
  0
ARC
  8
WHITE
 10
10.314900
 20
7.008600
 30
0.000000
 40
0.140338
 50
-56.185359
 51
105.244200
  6
CONTINUOUS
  0
ARC
  8
WHITE
 10
9.000800
 20
11.758800
 30
0.000000
 40
4.788278
 50
-96.027600
 51
-74.529943
  6
CONTINUOUS
  0
ARC
  8
WHITE
 10
8.487498
 20
6.952497
 30
0.000000
 40
0.045719
 50
76.726757
 51
256.726880
  6
CONTINUOUS
  0
ARC
  8
WHITE
 10
9.589500
 20
9.849300
 30
0.000000
 40
3.144662
 50
-110.718305
 51
-87.785701
  6
CONTINUOUS
  0
ARC
  8
WHITE
 10
9.400532
 20
8.940537
 30
0.000000
 40
1.872671
 50
-110.458090
 51
-107.032522
  6
CONTINUOUS
  0
ARC
  8
WHITE
 10
9.265640
 20
9.331630
 30
0.000000
 40
2.220493
 50
-100.735950
 51
-81.417803
  6
CONTINUOUS
  0
ARC
  8
WHITE
 10
9.590121
 20
7.171984
 30
0.000000
 40
0.036636
 50
-79.177455
 51
64.313129
  6
CONTINUOUS
  0
ARC
  8
WHITE
 10
0.121399
 20
-14.218700
 30
0.000000
 40
23.429310
 50
66.120289
 51
68.206040
  6
CONTINUOUS
  0
ARC
  8
WHITE
 10
7.815599
 20
5.020799
 30
0.000000
 40
2.708330
 50
68.231615
 51
83.184610
  6
CONTINUOUS
  0
ARC
  8
WHITE
 10
8.130091
 20
7.649712
 30
0.000000
 40
0.060674
 50
83.462999
 51
224.747563
  6
CONTINUOUS
  0
ARC
  8
WHITE
 10
9.402027
 20
8.939063
 30
0.000000
 40
1.871813
 50
-134.631237
 51
-110.516727
  6
CONTINUOUS
  0
ARC
  8
WHITE
 10
7.416438
 20
7.602929
 30
0.000000
 40
0.377800
 50
47.843798
 51
117.840761
  6
CONTINUOUS
  0
ARC
  8
WHITE
 10
7.294999
 20
7.832999
 30
0.000000
 40
0.117647
 50
117.871941
 51
228.447500
  6
CONTINUOUS
  0
ARC
  8
WHITE
 10
8.775301
 20
9.504887
 30
0.000000
 40
2.350695
 50
-131.523446
 51
-106.669666
  6
CONTINUOUS
  0
ARC
  8
WHITE
 10
8.127586
 20
7.303958
 30
0.000000
 40
0.057495
 50
-117.546791
 51
3.032578
  6
CONTINUOUS
  0
LINE
  8
WHITE
 10
8.185000
 20
7.307000
 30
0.000000
 11
7.745999
 21
7.787000
 31
0.000000
  6
CONTINUOUS
  0
ARC
  8
WHITE
 10
7.415954
 20
7.603797
 30
0.000000
 40
0.377482
 50
29.033958
 51
47.700910
  6
CONTINUOUS
  0
LINE
  8
WHITE
 10
7.040999
 20
7.249000
 30
0.000000
 11
8.088999
 21
6.993999
 31
0.000000
  6
CONTINUOUS
  0
ARC
  8
WHITE
 10
8.079955
 20
7.051693
 30
0.000000
 40
0.058399
 50
-81.090927
 51
49.349748
  6
CONTINUOUS
  0
ARC
  8
WHITE
 10
8.224399
 20
7.870200
 30
0.000000
 40
0.781477
 50
-110.243600
 51
-97.825307
  6
CONTINUOUS
  0
ARC
  8
WHITE
 10
10.335143
 20
12.351273
 30
0.000000
 40
5.732237
 50
-121.524107
 51
-114.544214
  6
CONTINUOUS
  0
ARC
  8
WHITE
 10
7.006731
 20
6.925681
 30
0.000000
 40
0.632931
 50
58.440082
 51
101.458027
  6
CONTINUOUS
  0
ARC
  8
WHITE
 10
7.017189
 20
7.238595
 30
0.000000
 40
0.336222
 50
113.894900
 51
156.437488
  6
CONTINUOUS
  0
ARC
  8
WHITE
 10
6.741700
 20
7.358099
 30
0.000000
 40
0.035934
 50
155.502667
 51
257.626900
  6
CONTINUOUS
  0
LINE
  8
WHITE
 10
6.734000
 20
7.323000
 30
0.000000
 11
7.040999
 21
7.249000
 31
0.000000
  6
CONTINUOUS
  0
LINE
  8
WHITE
 10
12.478804
 20
4.152793
 30
0.000000
 11
12.490818
 21
4.180792
 31
0.000000
  6
CONTINUOUS
  0
ARC
  8
WHITE
 10
2.695633
 20
8.253661
 30
0.000000
 40
10.608200
 50
-22.577696
 51
-7.343255
  6
CONTINUOUS
  0
ARC
  8
WHITE
 10
10.860206
 20
7.137293
 30
0.000000
 40
2.368760
 50
-5.803013
 51
27.683600
  6
CONTINUOUS
  0
ARC
  8
WHITE
 10
12.732777
 20
8.119948
 30
0.000000
 40
0.254018
 50
27.640282
 51
178.906910
  6
CONTINUOUS
  0
ARC
  8
WHITE
 10
8.501619
 20
8.196928
 30
0.000000
 40
3.977840
 50
-22.607311
 51
-1.039058
  6
CONTINUOUS
  0
ARC
  8
WHITE
 10
25.253205
 20
1.210294
 30
0.000000
 40
14.172330
 50
157.351211
 51
164.193050
  6
CONTINUOUS
  0
ARC
  8
WHITE
 10
12.475101
 20
4.943972
 30
0.000000
 40
0.867618
 50
171.594832
 51
210.793903
  6
CONTINUOUS
  0
ARC
  8
WHITE
 10
14.132917
 20
5.928006
 30
0.000000
 40
2.795486
 50
-149.276233
 51
-134.954950
  6
CONTINUOUS
  0
ARC
  8
WHITE
 10
12.196006
 20
3.993393
 30
0.000000
 40
0.058029
 50
-131.222650
 51
32.759786
  6
CONTINUOUS
  0
LINE
  8
WHITE
 10
12.244805
 20
4.024794
 30
0.000000
 11
12.006806
 21
4.342794
 31
0.000000
  6
CONTINUOUS
  0
ARC
  8
WHITE
 10
12.014806
 20
4.348794
 30
0.000000
 40
0.010000
 50
126.873336
 51
216.869898
  6
CONTINUOUS
  0
LINE
  8
WHITE
 10
12.008806
 20
4.356794
 30
0.000000
 11
12.080805
 21
4.410793
 31
0.000000
  6
CONTINUOUS
  0
ARC
  8
WHITE
 10
12.086806
 20
4.402793
 30
0.000000
 40
0.010001
 50
36.869898
 51
126.874481
  6
CONTINUOUS
  0
LINE
  8
WHITE
 10
12.094806
 20
4.408793
 30
0.000000
 11
12.342806
 21
4.077794
 31
0.000000
  6
CONTINUOUS
  0
ARC
  8
WHITE
 10
12.393748
 20
4.116667
 30
0.000000
 40
0.064080
 50
-142.653344
 51
-22.843523
  6
CONTINUOUS
  0
LINE
  8
WHITE
 10
12.452803
 20
4.091790
 30
0.000000
 11
12.478804
 21
4.152793
 31
0.000000
  6
CONTINUOUS
  0
ARC
  8
WHITE
 10
11.934526
 20
7.408990
 30
0.000000
 40
1.132840
 50
-2.995283
 51
33.351358
  6
CONTINUOUS
  0
ARC
  8
WHITE
 10
12.764205
 20
7.953694
 30
0.000000
 40
0.140338
 50
33.814641
 51
195.244200
  6
CONTINUOUS
  0
ARC
  8
WHITE
 10
8.014005
 20
6.639594
 30
0.000000
 40
4.788278
 50
-6.027600
 51
15.470057
  6
CONTINUOUS
  0
ARC
  8
WHITE
 10
12.820308
 20
6.126292
 30
0.000000
 40
0.045719
 50
166.726757
 51
346.726880
  6
CONTINUOUS
  0
ARC
  8
WHITE
 10
9.923505
 20
7.228294
 30
0.000000
 40
3.144662
 50
-20.718305
 51
2.214299
  6
CONTINUOUS
  0
ARC
  8
WHITE
 10
10.832267
 20
7.039325
 30
0.000000
 40
1.872671
 50
-20.458090
 51
-17.032522
  6
CONTINUOUS
  0
ARC
  8
WHITE
 10
10.441174
 20
6.904433
 30
0.000000
 40
2.220493
 50
-10.735950
 51
8.582197
  6
CONTINUOUS
  0
ARC
  8
WHITE
 10
12.600821
 20
7.228914
 30
0.000000
 40
0.036635
 50
10.822839
 51
154.313129
  6
CONTINUOUS
  0
ARC
  8
WHITE
 10
33.991505
 20
-2.239807
 30
0.000000
 40
23.429310
 50
156.120292
 51
158.206040
  6
CONTINUOUS
  0
ARC
  8
WHITE
 10
14.752006
 20
5.454393
 30
0.000000
 40
2.708330
 50
158.231615
 51
173.184610
  6
CONTINUOUS
  0
ARC
  8
WHITE
 10
12.123092
 20
5.768885
 30
0.000000
 40
0.060673
 50
173.462892
 51
314.747563
  6
CONTINUOUS
  0
ARC
  8
WHITE
 10
10.833742
 20
7.040821
 30
0.000000
 40
1.871813
 50
-44.631267
 51
-20.516775
  6
CONTINUOUS
  0
ARC
  8
WHITE
 10
12.169875
 20
5.055232
 30
0.000000
 40
0.377800
 50
137.843798
 51
207.840761
  6
CONTINUOUS
  0
ARC
  8
WHITE
 10
11.939806
 20
4.933793
 30
0.000000
 40
0.117648
 50
-152.128287
 51
-41.552500
  6
CONTINUOUS
  0
ARC
  8
WHITE
 10
10.267918
 20
6.414094
 30
0.000000
 40
2.350694
 50
-41.523428
 51
-16.669666
  6
CONTINUOUS
  0
ARC
  8
WHITE
 10
12.468846
 20
5.766379
 30
0.000000
 40
0.057496
 50
-27.546331
 51
93.032578
  6
CONTINUOUS
  0
LINE
  8
WHITE
 10
12.465804
 20
5.823793
 30
0.000000
 11
11.985805
 21
5.384793
 31
0.000000
  6
CONTINUOUS
  0
ARC
  8
WHITE
 10
12.169005
 20
5.054748
 30
0.000000
 40
0.377481
 50
119.033595
 51
137.700692
  6
CONTINUOUS
  0
LINE
  8
WHITE
 10
12.523805
 20
4.679793
 30
0.000000
 11
12.778806
 21
5.727793
 31
0.000000
  6
CONTINUOUS
  0
ARC
  8
WHITE
 10
12.721111
 20
5.718749
 30
0.000000
 40
0.058400
 50
8.908921
 51
139.349748
  6
CONTINUOUS
  0
ARC
  8
WHITE
 10
11.902605
 20
5.863193
 30
0.000000
 40
0.781476
 50
-20.243600
 51
-7.825317
  6
CONTINUOUS
  0
ARC
  8
WHITE
 10
7.421531
 20
7.973937
 30
0.000000
 40
5.732238
 50
-31.524107
 51
-24.544210
  6
CONTINUOUS
  0
ARC
  8
WHITE
 10
12.847124
 20
4.645525
 30
0.000000
 40
0.632932
 50
148.440129
 51
191.458027
  6
CONTINUOUS
  0
ARC
  8
WHITE
 10
12.534210
 20
4.655983
 30
0.000000
 40
0.336222
 50
-156.105100
 51
-113.562512
  6
CONTINUOUS
  0
ARC
  8
WHITE
 10
12.414706
 20
4.380494
 30
0.000000
 40
0.035934
 50
-114.497333
 51
-12.373100
  6
CONTINUOUS
  0
LINE
  8
WHITE
 10
12.449805
 20
4.372794
 30
0.000000
 11
12.523805
 21
4.679793
 31
0.000000
  6
CONTINUOUS
  0
LINE
  8
WHITE
 10
10.183000
 20
5.298999
 30
0.000000
 11
10.071000
 21
5.289000
 31
0.000000
  6
CONTINUOUS
  0
ARC
  8
WHITE
 10
10.070100
 20
5.299060
 30
0.000000
 40
0.010100
 50
-179.655062
 51
-84.887745
  6
CONTINUOUS
  0
LINE
  8
WHITE
 10
10.060000
 20
5.298999
 30
0.000000
 11
10.049000
 21
5.586999
 31
0.000000
  6
CONTINUOUS
  0
ARC
  8
WHITE
 10
10.039000
 20
5.585999
 30
0.000000
 40
0.010050
 50
5.710593
 51
95.707340
  6
CONTINUOUS
  0
LINE
  8
WHITE
 10
10.038001
 20
5.595999
 30
0.000000
 11
9.947999
 21
5.587999
 31
0.000000
  6
CONTINUOUS
  0
ARC
  8
WHITE
 10
9.949000
 20
5.577999
 30
0.000000
 40
0.010050
 50
95.716266
 51
179.997300
  6
CONTINUOUS
  0
LINE
  8
WHITE
 10
9.938950
 20
5.577999
 30
0.000000
 11
9.949999
 21
5.288000
 31
0.000000
  6
CONTINUOUS
  0
ARC
  8
WHITE
 10
9.939999
 20
5.287000
 30
0.000000
 40
0.010050
 50
-84.287200
 51
5.710593
  6
CONTINUOUS
  0
LINE
  8
WHITE
 10
9.940999
 20
5.277000
 30
0.000000
 11
9.652000
 21
5.250999
 31
0.000000
  6
CONTINUOUS
  0
ARC
  8
WHITE
 10
9.651000
 20
5.261000
 30
0.000000
 40
0.010051
 50
-174.289900
 51
-84.289974
  6
CONTINUOUS
  0
LINE
  8
WHITE
 10
9.640999
 20
5.260000
 30
0.000000
 11
9.630000
 21
5.547999
 31
0.000000
  6
CONTINUOUS
  0
ARC
  8
WHITE
 10
9.619999
 20
5.547999
 30
0.000000
 40
0.010001
 50
0.000000
 51
95.707340
  6
CONTINUOUS
  0
LINE
  8
WHITE
 10
9.619004
 20
5.557950
 30
0.000000
 11
9.529000
 21
5.550000
 31
0.000000
  6
CONTINUOUS
  0
ARC
  8
WHITE
 10
9.529900
 20
5.539999
 30
0.000000
 40
0.010041
 50
95.142253
 51
185.767400
  6
CONTINUOUS
  0
LINE
  8
WHITE
 10
9.519910
 20
5.538990
 30
0.000000
 11
9.531230
 21
5.259022
 31
0.000000
  6
CONTINUOUS
  0
ARC
  8
WHITE
 10
9.511246
 20
5.258214
 30
0.000000
 40
0.020000
 50
-84.863622
 51
2.315342
  6
CONTINUOUS
  0
LINE
  8
WHITE
 10
9.513037
 20
5.238294
 30
0.000000
 11
9.442999
 21
5.231999
 31
0.000000
  6
CONTINUOUS
  0
ARC
  8
WHITE
 10
9.428995
 20
5.385407
 30
0.000000
 40
0.154046
 50
-154.462984
 51
-84.784155
  6
CONTINUOUS
  0
ARC
  8
WHITE
 10
8.584008
 20
4.980581
 30
0.000000
 40
0.782910
 50
25.610813
 51
58.763916
  6
CONTINUOUS
  0
ARC
  8
WHITE
 10
7.641699
 20
2.760300
 30
0.000000
 40
3.188773
 50
64.986798
 51
83.566540
  6
CONTINUOUS
  0
ARC
  8
WHITE
 10
9.233666
 20
16.904534
 30
0.000000
 40
11.044769
 50
-104.405057
 51
-96.418369
  6
CONTINUOUS
  0
ARC
  8
WHITE
 10
6.488299
 20
6.216799
 30
0.000000
 40
0.010066
 50
-157.774900
 51
-103.205668
  6
CONTINUOUS
  0
ARC
  8
WHITE
 10
6.703698
 20
6.306679
 30
0.000000
 40
0.243465
 50
175.448381
 51
202.631874
  6
CONTINUOUS
  0
ARC
  8
WHITE
 10
6.470971
 20
6.325206
 30
0.000000
 40
0.010002
 50
78.297986
 51
175.448412
  6
CONTINUOUS
  0
LINE
  8
WHITE
 10
6.473000
 20
6.335000
 30
0.000000
 11
7.743000
 21
6.103000
 31
0.000000
  6
CONTINUOUS
  0
ARC
  8
WHITE
 10
7.744200
 20
6.112900
 30
0.000000
 40
0.009972
 50
-96.911227
 51
-10.973400
  6
CONTINUOUS
  0
LINE
  8
WHITE
 10
7.753990
 20
6.111002
 30
0.000000
 11
7.769999
 21
6.198999
 31
0.000000
  6
CONTINUOUS
  0
ARC
  8
WHITE
 10
7.760300
 20
6.201200
 30
0.000000
 40
0.009946
 50
-12.785626
 51
80.159260
  6
CONTINUOUS
  0
LINE
  8
WHITE
 10
7.762000
 20
6.211000
 30
0.000000
 11
6.465000
 21
6.448999
 31
0.000000
  6
CONTINUOUS
  0
ARC
  8
WHITE
 10
6.843071
 20
8.131624
 30
0.000000
 40
1.724577
 50
-130.589588
 51
-102.663541
  6
CONTINUOUS
  0
ARC
  8
WHITE
 10
5.714300
 20
6.814499
 30
0.000000
 40
0.010056
 50
48.227169
 51
121.944700
  6
CONTINUOUS
  0
LINE
  8
WHITE
 10
5.708979
 20
6.823032
 30
0.000000
 11
5.514999
 21
6.677999
 31
0.000000
  6
CONTINUOUS
  0
ARC
  8
WHITE
 10
5.249189
 20
7.033309
 30
0.000000
 40
0.443734
 50
-135.628217
 51
-53.199570
  6
CONTINUOUS
  0
ARC
  8
WHITE
 10
4.939262
 20
6.730049
 30
0.000000
 40
0.010121
 50
128.223773
 51
224.145499
  6
CONTINUOUS
  0
LINE
  8
WHITE
 10
4.933000
 20
6.737999
 30
0.000000
 11
5.436999
 21
7.114999
 31
0.000000
  6
CONTINUOUS
  0
ARC
  8
WHITE
 10
5.430999
 20
7.122999
 30
0.000000
 40
0.010000
 50
-53.130102
 51
36.870990
  6
CONTINUOUS
  0
LINE
  8
WHITE
 10
5.438999
 20
7.128999
 30
0.000000
 11
5.386000
 21
7.201000
 31
0.000000
  6
CONTINUOUS
  0
ARC
  8
WHITE
 10
5.378000
 20
7.195000
 30
0.000000
 40
0.010000
 50
36.869898
 51
126.870500
  6
CONTINUOUS
  0
LINE
  8
WHITE
 10
5.372000
 20
7.203000
 30
0.000000
 11
4.867000
 21
6.826000
 31
0.000000
  6
CONTINUOUS
  0
ARC
  8
WHITE
 10
4.860771
 20
6.833853
 30
0.000000
 40
0.010023
 50
-151.034933
 51
-51.578547
  6
CONTINUOUS
  0
ARC
  8
WHITE
 10
5.274642
 20
7.051912
 30
0.000000
 40
0.477824
 50
107.746279
 51
207.808484
  6
CONTINUOUS
  0
ARC
  8
WHITE
 10
4.654459
 20
8.473679
 30
0.000000
 40
1.076875
 50
-63.853680
 51
-32.567825
  6
CONTINUOUS
  0
ARC
  8
WHITE
 10
6.455123
 20
7.321391
 30
0.000000
 40
1.060919
 50
123.213060
 51
147.334784
  6
CONTINUOUS
  0
ARC
  8
WHITE
 10
5.901769
 20
8.144715
 30
0.000000
 40
0.070024
 50
-30.666501
 51
113.363542
  6
CONTINUOUS
  0
ARC
  8
WHITE
 10
6.294699
 20
7.901300
 30
0.000000
 40
0.392209
 50
148.023952
 51
164.365700
  6
CONTINUOUS
  0
ARC
  8
WHITE
 10
7.211400
 20
7.808300
 30
0.000000
 40
1.309561
 50
171.272838
 51
189.551500
  6
CONTINUOUS
  0
ARC
  8
WHITE
 10
5.515194
 20
7.549891
 30
0.000000
 40
0.406882
 50
-35.606450
 51
5.798625
  6
CONTINUOUS
  0
ARC
  8
WHITE
 10
6.067500
 20
7.154600
 30
0.000000
 40
0.272307
 50
144.430383
 51
249.242000
  6
CONTINUOUS
  0
ARC
  8
WHITE
 10
9.129018
 20
15.250506
 30
0.000000
 40
8.927745
 50
-110.715757
 51
-104.027852
  6
CONTINUOUS
  0
ARC
  8
WHITE
 10
10.837100
 20
23.867200
 30
0.000000
 40
17.706760
 50
-102.631501
 51
-92.761545
  6
CONTINUOUS
  0
ARC
  8
WHITE
 10
9.976092
 20
6.027217
 30
0.000000
 40
0.153989
 50
22.844513
 51
87.056678
  6
CONTINUOUS
  0
ARC
  8
WHITE
 10
8.965499
 20
5.595099
 30
0.000000
 40
1.253086
 50
-12.260500
 51
23.113335
  6
CONTINUOUS
  0
LINE
  8
WHITE
 10
10.190004
 20
5.328998
 30
0.000000
 11
10.183000
 21
5.298999
 31
0.000000
  6
CONTINUOUS
  0
LINE
  8
WHITE
 10
4.801763
 20
1.997498
 30
0.000000
 11
4.745999
 21
1.878999
 31
0.000000
  6
CONTINUOUS
  0
ARC
  8
WHITE
 10
4.754799
 20
1.874199
 30
0.000000
 40
0.010024
 50
151.389540
 51
247.557600
  6
CONTINUOUS
  0
LINE
  8
WHITE
 10
4.750972
 20
1.864934
 30
0.000000
 11
4.833000
 21
1.827999
 31
0.000000
  6
CONTINUOUS
  0
ARC
  8
WHITE
 10
4.836900
 20
1.837199
 30
0.000000
 40
0.009992
 50
-112.972721
 51
-24.775100
  6
CONTINUOUS
  0
LINE
  8
WHITE
 10
4.845972
 20
1.833012
 30
0.000000
 11
4.906000
 21
1.960999
 31
0.000000
  6
CONTINUOUS
  0
ARC
  8
WHITE
 10
4.914600
 20
1.955999
 30
0.000000
 40
0.009948
 50
63.947810
 51
149.826480
  6
CONTINUOUS
  0
ARC
  8
WHITE
 10
7.129161
 20
6.978902
 30
0.000000
 40
5.479489
 50
-113.788228
 51
-110.457601
  6
CONTINUOUS
  0
ARC
  8
WHITE
 10
5.210600
 20
1.835600
 30
0.000000
 40
0.009994
 50
-20.957000
 51
70.100579
  6
CONTINUOUS
  0
LINE
  8
WHITE
 10
5.219933
 20
1.832025
 30
0.000000
 11
5.171000
 21
1.700000
 31
0.000000
  6
CONTINUOUS
  0
ARC
  8
WHITE
 10
5.180378
 20
1.696444
 30
0.000000
 40
0.010030
 50
159.234008
 51
250.318790
  6
CONTINUOUS
  0
LINE
  8
WHITE
 10
5.177000
 20
1.687000
 30
0.000000
 11
5.261000
 21
1.656999
 31
0.000000
  6
CONTINUOUS
  0
ARC
  8
WHITE
 10
5.264591
 20
1.666303
 30
0.000000
 40
0.009973
 50
-111.104745
 51
-19.346129
  6
CONTINUOUS
  0
LINE
  8
WHITE
 10
5.274000
 20
1.663000
 30
0.000000
 11
5.322999
 21
1.794999
 31
0.000000
  6
CONTINUOUS
  0
ARC
  8
WHITE
 10
5.332399
 20
1.791599
 30
0.000000
 40
0.009996
 50
69.043600
 51
160.114835
  6
CONTINUOUS
  0
ARC
  8
WHITE
 10
7.137124
 20
6.975843
 30
0.000000
 40
5.479400
 50
-109.190676
 51
-106.161086
  6
CONTINUOUS
  0
ARC
  8
WHITE
 10
5.608391
 20
1.703673
 30
0.000000
 40
0.009972
 50
-15.547993
 51
68.820514
  6
CONTINUOUS
  0
LINE
  8
WHITE
 10
5.617998
 20
1.701000
 30
0.000000
 11
5.578999
 21
1.565000
 31
0.000000
  6
CONTINUOUS
  0
ARC
  8
WHITE
 10
5.588699
 20
1.562600
 30
0.000000
 40
0.009992
 50
166.102824
 51
254.292300
  6
CONTINUOUS
  0
LINE
  8
WHITE
 10
5.585994
 20
1.552981
 30
0.000000
 11
5.672999
 21
1.529000
 31
0.000000
  6
CONTINUOUS
  0
ARC
  8
WHITE
 10
5.675380
 20
1.538705
 30
0.000000
 40
0.009993
 50
-103.784539
 51
-15.704889
  6
CONTINUOUS
  0
LINE
  8
WHITE
 10
5.684999
 20
1.536000
 30
0.000000
 11
5.723999
 21
1.671000
 31
0.000000
  6
CONTINUOUS
  0
ARC
  8
WHITE
 10
5.733672
 20
1.668609
 30
0.000000
 40
0.009964
 50
70.450854
 51
166.115771
  6
CONTINUOUS
  0
ARC
  8
WHITE
 10
7.142664
 20
6.974269
 30
0.000000
 40
5.479631
 50
-104.863920
 51
-101.726279
  6
CONTINUOUS
  0
ARC
  8
WHITE
 10
6.026999
 20
1.599200
 30
0.000000
 40
0.010001
 50
-6.842400
 51
78.439488
  6
CONTINUOUS
  0
LINE
  8
WHITE
 10
6.036930
 20
1.598008
 30
0.000000
 11
6.008999
 21
1.460000
 31
0.000000
  6
CONTINUOUS
  0
ARC
  8
WHITE
 10
6.018699
 20
1.457599
 30
0.000000
 40
0.009993
 50
166.097258
 51
254.292300
  6
CONTINUOUS
  0
LINE
  8
WHITE
 10
6.015994
 20
1.447979
 30
0.000000
 11
6.105000
 21
1.430999
 31
0.000000
  6
CONTINUOUS
  0
ARC
  8
WHITE
 10
6.106400
 20
1.440899
 30
0.000000
 40
0.009998
 50
-98.049062
 51
-16.808400
  6
CONTINUOUS
  0
LINE
  8
WHITE
 10
6.115971
 20
1.438008
 30
0.000000
 11
6.144999
 21
1.577000
 31
0.000000
  6
CONTINUOUS
  0
ARC
  8
WHITE
 10
6.154799
 20
1.575200
 30
0.000000
 40
0.009964
 50
77.346690
 51
169.592289
  6
CONTINUOUS
  0
ARC
  8
WHITE
 10
7.140138
 20
6.975294
 30
0.000000
 40
5.479298
 50
-100.336628
 51
-97.183113
  6
CONTINUOUS
  0
ARC
  8
WHITE
 10
6.453100
 20
1.529210
 30
0.000000
 40
0.009973
 50
-6.974493
 51
79.002212
  6
CONTINUOUS
  0
LINE
  8
WHITE
 10
6.462999
 20
1.527999
 30
0.000000
 11
6.446000
 21
1.388000
 31
0.000000
  6
CONTINUOUS
  0
ARC
  8
WHITE
 10
6.455900
 20
1.386900
 30
0.000000
 40
0.009961
 50
173.659808
 51
264.804100
  6
CONTINUOUS
  0
LINE
  8
WHITE
 10
6.454998
 20
1.376980
 30
0.000000
 11
6.544000
 21
1.366999
 31
0.000000
  6
CONTINUOUS
  0
ARC
  8
WHITE
 10
6.545200
 20
1.376899
 30
0.000000
 40
0.009972
 50
-96.911227
 51
-10.972600
  6
CONTINUOUS
  0
LINE
  8
WHITE
 10
6.554990
 20
1.375001
 30
0.000000
 11
6.572999
 21
1.514999
 31
0.000000
  6
CONTINUOUS
  0
ARC
  8
WHITE
 10
6.582900
 20
1.514099
 30
0.000000
 40
0.009942
 50
83.659510
 51
174.806093
  6
CONTINUOUS
  0
ARC
  8
WHITE
 10
7.134271
 20
6.976132
 30
0.000000
 40
5.479850
 50
-95.763211
 51
-92.617703
  6
CONTINUOUS
  0
ARC
  8
WHITE
 10
6.883999
 20
1.491999
 30
0.000000
 40
0.010001
 50
-5.710100
 51
90.012258
  6
CONTINUOUS
  0
LINE
  8
WHITE
 10
6.893950
 20
1.491004
 30
0.000000
 11
6.888000
 21
1.350999
 31
0.000000
  6
CONTINUOUS
  0
ARC
  8
WHITE
 10
6.898000
 20
1.349999
 30
0.000000
 40
0.010050
 50
174.289407
 51
264.287000
  6
CONTINUOUS
  0
LINE
  8
WHITE
 10
6.897000
 20
1.339999
 30
0.000000
 11
6.986999
 21
1.337000
 31
0.000000
  6
CONTINUOUS
  0
ARC
  8
WHITE
 10
6.987950
 20
1.347005
 30
0.000000
 40
0.010050
 50
-95.429792
 51
-0.027177
  6
CONTINUOUS
  0
LINE
  8
WHITE
 10
6.998000
 20
1.347000
 30
0.000000
 11
7.004000
 21
1.488000
 31
0.000000
  6
CONTINUOUS
  0
ARC
  8
WHITE
 10
7.013950
 20
1.486999
 30
0.000000
 40
0.010000
 50
89.701870
 51
174.255201
  6
CONTINUOUS
  0
ARC
  8
WHITE
 10
7.132953
 20
6.978821
 30
0.000000
 40
5.483113
 50
-91.243081
 51
-88.013673
  6
CONTINUOUS
  0
ARC
  8
WHITE
 10
7.322999
 20
1.488999
 30
0.000000
 40
0.010004
 50
0.000000
 51
89.973359
  6
CONTINUOUS
  0
LINE
  8
WHITE
 10
7.333002
 20
1.488999
 30
0.000000
 11
7.337999
 21
1.348999
 31
0.000000
  6
CONTINUOUS
  0
ARC
  8
WHITE
 10
7.348000
 20
1.348999
 30
0.000000
 40
0.010001
 50
180.000000
 51
270.000000
  6
CONTINUOUS
  0
LINE
  8
WHITE
 10
7.348000
 20
1.338998
 30
0.000000
 11
7.438000
 21
1.343000
 31
0.000000
  6
CONTINUOUS
  0
ARC
  8
WHITE
 10
7.438000
 20
1.353000
 30
0.000000
 40
0.010000
 50
-90.000000
 51
0.000000
  6
CONTINUOUS
  0
LINE
  8
WHITE
 10
7.448000
 20
1.353000
 30
0.000000
 11
7.442999
 21
1.495000
 31
0.000000
  6
CONTINUOUS
  0
ARC
  8
WHITE
 10
7.453050
 20
1.495005
 30
0.000000
 40
0.010051
 50
96.014394
 51
180.028503
  6
CONTINUOUS
  0
ARC
  8
WHITE
 10
7.140141
 20
6.976016
 30
0.000000
 40
5.479896
 50
-86.737582
 51
-79.550764
  6
CONTINUOUS
  0
ARC
  8
WHITE
 10
8.163003
 20
1.431342
 30
0.000000
 40
0.158336
 50
-3.745199
 51
100.555426
  6
CONTINUOUS
  0
LINE
  8
WHITE
 10
8.321000
 20
1.421000
 30
0.000000
 11
8.036000
 21
1.419999
 31
0.000000
  6
CONTINUOUS
  0
LINE
  8
WHITE
 10
8.036000
 20
1.419999
 30
0.000000
 11
8.027000
 21
1.309999
 31
0.000000
  6
CONTINUOUS
  0
LINE
  8
WHITE
 10
8.027000
 20
1.309999
 30
0.000000
 11
8.312000
 21
1.310999
 31
0.000000
  6
CONTINUOUS
  0
LINE
  8
WHITE
 10
8.312000
 20
1.310999
 30
0.000000
 11
8.284999
 21
0.970000
 31
0.000000
  6
CONTINUOUS
  0
ARC
  8
WHITE
 10
8.274999
 20
0.971000
 30
0.000000
 40
0.010050
 50
-90.000000
 51
-5.710593
  6
CONTINUOUS
  0
LINE
  8
WHITE
 10
8.274999
 20
0.960950
 30
0.000000
 11
8.010000
 21
0.967000
 31
0.000000
  6
CONTINUOUS
  0
ARC
  8
WHITE
 10
8.008911
 20
0.957109
 30
0.000000
 40
0.009951
 50
83.717035
 51
174.864648
  6
CONTINUOUS
  0
LINE
  8
WHITE
 10
7.999001
 20
0.958000
 30
0.000000
 11
7.992000
 21
0.867999
 31
0.000000
  6
CONTINUOUS
  0
ARC
  8
WHITE
 10
8.001999
 20
0.867999
 30
0.000000
 40
0.009999
 50
180.000000
 51
270.000000
  6
CONTINUOUS
  0
LINE
  8
WHITE
 10
8.001999
 20
0.858000
 30
0.000000
 11
8.265000
 21
0.851000
 31
0.000000
  6
CONTINUOUS
  0
ARC
  8
WHITE
 10
8.265000
 20
0.841000
 30
0.000000
 40
0.010000
 50
-5.711300
 51
90.000000
  6
CONTINUOUS
  0
ARC
  8
WHITE
 10
8.089849
 20
0.857899
 30
0.000000
 40
0.185964
 50
-89.645465
 51
-5.521752
  6
CONTINUOUS
  0
LINE
  8
WHITE
 10
8.091000
 20
0.671940
 30
0.000000
 11
7.876999
 21
0.671000
 31
0.000000
  6
CONTINUOUS
  0
ARC
  8
WHITE
 10
7.844992
 20
0.949606
 30
0.000000
 40
0.280438
 50
-134.911197
 51
-83.446439
  6
CONTINUOUS
  0
LINE
  8
WHITE
 10
7.646999
 20
0.750999
 30
0.000000
 11
7.619999
 21
0.917999
 31
0.000000
  6
CONTINUOUS
  0
ARC
  8
WHITE
 10
7.480599
 20
0.909999
 30
0.000000
 40
0.139629
 50
3.284534
 51
73.615060
  6
CONTINUOUS
  0
ARC
  8
WHITE
 10
6.830734
 20
5.811782
 30
0.000000
 40
4.817387
 50
-117.584676
 51
-81.774116
  6
CONTINUOUS
  0
ARC
  8
WHITE
 10
4.573746
 20
1.492629
 30
0.000000
 40
0.055917
 50
61.997496
 51
175.517369
  6
CONTINUOUS
  0
LINE
  8
WHITE
 10
4.518000
 20
1.496999
 30
0.000000
 11
4.502999
 21
1.309999
 31
0.000000
  6
CONTINUOUS
  0
ARC
  8
WHITE
 10
4.409222
 20
1.317192
 30
0.000000
 40
0.094052
 50
-158.026930
 51
-4.386184
  6
CONTINUOUS
  0
ARC
  8
WHITE
 10
5.735300
 20
1.868000
 30
0.000000
 40
1.529971
 50
172.337600
 51
202.520492
  6
CONTINUOUS
  0
ARC
  8
WHITE
 10
4.404491
 20
1.999203
 30
0.000000
 40
0.199273
 50
66.492666
 51
158.573230
  6
CONTINUOUS
  0
LINE
  8
WHITE
 10
4.483974
 20
2.181938
 30
0.000000
 11
4.792782
 21
2.023816
 31
0.000000
  6
CONTINUOUS
  0
ARC
  8
WHITE
 10
4.783666
 20
2.006014
 30
0.000000
 40
0.020000
 50
-25.200514
 51
62.884045
  6
CONTINUOUS
  0
LINE
  8
WHITE
 10
1.261064
 20
1.589479
 30
0.000000
 11
1.419000
 21
1.894000
 31
0.000000
  6
CONTINUOUS
  0
ARC
  8
WHITE
 10
1.410400
 20
1.899100
 30
0.000000
 40
0.009998
 50
-30.668927
 51
62.667810
  6
CONTINUOUS
  0
LINE
  8
WHITE
 10
1.414991
 20
1.907982
 30
0.000000
 11
1.335000
 21
1.949000
 31
0.000000
  6
CONTINUOUS
  0
ARC
  8
WHITE
 10
1.330646
 20
1.940026
 30
0.000000
 40
0.009974
 50
64.118294
 51
150.088317
  6
CONTINUOUS
  0
LINE
  8
WHITE
 10
1.322001
 20
1.945000
 30
0.000000
 11
1.157999
 21
1.631000
 31
0.000000
  6
CONTINUOUS
  0
ARC
  8
WHITE
 10
1.149299
 20
1.636000
 30
0.000000
 40
0.010034
 50
-115.537300
 51
-29.886527
  6
CONTINUOUS
  0
ARC
  8
WHITE
 10
1.216405
 20
1.788832
 30
0.000000
 40
0.176945
 50
-175.516571
 51
-113.809342
  6
CONTINUOUS
  0
LINE
  8
WHITE
 10
1.040001
 20
1.775000
 30
0.000000
 11
1.312999
 21
2.299000
 31
0.000000
  6
CONTINUOUS
  0
ARC
  8
WHITE
 10
1.751082
 20
2.070301
 30
0.000000
 40
0.494186
 50
87.457988
 51
152.433419
  6
CONTINUOUS
  0
ARC
  8
WHITE
 10
1.382803
 20
-6.314224
 30
0.000000
 40
8.886795
 50
75.825276
 51
87.483476
  6
CONTINUOUS
  0
ARC
  8
WHITE
 10
3.566999
 20
2.326499
 30
0.000000
 40
0.025773
 50
-108.084216
 51
71.916360
  6
CONTINUOUS
  0
ARC
  8
WHITE
 10
1.196523
 20
-3.516949
 30
0.000000
 40
6.331663
 50
67.935637
 51
83.110834
  6
CONTINUOUS
  0
ARC
  8
WHITE
 10
2.464799
 20
5.093400
 30
0.000000
 40
2.379435
 50
-126.633900
 51
-102.346992
  6
CONTINUOUS
  0
ARC
  8
WHITE
 10
1.107900
 20
3.266925
 30
0.000000
 40
0.104097
 50
103.837152
 51
232.819072
  6
CONTINUOUS
  0
ARC
  8
WHITE
 10
2.687699
 20
-3.151000
 30
0.000000
 40
6.713600
 50
82.620510
 51
103.828800
  6
CONTINUOUS
  0
ARC
  8
WHITE
 10
3.545586
 20
3.473293
 30
0.000000
 40
0.033986
 50
-66.798740
 51
82.541462
  6
CONTINUOUS
  0
ARC
  8
WHITE
 10
3.401439
 20
3.804714
 30
0.000000
 40
0.395397
 50
-95.287763
 51
-66.520223
  6
CONTINUOUS
  0
LINE
  8
WHITE
 10
3.365000
 20
3.411000
 30
0.000000
 11
3.058000
 21
3.437999
 31
0.000000
  6
CONTINUOUS
  0
ARC
  8
WHITE
 10
3.057200
 20
3.427999
 30
0.000000
 40
0.010032
 50
85.426079
 51
203.498100
  6
CONTINUOUS
  0
LINE
  8
WHITE
 10
3.048000
 20
3.423999
 30
0.000000
 11
3.094000
 21
3.312999
 31
0.000000
  6
CONTINUOUS
  0
ARC
  8
WHITE
 10
3.053000
 20
3.299099
 30
0.000000
 40
0.043292
 50
-135.844100
 51
18.727912
  6
CONTINUOUS
  0
ARC
  8
WHITE
 10
2.603039
 20
2.915172
 30
0.000000
 40
0.548298
 50
40.181658
 51
102.219301
  6
CONTINUOUS
  0
ARC
  8
WHITE
 10
2.973629
 20
-1.547477
 30
0.000000
 40
5.022158
 50
95.560599
 51
107.732866
  6
CONTINUOUS
  0
ARC
  8
WHITE
 10
1.456056
 20
3.213030
 30
0.000000
 40
0.026005
 50
117.662444
 51
254.246880
  6
CONTINUOUS
  0
ARC
  8
WHITE
 10
2.891799
 20
8.137200
 30
0.000000
 40
5.155215
 50
-106.252597
 51
-93.389600
  6
CONTINUOUS
  0
ARC
  8
WHITE
 10
2.395799
 20
0.737200
 30
0.000000
 40
2.261898
 50
47.806050
 51
85.151035
  6
CONTINUOUS
  0
ARC
  8
WHITE
 10
3.780889
 20
2.265395
 30
0.000000
 40
0.199411
 50
-91.408664
 51
47.742487
  6
CONTINUOUS
  0
ARC
  8
WHITE
 10
25.940210
 20
165.646863
 30
0.000000
 40
165.075547
 50
-98.209700
 51
-97.716245
  6
CONTINUOUS
  0
ARC
  8
WHITE
 10
2.260784
 20
1.524802
 30
0.000000
 40
0.745943
 50
81.736119
 51
152.520906
  6
CONTINUOUS
  0
LINE
  8
WHITE
 10
1.598999
 20
1.868999
 30
0.000000
 11
1.440999
 21
1.565999
 31
0.000000
  6
CONTINUOUS
  0
ARC
  8
WHITE
 10
1.351799
 20
1.718799
 30
0.000000
 40
0.176931
 50
-114.653000
 51
-59.724915
  6
CONTINUOUS
  0
LINE
  8
WHITE
 10
1.277997
 20
1.557995
 30
0.000000
 11
1.269334
 21
1.562663
 31
0.000000
  6
CONTINUOUS
  0
ARC
  8
WHITE
 10
1.278818
 20
1.580271
 30
0.000000
 40
0.020000
 50
152.586773
 51
241.692259
  6
CONTINUOUS
  0
ARC
  8
WHITE
 10
2.714900
 20
8.053199
 30
0.000000
 40
1.373323
 50
53.488900
 51
75.732311
  6
CONTINUOUS
  0
ARC
  8
WHITE
 10
3.048430
 20
9.364779
 30
0.000000
 40
0.020000
 50
75.732414
 51
136.304794
  6
CONTINUOUS
  0
LINE
  8
WHITE
 10
3.033970
 20
9.378595
 30
0.000000
 11
3.020989
 21
9.365009
 31
0.000000
  6
CONTINUOUS
  0
ARC
  8
WHITE
 10
6.161999
 20
6.433099
 30
0.000000
 40
4.296748
 50
136.972003
 51
164.033899
  6
CONTINUOUS
  0
ARC
  8
WHITE
 10
2.021199
 20
7.617000
 30
0.000000
 40
0.010003
 50
-91.140660
 51
-11.537357
  6
CONTINUOUS
  0
ARC
  8
WHITE
 10
2.136899
 20
9.591799
 30
0.000000
 40
1.988179
 50
-119.827500
 51
-93.341900
  6
CONTINUOUS
  0
ARC
  8
WHITE
 10
1.440380
 20
8.378998
 30
0.000000
 40
0.589601
 50
-168.354320
 51
-119.729026
  6
CONTINUOUS
  0
ARC
  8
WHITE
 10
0.817800
 20
8.250199
 30
0.000000
 40
0.046166
 50
12.234400
 51
172.782621
  6
CONTINUOUS
  0
LINE
  8
WHITE
 10
0.772001
 20
8.255999
 30
0.000000
 11
0.750999
 21
8.081999
 31
0.000000
  6
CONTINUOUS
  0
ARC
  8
WHITE
 10
0.741080
 20
8.083109
 30
0.000000
 40
0.009981
 50
-114.130402
 51
-6.385201
  6
CONTINUOUS
  0
LINE
  8
WHITE
 10
0.737000
 20
8.074000
 30
0.000000
 11
0.210999
 21
8.321000
 31
0.000000
  6
CONTINUOUS
  0
ARC
  8
WHITE
 10
0.179483
 20
8.262471
 30
0.000000
 40
0.066475
 50
61.698952
 51
241.698991
  6
CONTINUOUS
  0
ARC
  8
WHITE
 10
4.027100
 20
14.575900
 30
0.000000
 40
7.459860
 50
-121.332300
 51
-105.831367
  6
CONTINUOUS
  0
ARC
  8
WHITE
 10
1.572572
 20
8.390745
 30
0.000000
 40
1.076788
 50
-67.075625
 51
-28.494631
  6
CONTINUOUS
  0
ARC
  8
WHITE
 10
-10.625755
 20
15.007730
 30
0.000000
 40
14.954240
 50
-28.478851
 51
-23.202550
  6
CONTINUOUS
  0
ARC
  8
WHITE
 10
3.128400
 20
9.112700
 30
0.000000
 40
0.010012
 50
55.994467
 51
160.655668
  6
CONTINUOUS
  0
ARC
  8
WHITE
 10
0.973399
 20
5.719899
 30
0.000000
 40
4.029352
 50
44.120170
 51
57.573632
  6
CONTINUOUS
  0
ARC
  8
WHITE
 10
5.908669
 20
10.779827
 30
0.000000
 40
3.042491
 50
-132.173724
 51
-107.614092
  6
CONTINUOUS
  0
ARC
  8
WHITE
 10
5.009500
 20
8.157400
 30
0.000000
 40
0.278253
 50
-94.431938
 51
-48.190467
  6
CONTINUOUS
  0
LINE
  8
WHITE
 10
5.194999
 20
7.950000
 30
0.000000
 11
5.692999
 21
8.324000
 31
0.000000
  6
CONTINUOUS
  0
ARC
  8
WHITE
 10
5.642947
 20
8.391436
 30
0.000000
 40
0.083981
 50
-53.416647
 51
37.019774
  6
CONTINUOUS
  0
LINE
  8
WHITE
 10
5.710000
 20
8.442000
 30
0.000000
 11
5.684216
 21
8.475247
 31
0.000000
  6
CONTINUOUS
  0
ARC
  8
WHITE
 10
5.668412
 20
8.462990
 30
0.000000
 40
0.020000
 50
37.795837
 51
127.609725
  6
CONTINUOUS
  0
LINE
  8
WHITE
 10
5.656206
 20
8.478834
 30
0.000000
 11
5.401999
 21
8.282999
 31
0.000000
  6
CONTINUOUS
  0
ARC
  8
WHITE
 10
5.395999
 20
8.290999
 30
0.000000
 40
0.010000
 50
-143.126664
 51
-53.130102
  6
CONTINUOUS
  0
LINE
  8
WHITE
 10
5.387999
 20
8.284999
 30
0.000000
 11
5.332000
 21
8.356999
 31
0.000000
  6
CONTINUOUS
  0
ARC
  8
WHITE
 10
5.340000
 20
8.362999
 30
0.000000
 40
0.010000
 50
126.866460
 51
216.869898
  6
CONTINUOUS
  0
LINE
  8
WHITE
 10
5.334000
 20
8.370999
 30
0.000000
 11
5.588929
 21
8.566665
 31
0.000000
  6
CONTINUOUS
  0
ARC
  8
WHITE
 10
5.576752
 20
8.582531
 30
0.000000
 40
0.020000
 50
-52.494114
 51
38.244705
  6
CONTINUOUS
  0
LINE
  8
WHITE
 10
5.592459
 20
8.594911
 30
0.000000
 11
5.578994
 21
8.611995
 31
0.000000
  6
CONTINUOUS
  0
ARC
  8
WHITE
 10
5.449200
 20
8.511700
 30
0.000000
 40
0.164029
 50
37.694140
 51
128.539794
  6
CONTINUOUS
  0
LINE
  8
WHITE
 10
5.347000
 20
8.639999
 30
0.000000
 11
5.170974
 21
8.500032
 31
0.000000
  6
CONTINUOUS
  0
ARC
  8
WHITE
 10
4.863000
 20
8.888799
 30
0.000000
 40
0.495972
 50
-96.483100
 51
-51.614388
  6
CONTINUOUS
  0
ARC
  8
WHITE
 10
4.916627
 20
9.395486
 30
0.000000
 40
1.005481
 50
-115.106584
 51
-96.259380
  6
CONTINUOUS
  0
ARC
  8
WHITE
 10
7.750178
 20
14.151619
 30
0.000000
 40
6.537530
 50
-130.182572
 51
-119.913154
  6
CONTINUOUS
  0
LINE
  8
WHITE
 10
4.957302
 20
0.605390
 30
0.000000
 11
3.187999
 21
0.910000
 31
0.000000
  6
CONTINUOUS
  0
ARC
  8
WHITE
 10
3.186800
 20
0.900000
 30
0.000000
 40
0.010072
 50
83.162875
 51
168.465500
  6
CONTINUOUS
  0
LINE
  8
WHITE
 10
3.176931
 20
0.902014
 30
0.000000
 11
3.161000
 21
0.813000
 31
0.000000
  6
CONTINUOUS
  0
ARC
  8
WHITE
 10
3.170793
 20
0.810969
 30
0.000000
 40
0.010001
 50
168.283355
 51
265.454823
  6
CONTINUOUS
  0
LINE
  8
WHITE
 10
3.170000
 20
0.800999
 30
0.000000
 11
4.948999
 21
0.495000
 31
0.000000
  6
CONTINUOUS
  0
ARC
  8
WHITE
 10
4.947000
 20
0.485200
 30
0.000000
 40
0.010002
 50
-6.843000
 51
78.470992
  6
CONTINUOUS
  0
LINE
  8
WHITE
 10
4.956931
 20
0.484008
 30
0.000000
 11
4.919000
 21
0.261999
 31
0.000000
  6
CONTINUOUS
  0
ARC
  8
WHITE
 10
4.909100
 20
0.263799
 30
0.000000
 40
0.010062
 50
-102.094700
 51
-10.304846
  6
CONTINUOUS
  0
LINE
  8
WHITE
 10
4.906992
 20
0.253960
 30
0.000000
 11
2.663000
 21
0.721000
 31
0.000000
  6
CONTINUOUS
  0
ARC
  8
WHITE
 10
2.615978
 20
-1.127699
 30
0.000000
 40
1.849297
 50
88.542985
 51
117.677156
  6
CONTINUOUS
  0
ARC
  8
WHITE
 10
1.725700
 20
0.570399
 30
0.000000
 40
0.068028
 50
-165.166300
 51
-62.606207
  6
CONTINUOUS
  0
LINE
  8
WHITE
 10
1.659939
 20
0.552983
 30
0.000000
 11
1.644999
 21
0.607999
 31
0.000000
  6
CONTINUOUS
  0
LINE
  8
WHITE
 10
1.644999
 20
0.607999
 30
0.000000
 11
1.927999
 21
0.736000
 31
0.000000
  6
CONTINUOUS
  0
ARC
  8
WHITE
 10
1.923273
 20
0.744784
 30
0.000000
 40
0.009975
 50
-61.718696
 51
12.827092
  6
CONTINUOUS
  0
LINE
  8
WHITE
 10
1.932999
 20
0.746999
 30
0.000000
 11
1.911000
 21
0.833999
 31
0.000000
  6
CONTINUOUS
  0
ARC
  8
WHITE
 10
1.901399
 20
0.830999
 30
0.000000
 40
0.010059
 50
17.352326
 51
116.053600
  6
CONTINUOUS
  0
LINE
  8
WHITE
 10
1.896981
 20
0.840036
 30
0.000000
 11
1.618000
 21
0.713999
 31
0.000000
  6
CONTINUOUS
  0
LINE
  8
WHITE
 10
1.618000
 20
0.713999
 30
0.000000
 11
1.600000
 21
0.781000
 31
0.000000
  6
CONTINUOUS
  0
ARC
  8
WHITE
 10
1.662000
 20
0.796800
 30
0.000000
 40
0.063982
 50
131.067900
 51
194.296874
  6
CONTINUOUS
  0
LINE
  8
WHITE
 10
1.619967
 20
0.845038
 30
0.000000
 11
1.677999
 21
0.897000
 31
0.000000
  6
CONTINUOUS
  0
ARC
  8
WHITE
 10
1.640509
 20
0.938719
 30
0.000000
 40
0.056089
 50
-48.056143
 51
80.259138
  6
CONTINUOUS
  0
LINE
  8
WHITE
 10
1.649999
 20
0.993999
 30
0.000000
 11
1.281000
 21
1.057000
 31
0.000000
  6
CONTINUOUS
  0
ARC
  8
WHITE
 10
1.294800
 20
1.139900
 30
0.000000
 40
0.084041
 50
170.335800
 51
260.548886
  6
CONTINUOUS
  0
LINE
  8
WHITE
 10
1.211952
 20
1.154008
 30
0.000000
 11
1.225999
 21
1.231999
 31
0.000000
  6
CONTINUOUS
  0
ARC
  8
WHITE
 10
1.308699
 20
1.217200
 30
0.000000
 40
0.084014
 50
80.201370
 51
169.854420
  6
CONTINUOUS
  0
LINE
  8
WHITE
 10
1.322997
 20
1.299988
 30
0.000000
 11
1.692000
 21
1.236999
 31
0.000000
  6
CONTINUOUS
  0
ARC
  8
WHITE
 10
1.700700
 20
1.292299
 30
0.000000
 40
0.055980
 50
-98.940701
 51
28.439220
  6
CONTINUOUS
  0
LINE
  8
WHITE
 10
1.749924
 20
1.318958
 30
0.000000
 11
1.713000
 21
1.386999
 31
0.000000
  6
CONTINUOUS
  0
ARC
  8
WHITE
 10
1.769040
 20
1.418058
 30
0.000000
 40
0.064071
 50
145.877823
 51
208.996497
  6
CONTINUOUS
  0
LINE
  8
WHITE
 10
1.715999
 20
1.453999
 30
0.000000
 11
1.754999
 21
1.511000
 31
0.000000
  6
CONTINUOUS
  0
LINE
  8
WHITE
 10
1.754999
 20
1.511000
 30
0.000000
 11
1.975999
 21
1.299000
 31
0.000000
  6
CONTINUOUS
  0
ARC
  8
WHITE
 10
1.983064
 20
1.306034
 30
0.000000
 40
0.009970
 50
-135.125978
 51
-37.252621
  6
CONTINUOUS
  0
LINE
  8
WHITE
 10
1.991000
 20
1.299999
 30
0.000000
 11
2.040999
 21
1.373999
 31
0.000000
  6
CONTINUOUS
  0
ARC
  8
WHITE
 10
2.032899
 20
1.379899
 30
0.000000
 40
0.010021
 50
-36.069410
 51
44.999520
  6
CONTINUOUS
  0
LINE
  8
WHITE
 10
2.039985
 20
1.386985
 30
0.000000
 11
1.815999
 21
1.601999
 31
0.000000
  6
CONTINUOUS
  0
LINE
  8
WHITE
 10
1.815999
 20
1.601999
 30
0.000000
 11
1.848000
 21
1.649000
 31
0.000000
  6
CONTINUOUS
  0
ARC
  8
WHITE
 10
1.904600
 20
1.611400
 30
0.000000
 40
0.067951
 50
42.137550
 51
146.403477
  6
CONTINUOUS
  0
ARC
  8
WHITE
 10
3.312575
 20
2.912626
 30
0.000000
 40
1.849234
 50
-137.234155
 51
-108.102823
  6
CONTINUOUS
  0
LINE
  8
WHITE
 10
2.737974
 20
1.154926
 30
0.000000
 11
5.008999
 21
0.845000
 31
0.000000
  6
CONTINUOUS
  0
ARC
  8
WHITE
 10
5.007199
 20
0.835200
 30
0.000000
 40
0.009964
 50
-12.652100
 51
79.592289
  6
CONTINUOUS
  0
LINE
  8
WHITE
 10
5.016921
 20
0.833018
 30
0.000000
 11
4.980403
 21
0.621695
 31
0.000000
  6
CONTINUOUS
  0
ARC
  8
WHITE
 10
4.960696
 20
0.625100
 30
0.000000
 40
0.019999
 50
-99.770336
 51
-9.802851
  6
CONTINUOUS
  0
LINE
  8
WHITE
 10
9.256838
 20
8.323631
 30
0.000000
 11
9.473999
 21
8.128000
 31
0.000000
  6
CONTINUOUS
  0
ARC
  8
WHITE
 10
9.480492
 20
8.135607
 30
0.000000
 40
0.010001
 50
-130.482611
 51
-41.354965
  6
CONTINUOUS
  0
LINE
  8
WHITE
 10
9.487999
 20
8.128999
 30
0.000000
 11
9.548999
 21
8.196000
 31
0.000000
  6
CONTINUOUS
  0
ARC
  8
WHITE
 10
9.541393
 20
8.202493
 30
0.000000
 40
0.010001
 50
-40.486330
 51
48.648702
  6
CONTINUOUS
  0
LINE
  8
WHITE
 10
9.548000
 20
8.210000
 30
0.000000
 11
9.330817
 21
8.405650
 31
0.000000
  6
CONTINUOUS
  0
ARC
  8
WHITE
 10
9.344204
 20
8.420509
 30
0.000000
 40
0.020000
 50
138.144888
 51
227.983189
  6
CONTINUOUS
  0
LINE
  8
WHITE
 10
9.329307
 20
8.433854
 30
0.000000
 11
9.359000
 21
8.467000
 31
0.000000
  6
CONTINUOUS
  0
ARC
  8
WHITE
 10
9.406400
 20
8.423999
 30
0.000000
 40
0.063999
 50
44.621250
 51
137.785870
  6
CONTINUOUS
  0
ARC
  8
WHITE
 10
10.171216
 20
9.184583
 30
0.000000
 40
1.014626
 50
-135.145095
 51
-100.518068
  6
CONTINUOUS
  0
ARC
  8
WHITE
 10
10.332800
 20
11.037500
 30
0.000000
 40
2.871515
 50
-96.936683
 51
-77.690200
  6
CONTINUOUS
  0
ARC
  8
WHITE
 10
11.405461
 20
6.115609
 30
0.000000
 40
2.165906
 50
76.882793
 51
102.274477
  6
CONTINUOUS
  0
ARC
  8
WHITE
 10
11.882400
 20
8.160011
 30
0.000000
 40
0.066609
 50
0.853134
 51
77.338937
  6
CONTINUOUS
  0
ARC
  8
WHITE
 10
17.760600
 20
4.910400
 30
0.000000
 40
6.658911
 50
150.780395
 51
173.094600
  6
CONTINUOUS
  0
ARC
  8
WHITE
 10
11.159795
 20
5.709274
 30
0.000000
 40
0.009954
 50
169.993561
 51
226.947554
  6
CONTINUOUS
  0
LINE
  8
WHITE
 10
11.153000
 20
5.702000
 30
0.000000
 11
11.448000
 21
5.446000
 31
0.000000
  6
CONTINUOUS
  0
ARC
  8
WHITE
 10
11.391500
 20
5.401700
 30
0.000000
 40
0.071797
 50
-91.996600
 51
38.098958
  6
CONTINUOUS
  0
ARC
  8
WHITE
 10
11.664128
 20
5.987949
 30
0.000000
 40
0.713206
 50
-150.891555
 51
-112.691184
  6
CONTINUOUS
  0
ARC
  8
WHITE
 10
12.793804
 20
5.983813
 30
0.000000
 40
1.786013
 50
162.125478
 51
191.066199
  6
CONTINUOUS
  0
ARC
  8
WHITE
 10
18.627100
 20
4.801500
 30
0.000000
 40
7.729309
 50
155.530900
 51
167.062499
  6
CONTINUOUS
  0
ARC
  8
WHITE
 10
11.583400
 20
8.008000
 30
0.000000
 40
0.009949
 50
-30.178898
 51
92.288430
  6
CONTINUOUS
  0
ARC
  8
WHITE
 10
11.648352
 20
2.742197
 30
0.000000
 40
5.276149
 50
90.709672
 51
109.294368
  6
CONTINUOUS
  0
ARC
  8
WHITE
 10
9.874091
 20
8.069610
 30
0.000000
 40
0.348980
 50
-139.937867
 51
-84.918857
  6
CONTINUOUS
  0
ARC
  8
WHITE
 10
9.471700
 20
7.731400
 30
0.000000
 40
0.176667
 50
40.017351
 51
107.358200
  6
CONTINUOUS
  0
LINE
  8
WHITE
 10
9.418993
 20
7.900020
 30
0.000000
 11
9.293000
 21
7.860000
 31
0.000000
  6
CONTINUOUS
  0
ARC
  8
WHITE
 10
9.234300
 20
8.042500
 30
0.000000
 40
0.191708
 50
137.495200
 51
287.830067
  6
CONTINUOUS
  0
LINE
  8
WHITE
 10
9.092969
 20
8.172028
 30
0.000000
 11
9.228611
 21
8.322178
 31
0.000000
  6
CONTINUOUS
  0
ARC
  8
WHITE
 10
9.243452
 20
8.308772
 30
0.000000
 40
0.019999
 50
47.985318
 51
137.908232
  6
CONTINUOUS
  0
LINE
  8
WHITE
 10
3.533202
 20
4.068742
 30
0.000000
 11
3.305999
 21
4.251999
 31
0.000000
  6
CONTINUOUS
  0
ARC
  8
WHITE
 10
3.299499
 20
4.244400
 30
0.000000
 40
0.010000
 50
49.457124
 51
138.652400
  6
CONTINUOUS
  0
LINE
  8
WHITE
 10
3.291992
 20
4.251006
 30
0.000000
 11
3.234999
 21
4.181000
 31
0.000000
  6
CONTINUOUS
  0
ARC
  8
WHITE
 10
3.242999
 20
4.175000
 30
0.000000
 40
0.010000
 50
143.130102
 51
233.132300
  6
CONTINUOUS
  0
LINE
  8
WHITE
 10
3.236999
 20
4.167000
 30
0.000000
 11
3.463621
 21
3.982519
 31
0.000000
  6
CONTINUOUS
  0
ARC
  8
WHITE
 10
3.450994
 20
3.967009
 30
0.000000
 40
0.020000
 50
-38.660507
 51
50.850278
  6
CONTINUOUS
  0
LINE
  8
WHITE
 10
3.466611
 20
3.954515
 30
0.000000
 11
3.438999
 21
3.920000
 31
0.000000
  6
CONTINUOUS
  0
ARC
  8
WHITE
 10
3.389199
 20
3.960200
 30
0.000000
 40
0.064001
 50
-132.466500
 51
-38.911472
  6
CONTINUOUS
  0
ARC
  8
WHITE
 10
2.664480
 20
3.161317
 30
0.000000
 40
1.014625
 50
47.802749
 51
82.381394
  6
CONTINUOUS
  0
ARC
  8
WHITE
 10
2.600160
 20
1.302402
 30
0.000000
 40
2.871476
 50
86.029339
 51
105.309357
  6
CONTINUOUS
  0
ARC
  8
WHITE
 10
1.271100
 20
6.161299
 30
0.000000
 40
2.165911
 50
-100.107306
 51
-74.717095
  6
CONTINUOUS
  0
ARC
  8
WHITE
 10
0.902495
 20
4.094655
 30
0.000000
 40
0.066654
 50
-175.999963
 51
-99.931501
  6
CONTINUOUS
  0
ARC
  8
WHITE
 10
-5.137400
 20
7.032600
 30
0.000000
 40
6.658859
 50
-26.225603
 51
-3.906000
  6
CONTINUOUS
  0
ARC
  8
WHITE
 10
1.496001
 20
6.579710
 30
0.000000
 40
0.010016
 50
-4.064629
 51
46.162945
  6
CONTINUOUS
  0
LINE
  8
WHITE
 10
1.502938
 20
6.586935
 30
0.000000
 11
1.195000
 21
6.828000
 31
0.000000
  6
CONTINUOUS
  0
ARC
  8
WHITE
 10
1.249149
 20
6.875198
 30
0.000000
 40
0.071832
 50
91.715689
 51
221.076448
  6
CONTINUOUS
  0
ARC
  8
WHITE
 10
1.006399
 20
6.275499
 30
0.000000
 40
0.713301
 50
32.047950
 51
70.287297
  6
CONTINUOUS
  0
ARC
  8
WHITE
 10
-0.121392
 20
6.219624
 30
0.000000
 40
1.786016
 50
-14.846441
 51
14.075967
  6
CONTINUOUS
  0
ARC
  8
WHITE
 10
-6.008900
 20
7.092599
 30
0.000000
 40
7.729293
 50
-21.450700
 51
-9.912899
  6
CONTINUOUS
  0
ARC
  8
WHITE
 10
1.194196
 20
4.261992
 30
0.000000
 40
0.010024
 50
156.478420
 51
274.595960
  6
CONTINUOUS
  0
ARC
  8
WHITE
 10
0.851500
 20
9.517000
 30
0.000000
 40
5.276193
 50
-86.267198
 51
-67.683374
  6
CONTINUOUS
  0
ARC
  8
WHITE
 10
2.903399
 20
4.290400
 30
0.000000
 40
0.348969
 50
42.909820
 51
97.972076
  6
CONTINUOUS
  0
ARC
  8
WHITE
 10
3.288194
 20
4.648605
 30
0.000000
 40
0.176745
 50
-136.969446
 51
-69.534169
  6
CONTINUOUS
  0
LINE
  8
WHITE
 10
3.349993
 20
4.483016
 30
0.000000
 11
3.473000
 21
4.528999
 31
0.000000
  6
CONTINUOUS
  0
ARC
  8
WHITE
 10
3.539600
 20
4.349199
 30
0.000000
 40
0.191738
 50
-38.818500
 51
110.325213
  6
CONTINUOUS
  0
LINE
  8
WHITE
 10
3.688990
 20
4.229007
 30
0.000000
 11
3.566999
 21
4.078999
 31
0.000000
  6
CONTINUOUS
  0
LINE
  8
WHITE
 10
3.566999
 20
4.078999
 30
0.000000
 11
3.561509
 21
4.071983
 31
0.000000
  6
CONTINUOUS
  0
ARC
  8
WHITE
 10
3.545758
 20
4.084309
 30
0.000000
 40
0.020001
 50
-128.888885
 51
-38.045081
  6
CONTINUOUS
  0
LINE
  8
WHITE
 10
5.809935
 20
8.881905
 30
0.000000
 11
5.709000
 21
9.105999
 31
0.000000
  6
CONTINUOUS
  0
ARC
  8
WHITE
 10
5.699900
 20
9.101900
 30
0.000000
 40
0.009981
 50
24.248686
 51
113.199000
  6
CONTINUOUS
  0
LINE
  8
WHITE
 10
5.695968
 20
9.111074
 30
0.000000
 11
5.613999
 21
9.072999
 31
0.000000
  6
CONTINUOUS
  0
ARC
  8
WHITE
 10
5.618099
 20
9.063899
 30
0.000000
 40
0.009981
 50
114.253920
 51
203.197500
  6
CONTINUOUS
  0
LINE
  8
WHITE
 10
5.608925
 20
9.059967
 30
0.000000
 11
5.714000
 21
8.826999
 31
0.000000
  6
CONTINUOUS
  0
ARC
  8
WHITE
 10
5.705300
 20
8.822199
 30
0.000000
 40
0.009936
 50
-55.196700
 51
28.886582
  6
CONTINUOUS
  0
ARC
  8
WHITE
 10
5.615920
 20
8.952113
 30
0.000000
 40
0.167627
 50
-99.935086
 51
-55.455943
  6
CONTINUOUS
  0
ARC
  8
WHITE
 10
5.586279
 20
8.871046
 30
0.000000
 40
0.084049
 50
-156.847624
 51
-89.509226
  6
CONTINUOUS
  0
ARC
  8
WHITE
 10
5.211799
 20
8.711700
 30
0.000000
 40
0.322923
 50
23.023819
 51
75.253620
  6
CONTINUOUS
  0
ARC
  8
WHITE
 10
5.295999
 20
9.033818
 30
0.000000
 40
0.010033
 50
-175.319258
 51
-101.514988
  6
CONTINUOUS
  0
LINE
  8
WHITE
 10
5.285999
 20
9.032999
 30
0.000000
 11
5.278999
 21
9.380999
 31
0.000000
  6
CONTINUOUS
  0
ARC
  8
WHITE
 10
5.268999
 20
9.380999
 30
0.000000
 40
0.010000
 50
0.000000
 51
89.997270
  6
CONTINUOUS
  0
LINE
  8
WHITE
 10
5.268999
 20
9.390999
 30
0.000000
 11
5.178999
 21
9.388999
 31
0.000000
  6
CONTINUOUS
  0
ARC
  8
WHITE
 10
5.178950
 20
9.378999
 30
0.000000
 40
0.010000
 50
89.719253
 51
185.734104
  6
CONTINUOUS
  0
LINE
  8
WHITE
 10
5.169000
 20
9.378000
 30
0.000000
 11
5.176000
 21
9.031000
 31
0.000000
  6
CONTINUOUS
  0
ARC
  8
WHITE
 10
5.166048
 20
9.030515
 30
0.000000
 40
0.009964
 50
-72.764803
 51
2.790041
  6
CONTINUOUS
  0
ARC
  8
WHITE
 10
5.264370
 20
8.712390
 30
0.000000
 40
0.323009
 50
107.172796
 51
159.407320
  6
CONTINUOUS
  0
ARC
  8
WHITE
 10
4.883500
 20
8.855999
 30
0.000000
 40
0.084037
 50
-88.295200
 51
-20.914930
  6
CONTINUOUS
  0
ARC
  8
WHITE
 10
4.850399
 20
8.935900
 30
0.000000
 40
0.167723
 50
-122.211500
 51
-77.745077
  6
CONTINUOUS
  0
ARC
  8
WHITE
 10
4.766297
 20
8.802492
 30
0.000000
 40
0.010018
 50
159.331981
 51
238.045441
  6
CONTINUOUS
  0
LINE
  8
WHITE
 10
4.756926
 20
8.806027
 30
0.000000
 11
4.853000
 21
9.043999
 31
0.000000
  6
CONTINUOUS
  0
ARC
  8
WHITE
 10
4.843576
 20
9.047535
 30
0.000000
 40
0.010066
 50
-20.566705
 51
70.110788
  6
CONTINUOUS
  0
LINE
  8
WHITE
 10
4.847000
 20
9.057001
 30
0.000000
 11
4.763999
 21
9.090999
 31
0.000000
  6
CONTINUOUS
  0
ARC
  8
WHITE
 10
4.760399
 20
9.081599
 30
0.000000
 40
0.010066
 50
69.044223
 51
160.110300
  6
CONTINUOUS
  0
LINE
  8
WHITE
 10
4.750933
 20
9.085024
 30
0.000000
 11
4.659468
 21
8.857573
 31
0.000000
  6
CONTINUOUS
  0
ARC
  8
WHITE
 10
4.640912
 20
8.865035
 30
0.000000
 40
0.020000
 50
-111.961679
 51
-21.906740
  6
CONTINUOUS
  0
LINE
  8
WHITE
 10
4.633432
 20
8.846486
 30
0.000000
 11
4.590000
 21
8.864000
 31
0.000000
  6
CONTINUOUS
  0
ARC
  8
WHITE
 10
4.629506
 20
8.960214
 30
0.000000
 40
0.104009
 50
158.105263
 51
247.676676
  6
CONTINUOUS
  0
LINE
  8
WHITE
 10
4.532999
 20
8.998999
 30
0.000000
 11
4.638000
 21
9.262000
 31
0.000000
  6
CONTINUOUS
  0
ARC
  8
WHITE
 10
4.715400
 20
9.229399
 30
0.000000
 40
0.083986
 50
118.762700
 51
157.159099
  6
CONTINUOUS
  0
LINE
  8
WHITE
 10
4.674987
 20
9.303023
 30
0.000000
 11
4.788000
 21
9.368000
 31
0.000000
  6
CONTINUOUS
  0
ARC
  8
WHITE
 10
4.743299
 20
9.447899
 30
0.000000
 40
0.091553
 50
-60.774347
 51
83.922350
  6
CONTINUOUS
  0
LINE
  8
WHITE
 10
4.752992
 20
9.538937
 30
0.000000
 11
4.285999
 21
9.782999
 31
0.000000
  6
CONTINUOUS
  0
ARC
  8
WHITE
 10
4.334704
 20
9.874908
 30
0.000000
 40
0.104017
 50
151.839158
 51
242.079705
  6
CONTINUOUS
  0
LINE
  8
WHITE
 10
4.243000
 20
9.923999
 30
0.000000
 11
4.253800
 21
9.945060
 31
0.000000
  6
CONTINUOUS
  0
ARC
  8
WHITE
 10
4.271596
 20
9.935933
 30
0.000000
 40
0.020000
 50
62.389023
 51
152.848161
  6
CONTINUOUS
  0
LINE
  8
WHITE
 10
4.280865
 20
9.953655
 30
0.000000
 11
4.566999
 21
9.803999
 31
0.000000
  6
CONTINUOUS
  0
ARC
  8
WHITE
 10
4.572099
 20
9.812600
 30
0.000000
 40
0.009999
 50
-120.666004
 51
-27.334600
  6
CONTINUOUS
  0
LINE
  8
WHITE
 10
4.580982
 20
9.808009
 30
0.000000
 11
4.623000
 21
9.887999
 31
0.000000
  6
CONTINUOUS
  0
ARC
  8
WHITE
 10
4.613800
 20
9.891899
 30
0.000000
 40
0.009992
 50
-22.972721
 51
65.227140
  6
CONTINUOUS
  0
LINE
  8
WHITE
 10
4.617987
 20
9.900971
 30
0.000000
 11
4.331864
 21
10.051596
 31
0.000000
  6
CONTINUOUS
  0
ARC
  8
WHITE
 10
4.341181
 20
10.069293
 30
0.000000
 40
0.020000
 50
151.699244
 51
242.234388
  6
CONTINUOUS
  0
LINE
  8
WHITE
 10
4.323572
 20
10.078775
 30
0.000000
 11
4.335000
 21
10.100000
 31
0.000000
  6
CONTINUOUS
  0
ARC
  8
WHITE
 10
4.427299
 20
10.052100
 30
0.000000
 40
0.103988
 50
62.079860
 51
152.572243
  6
CONTINUOUS
  0
LINE
  8
WHITE
 10
4.475990
 20
10.143984
 30
0.000000
 11
4.826000
 21
9.960000
 31
0.000000
  6
CONTINUOUS
  0
ARC
  8
WHITE
 10
4.871000
 20
10.044800
 30
0.000000
 40
0.096000
 50
-117.953121
 51
1.312877
  6
CONTINUOUS
  0
LINE
  8
WHITE
 10
4.966975
 20
10.047000
 30
0.000000
 11
4.962999
 21
10.236000
 31
0.000000
  6
CONTINUOUS
  0
ARC
  8
WHITE
 10
5.066975
 20
10.239000
 30
0.000000
 40
0.104019
 50
91.087907
 51
181.652686
  6
CONTINUOUS
  0
LINE
  8
WHITE
 10
5.065000
 20
10.343000
 30
0.000000
 11
5.128195
 21
10.343761
 31
0.000000
  6
CONTINUOUS
  0
ARC
  8
WHITE
 10
5.128436
 20
10.323763
 30
0.000000
 40
0.019999
 50
1.249421
 51
90.690450
  6
CONTINUOUS
  0
LINE
  8
WHITE
 10
5.148431
 20
10.324199
 30
0.000000
 11
5.155000
 21
10.023000
 31
0.000000
  6
CONTINUOUS
  0
ARC
  8
WHITE
 10
5.165000
 20
10.023000
 30
0.000000
 40
0.010000
 50
180.000000
 51
269.997300
  6
CONTINUOUS
  0
LINE
  8
WHITE
 10
5.165000
 20
10.013000
 30
0.000000
 11
5.255000
 21
10.015000
 31
0.000000
  6
CONTINUOUS
  0
ARC
  8
WHITE
 10
5.255000
 20
10.025000
 30
0.000000
 40
0.010000
 50
-90.000000
 51
-0.005500
  6
CONTINUOUS
  0
LINE
  8
WHITE
 10
5.265000
 20
10.024999
 30
0.000000
 11
5.258433
 21
10.327046
 31
0.000000
  6
CONTINUOUS
  0
ARC
  8
WHITE
 10
5.278428
 20
10.327481
 30
0.000000
 40
0.020000
 50
91.363911
 51
181.246298
  6
CONTINUOUS
  0
LINE
  8
WHITE
 10
5.277952
 20
10.347475
 30
0.000000
 11
5.342000
 21
10.349000
 31
0.000000
  6
CONTINUOUS
  0
ARC
  8
WHITE
 10
5.343999
 20
10.245000
 30
0.000000
 40
0.104019
 50
1.101625
 51
91.101155
  6
CONTINUOUS
  0
LINE
  8
WHITE
 10
5.447999
 20
10.247000
 30
0.000000
 11
5.452000
 21
10.057000
 31
0.000000
  6
CONTINUOUS
  0
ARC
  8
WHITE
 10
5.548000
 20
10.059200
 30
0.000000
 40
0.096025
 50
-178.687202
 51
-60.018600
  6
CONTINUOUS
  0
LINE
  8
WHITE
 10
5.595986
 20
9.976024
 30
0.000000
 11
5.939000
 21
10.175000
 31
0.000000
  6
CONTINUOUS
  0
ARC
  8
WHITE
 10
5.990981
 20
10.084932
 30
0.000000
 40
0.103992
 50
30.045743
 51
119.990560
  6
CONTINUOUS
  0
LINE
  8
WHITE
 10
6.080998
 20
10.136999
 30
0.000000
 11
6.093005
 21
10.116263
 31
0.000000
  6
CONTINUOUS
  0
ARC
  8
WHITE
 10
6.075697
 20
10.106242
 30
0.000000
 40
0.020000
 50
-59.779416
 51
30.070018
  6
CONTINUOUS
  0
LINE
  8
WHITE
 10
6.085764
 20
10.088960
 30
0.000000
 11
5.806000
 21
9.925999
 31
0.000000
  6
CONTINUOUS
  0
ARC
  8
WHITE
 10
5.811800
 20
9.917799
 30
0.000000
 40
0.010044
 50
125.272421
 51
208.609600
  6
CONTINUOUS
  0
LINE
  8
WHITE
 10
5.802982
 20
9.912990
 30
0.000000
 11
5.848000
 21
9.835000
 31
0.000000
  6
CONTINUOUS
  0
ARC
  8
WHITE
 10
5.856890
 20
9.839618
 30
0.000000
 40
0.010018
 50
-152.549925
 51
-59.339928
  6
CONTINUOUS
  0
LINE
  8
WHITE
 10
5.861999
 20
9.831000
 30
0.000000
 11
6.141690
 21
9.992976
 31
0.000000
  6
CONTINUOUS
  0
ARC
  8
WHITE
 10
6.151713
 20
9.975669
 30
0.000000
 40
0.020000
 50
30.069712
 51
120.076412
  6
CONTINUOUS
  0
LINE
  8
WHITE
 10
6.169021
 20
9.985690
 30
0.000000
 11
6.181000
 21
9.965000
 31
0.000000
  6
CONTINUOUS
  0
ARC
  8
WHITE
 10
6.090931
 20
9.913018
 30
0.000000
 40
0.103993
 50
-59.953855
 51
29.990762
  6
CONTINUOUS
  0
LINE
  8
WHITE
 10
6.143000
 20
9.822999
 30
0.000000
 11
5.688000
 21
9.557999
 31
0.000000
  6
CONTINUOUS
  0
ARC
  8
WHITE
 10
5.702377
 20
9.467379
 30
0.000000
 40
0.091753
 50
99.014927
 51
242.492470
  6
CONTINUOUS
  0
LINE
  8
WHITE
 10
5.659999
 20
9.385999
 30
0.000000
 11
5.776000
 21
9.326999
 31
0.000000
  6
CONTINUOUS
  0
ARC
  8
WHITE
 10
5.737545
 20
9.252417
 30
0.000000
 40
0.083912
 50
24.338132
 51
62.724052
  6
CONTINUOUS
  0
LINE
  8
WHITE
 10
5.814000
 20
9.286999
 30
0.000000
 11
5.929999
 21
9.029000
 31
0.000000
  6
CONTINUOUS
  0
ARC
  8
WHITE
 10
5.835499
 20
8.985500
 30
0.000000
 40
0.104031
 50
-65.282500
 51
24.717441
  6
CONTINUOUS
  0
LINE
  8
WHITE
 10
5.878999
 20
8.891000
 30
0.000000
 11
5.846000
 21
8.876000
 31
0.000000
  6
CONTINUOUS
  0
LINE
  8
WHITE
 10
5.846000
 20
8.876000
 30
0.000000
 11
5.836048
 21
8.871735
 31
0.000000
  6
CONTINUOUS
  0
ARC
  8
WHITE
 10
5.828170
 20
8.890118
 30
0.000000
 40
0.020000
 50
-155.753314
 51
-66.802538
  6
CONTINUOUS
  0
LINE
  8
WHITE
 10
8.902254
 20
8.556184
 30
0.000000
 11
8.635999
 21
8.694000
 31
0.000000
  6
CONTINUOUS
  0
ARC
  8
WHITE
 10
8.632072
 20
8.684812
 30
0.000000
 40
0.009992
 50
66.857879
 51
155.219629
  6
CONTINUOUS
  0
LINE
  8
WHITE
 10
8.623000
 20
8.689000
 30
0.000000
 11
8.581000
 21
8.609999
 31
0.000000
  6
CONTINUOUS
  0
ARC
  8
WHITE
 10
8.589765
 20
8.605237
 30
0.000000
 40
0.009975
 50
151.484890
 51
247.823425
  6
CONTINUOUS
  0
LINE
  8
WHITE
 10
8.585999
 20
8.595999
 30
0.000000
 11
8.851274
 21
8.458208
 31
0.000000
  6
CONTINUOUS
  0
ARC
  8
WHITE
 10
8.842055
 20
8.440459
 30
0.000000
 40
0.020000
 50
-27.377285
 51
62.552205
  6
CONTINUOUS
  0
LINE
  8
WHITE
 10
8.859815
 20
8.431262
 30
0.000000
 11
8.840000
 21
8.392999
 31
0.000000
  6
CONTINUOUS
  0
ARC
  8
WHITE
 10
8.783370
 20
8.422915
 30
0.000000
 40
0.064046
 50
-117.296066
 51
-27.846205
  6
CONTINUOUS
  0
LINE
  8
WHITE
 10
8.753999
 20
8.366001
 30
0.000000
 11
8.309000
 21
8.597000
 31
0.000000
  6
CONTINUOUS
  0
ARC
  8
WHITE
 10
8.195599
 20
8.378700
 30
0.000000
 40
0.245997
 50
62.549332
 51
109.871500
  6
CONTINUOUS
  0
ARC
  8
WHITE
 10
6.425819
 20
13.234308
 30
0.000000
 40
4.922084
 50
-92.524713
 51
-69.966415
  6
CONTINUOUS
  0
ARC
  8
WHITE
 10
6.209005
 20
8.327051
 30
0.000000
 40
0.010050
 50
174.604423
 51
269.969778
  6
CONTINUOUS
  0
ARC
  8
WHITE
 10
13.284900
 20
7.321100
 30
0.000000
 40
7.157082
 50
160.033800
 51
171.912498
  6
CONTINUOUS
  0
ARC
  8
WHITE
 10
4.722400
 20
10.299700
 30
0.000000
 40
1.911893
 50
-16.240595
 51
5.652123
  6
CONTINUOUS
  0
ARC
  8
WHITE
 10
5.774899
 20
10.378700
 30
0.000000
 40
0.857096
 50
7.326443
 51
51.879960
  6
CONTINUOUS
  0
ARC
  8
WHITE
 10
6.335993
 20
11.100490
 30
0.000000
 40
0.057271
 50
56.031167
 51
236.030964
  6
CONTINUOUS
  0
LINE
  8
WHITE
 10
6.367992
 20
11.147986
 30
0.000000
 11
6.618999
 21
11.001000
 31
0.000000
  6
CONTINUOUS
  0
ARC
  8
WHITE
 10
6.386470
 20
10.664419
 30
0.000000
 40
0.409092
 50
13.655662
 51
55.361112
  6
CONTINUOUS
  0
ARC
  8
WHITE
 10
2.656606
 20
10.564030
 30
0.000000
 40
4.132089
 50
-13.292017
 51
2.732232
  6
CONTINUOUS
  0
ARC
  8
WHITE
 10
15.082700
 20
7.637700
 30
0.000000
 40
8.633930
 50
166.767698
 51
173.941200
  6
CONTINUOUS
  0
ARC
  8
WHITE
 10
6.506900
 20
8.547900
 30
0.000000
 40
0.009963
 50
173.643637
 51
276.337800
  6
CONTINUOUS
  0
ARC
  8
WHITE
 10
5.804646
 20
13.425464
 30
0.000000
 40
4.937816
 50
-81.810805
 51
-63.407739
  6
CONTINUOUS
  0
ARC
  8
WHITE
 10
8.160500
 20
8.719799
 30
0.000000
 40
0.324632
 50
64.161160
 51
116.628155
  6
CONTINUOUS
  0
ARC
  8
WHITE
 10
8.527068
 20
9.477514
 30
0.000000
 40
0.517095
 50
-115.802976
 51
-64.706195
  6
CONTINUOUS
  0
ARC
  8
WHITE
 10
8.835296
 20
8.825991
 30
0.000000
 40
0.203659
 50
-27.480804
 51
115.380458
  6
CONTINUOUS
  0
LINE
  8
WHITE
 10
9.015975
 20
8.732012
 30
0.000000
 11
8.929201
 21
8.564737
 31
0.000000
  6
CONTINUOUS
  0
ARC
  8
WHITE
 10
8.911448
 20
8.573946
 30
0.000000
 40
0.019999
 50
-117.367073
 51
-27.417089
  6
CONTINUOUS
  0
LINE
  8
WHITE
 10
1.987317
 20
5.937995
 30
0.000000
 11
2.269000
 21
6.039999
 31
0.000000
  6
CONTINUOUS
  0
ARC
  8
WHITE
 10
2.265599
 20
6.049399
 30
0.000000
 40
0.009996
 50
-70.109445
 51
20.956150
  6
CONTINUOUS
  0
LINE
  8
WHITE
 10
2.274934
 20
6.052974
 30
0.000000
 11
2.243999
 21
6.137000
 31
0.000000
  6
CONTINUOUS
  0
ARC
  8
WHITE
 10
2.234576
 20
6.133667
 30
0.000000
 40
0.009995
 50
19.479146
 51
110.970181
  6
CONTINUOUS
  0
LINE
  8
WHITE
 10
2.230999
 20
6.143000
 30
0.000000
 11
1.949640
 21
6.040772
 31
0.000000
  6
CONTINUOUS
  0
ARC
  8
WHITE
 10
1.942810
 20
6.059569
 30
0.000000
 40
0.019999
 50
-159.551305
 51
-70.031090
  6
CONTINUOUS
  0
LINE
  8
WHITE
 10
1.924070
 20
6.052582
 30
0.000000
 11
1.909000
 21
6.092999
 31
0.000000
  6
CONTINUOUS
  0
ARC
  8
WHITE
 10
1.969253
 20
6.114618
 30
0.000000
 40
0.064014
 50
109.391385
 51
199.738175
  6
CONTINUOUS
  0
LINE
  8
WHITE
 10
1.947999
 20
6.175001
 30
0.000000
 11
2.418999
 21
6.346000
 31
0.000000
  6
CONTINUOUS
  0
ARC
  8
WHITE
 10
2.334699
 20
6.577100
 30
0.000000
 40
0.245995
 50
-69.959186
 51
-22.489200
  6
CONTINUOUS
  0
ARC
  8
WHITE
 10
7.108774
 20
4.597974
 30
0.000000
 40
4.922054
 50
134.923885
 51
157.481829
  6
CONTINUOUS
  0
ARC
  8
WHITE
 10
3.639473
 20
8.075330
 30
0.000000
 40
0.010057
 50
41.534869
 51
130.191640
  6
CONTINUOUS
  0
ARC
  8
WHITE
 10
-1.885999
 20
3.542099
 30
0.000000
 40
7.157149
 50
27.491620
 51
39.369329
  6
CONTINUOUS
  0
ARC
  8
WHITE
 10
6.098135
 20
7.836905
 30
0.000000
 40
1.912006
 50
-148.783867
 51
-126.904831
  6
CONTINUOUS
  0
ARC
  8
WHITE
 10
5.444933
 20
7.007675
 30
0.000000
 40
0.857034
 50
-125.274709
 51
-80.661595
  6
CONTINUOUS
  0
ARC
  8
WHITE
 10
5.597000
 20
6.106500
 30
0.000000
 40
0.057002
 50
-76.817026
 51
103.183244
  6
CONTINUOUS
  0
LINE
  8
WHITE
 10
5.610000
 20
6.051000
 30
0.000000
 11
5.333000
 21
5.966000
 31
0.000000
  6
CONTINUOUS
  0
ARC
  8
WHITE
 10
5.242200
 20
6.365000
 30
0.000000
 40
0.409201
 50
-118.970300
 51
-77.179598
  6
CONTINUOUS
  0
ARC
  8
WHITE
 10
7.689582
 20
9.181225
 30
0.000000
 40
4.132165
 50
-145.823386
 51
-129.809780
  6
CONTINUOUS
  0
ARC
  8
WHITE
 10
-2.870399
 20
2.007699
 30
0.000000
 40
8.633910
 50
34.194564
 51
41.369840
  6
CONTINUOUS
  0
ARC
  8
WHITE
 10
3.601371
 20
7.707533
 30
0.000000
 40
0.009997
 50
40.281685
 51
146.864207
  6
CONTINUOUS
  0
ARC
  8
WHITE
 10
7.669700
 20
4.926699
 30
0.000000
 40
4.937909
 50
145.648601
 51
164.045500
  6
CONTINUOUS
  0
ARC
  8
WHITE
 10
2.609799
 20
6.373000
 30
0.000000
 40
0.324637
 50
-68.460700
 51
-15.911284
  6
CONTINUOUS
  0
ARC
  8
WHITE
 10
2.919743
 20
5.590417
 30
0.000000
 40
0.517089
 50
111.648150
 51
162.721284
  6
CONTINUOUS
  0
ARC
  8
WHITE
 10
2.231480
 20
5.804455
 30
0.000000
 40
0.203688
 50
-160.063113
 51
-17.264854
  6
CONTINUOUS
  0
LINE
  8
WHITE
 10
2.039999
 20
5.735000
 30
0.000000
 11
1.978999
 21
5.902999
 31
0.000000
  6
CONTINUOUS
  0
LINE
  8
WHITE
 10
1.978999
 20
5.902999
 30
0.000000
 11
1.975511
 21
5.911878
 31
0.000000
  6
CONTINUOUS
  0
ARC
  8
WHITE
 10
1.994127
 20
5.919190
 30
0.000000
 40
0.020001
 50
109.907233
 51
201.443927
  6
CONTINUOUS
  0
LINE
  8
WHITE
 10
3.551173
 20
9.782739
 30
0.000000
 11
3.571000
 21
10.150000
 31
0.000000
  6
CONTINUOUS
  0
ARC
  8
WHITE
 10
3.561000
 20
10.151000
 30
0.000000
 40
0.010050
 50
-5.710593
 51
84.289950
  6
CONTINUOUS
  0
LINE
  8
WHITE
 10
3.562000
 20
10.161000
 30
0.000000
 11
3.470999
 21
10.166000
 31
0.000000
  6
CONTINUOUS
  0
ARC
  8
WHITE
 10
3.470000
 20
10.156000
 30
0.000000
 40
0.010050
 50
84.295080
 51
174.292500
  6
CONTINUOUS
  0
LINE
  8
WHITE
 10
3.460000
 20
10.156999
 30
0.000000
 11
3.437999
 21
9.784999
 31
0.000000
  6
CONTINUOUS
  0
ARC
  8
WHITE
 10
3.427999
 20
9.786000
 30
0.000000
 40
0.010050
 50
-84.289900
 51
-5.716266
  6
CONTINUOUS
  0
ARC
  8
WHITE
 10
3.472699
 20
9.506500
 30
0.000000
 40
0.273020
 50
99.210486
 51
145.780200
  6
CONTINUOUS
  0
ARC
  8
WHITE
 10
3.132457
 20
9.697182
 30
0.000000
 40
0.120359
 50
-153.241751
 51
-17.975136
  6
CONTINUOUS
  0
ARC
  8
WHITE
 10
3.034304
 20
9.646505
 30
0.000000
 40
0.009958
 50
146.503008
 51
200.653111
  6
CONTINUOUS
  0
LINE
  8
WHITE
 10
3.026001
 20
9.652000
 30
0.000000
 11
3.278000
 21
10.058000
 31
0.000000
  6
CONTINUOUS
  0
ARC
  8
WHITE
 10
3.269600
 20
10.063500
 30
0.000000
 40
0.010040
 50
-33.215251
 51
57.573020
  6
CONTINUOUS
  0
LINE
  8
WHITE
 10
3.274984
 20
10.071975
 30
0.000000
 11
3.197999
 21
10.120000
 31
0.000000
  6
CONTINUOUS
  0
ARC
  8
WHITE
 10
3.192475
 20
10.111616
 30
0.000000
 40
0.010040
 50
56.620150
 51
147.571898
  6
CONTINUOUS
  0
LINE
  8
WHITE
 10
3.184001
 20
10.117000
 30
0.000000
 11
2.953000
 21
9.744999
 31
0.000000
  6
CONTINUOUS
  0
ARC
  8
WHITE
 10
2.761700
 20
10.023200
 30
0.000000
 40
0.337626
 50
-129.049400
 51
-55.486329
  6
CONTINUOUS
  0
ARC
  8
WHITE
 10
2.555700
 20
9.768499
 30
0.000000
 40
0.010058
 50
131.773200
 51
228.221444
  6
CONTINUOUS
  0
LINE
  8
WHITE
 10
2.549000
 20
9.775999
 30
0.000000
 11
2.957000
 21
10.125000
 31
0.000000
  6
CONTINUOUS
  0
ARC
  8
WHITE
 10
2.950400
 20
10.132500
 30
0.000000
 40
0.009990
 50
-48.652223
 51
40.540840
  6
CONTINUOUS
  0
LINE
  8
WHITE
 10
2.957992
 20
10.138993
 30
0.000000
 11
2.898999
 21
10.208000
 31
0.000000
  6
CONTINUOUS
  0
ARC
  8
WHITE
 10
2.891000
 20
10.202000
 30
0.000000
 40
0.009999
 50
36.873336
 51
126.872100
  6
CONTINUOUS
  0
LINE
  8
WHITE
 10
2.885000
 20
10.209999
 30
0.000000
 11
2.476999
 21
9.861000
 31
0.000000
  6
CONTINUOUS
  0
ARC
  8
WHITE
 10
2.469700
 20
9.867899
 30
0.000000
 40
0.010043
 50
-150.611500
 51
-43.386234
  6
CONTINUOUS
  0
ARC
  8
WHITE
 10
2.753257
 20
10.031956
 30
0.000000
 40
0.337639
 50
136.345680
 51
210.032555
  6
CONTINUOUS
  0
LINE
  8
WHITE
 10
2.508969
 20
10.265030
 30
0.000000
 11
2.911999
 21
10.435000
 31
0.000000
  6
CONTINUOUS
  0
ARC
  8
WHITE
 10
2.908699
 20
10.444400
 30
0.000000
 40
0.009962
 50
-70.655671
 51
21.156810
  6
CONTINUOUS
  0
LINE
  8
WHITE
 10
2.917990
 20
10.447996
 30
0.000000
 11
2.881999
 21
10.532000
 31
0.000000
  6
CONTINUOUS
  0
ARC
  8
WHITE
 10
2.872600
 20
10.528700
 30
0.000000
 40
0.009961
 50
19.346235
 51
111.161400
  6
CONTINUOUS
  0
LINE
  8
WHITE
 10
2.869004
 20
10.537989
 30
0.000000
 11
2.428999
 21
10.351000
 31
0.000000
  6
CONTINUOUS
  0
ARC
  8
WHITE
 10
2.425683
 20
10.360415
 30
0.000000
 40
0.009982
 50
-132.033443
 51
-70.597536
  6
CONTINUOUS
  0
ARC
  8
WHITE
 10
2.490206
 20
10.450117
 30
0.000000
 40
0.120424
 50
99.177315
 51
233.750742
  6
CONTINUOUS
  0
ARC
  8
WHITE
 10
2.354500
 20
10.815900
 30
0.000000
 40
0.273005
 50
-64.739806
 51
-18.116400
  6
CONTINUOUS
  0
ARC
  8
WHITE
 10
2.623167
 20
10.727003
 30
0.000000
 40
0.010031
 50
85.239102
 51
156.457640
  6
CONTINUOUS
  0
LINE
  8
WHITE
 10
2.624000
 20
10.736999
 30
0.000000
 11
2.994999
 21
10.702000
 31
0.000000
  6
CONTINUOUS
  0
ARC
  8
WHITE
 10
2.995999
 20
10.712000
 30
0.000000
 40
0.010050
 50
-95.710593
 51
-5.707300
  6
CONTINUOUS
  0
LINE
  8
WHITE
 10
3.005999
 20
10.711001
 30
0.000000
 11
3.015000
 21
10.801000
 31
0.000000
  6
CONTINUOUS
  0
ARC
  8
WHITE
 10
3.005000
 20
10.802000
 30
0.000000
 40
0.010050
 50
-5.710593
 51
84.289950
  6
CONTINUOUS
  0
LINE
  8
WHITE
 10
3.006000
 20
10.812000
 30
0.000000
 11
2.641957
 21
10.850468
 31
0.000000
  6
CONTINUOUS
  0
ARC
  8
WHITE
 10
2.644059
 20
10.870358
 30
0.000000
 40
0.020001
 50
163.366092
 51
263.967303
  6
CONTINUOUS
  0
LINE
  8
WHITE
 10
2.624896
 20
10.876083
 30
0.000000
 11
2.643993
 21
10.940003
 31
0.000000
  6
CONTINUOUS
  0
ARC
  8
WHITE
 10
2.720990
 20
10.906199
 30
0.000000
 40
0.084091
 50
94.768969
 51
156.297080
  6
CONTINUOUS
  0
LINE
  8
WHITE
 10
2.713999
 20
10.989999
 30
0.000000
 11
3.081000
 21
11.021000
 31
0.000000
  6
CONTINUOUS
  0
ARC
  8
WHITE
 10
3.216400
 20
9.492400
 30
0.000000
 40
1.534585
 50
86.428330
 51
95.061922
  6
CONTINUOUS
  0
ARC
  8
WHITE
 10
3.298599
 20
10.453500
 30
0.000000
 40
0.570662
 50
50.054310
 51
88.654375
  6
CONTINUOUS
  0
ARC
  8
WHITE
 10
3.658398
 20
10.883498
 30
0.000000
 40
0.009992
 50
-48.636651
 51
48.655507
  6
CONTINUOUS
  0
LINE
  8
WHITE
 10
3.664998
 20
10.876002
 30
0.000000
 11
3.365000
 21
10.620000
 31
0.000000
  6
CONTINUOUS
  0
ARC
  8
WHITE
 10
3.371051
 20
10.612063
 30
0.000000
 40
0.009981
 50
127.321127
 51
225.049314
  6
CONTINUOUS
  0
LINE
  8
WHITE
 10
3.364000
 20
10.605000
 30
0.000000
 11
3.423000
 21
10.536000
 31
0.000000
  6
CONTINUOUS
  0
ARC
  8
WHITE
 10
3.430500
 20
10.542600
 30
0.000000
 40
0.009990
 50
-138.652223
 51
-49.463700
  6
CONTINUOUS
  0
LINE
  8
WHITE
 10
3.436993
 20
10.535008
 30
0.000000
 11
3.736999
 21
10.792000
 31
0.000000
  6
CONTINUOUS
  0
ARC
  8
WHITE
 10
3.743900
 20
10.784800
 30
0.000000
 40
0.009973
 50
24.775140
 51
133.785273
  6
CONTINUOUS
  0
ARC
  8
WHITE
 10
3.262691
 20
10.496935
 30
0.000000
 40
0.570656
 50
-7.849471
 51
30.781736
  6
CONTINUOUS
  0
ARC
  8
WHITE
 10
2.300111
 20
10.564645
 30
0.000000
 40
1.534814
 50
-14.051574
 51
-5.445228
  6
CONTINUOUS
  0
LINE
  8
WHITE
 10
3.789000
 20
10.192000
 30
0.000000
 11
3.700999
 21
9.833999
 31
0.000000
  6
CONTINUOUS
  0
ARC
  8
WHITE
 10
3.619499
 20
9.854199
 30
0.000000
 40
0.083966
 50
-75.169500
 51
-13.920394
  6
CONTINUOUS
  0
ARC
  8
WHITE
 10
3.547125
 20
10.115484
 30
0.000000
 40
0.355085
 50
-84.686580
 51
-74.671799
  6
CONTINUOUS
  0
LINE
  8
WHITE
 10
3.580007
 20
9.761925
 30
0.000000
 11
3.571760
 21
9.761670
 31
0.000000
  6
CONTINUOUS
  0
ARC
  8
WHITE
 10
3.571144
 20
9.781661
 30
0.000000
 40
0.020000
 50
176.910272
 51
271.764946
  6
CONTINUOUS
  0
LINE
  8
WHITE
 10
11.894000
 20
1.083999
 30
0.000000
 11
11.875000
 21
0.800000
 31
0.000000
  6
CONTINUOUS
  0
ARC
  8
WHITE
 10
11.885000
 20
0.799000
 30
0.000000
 40
0.010050
 50
174.289407
 51
264.287100
  6
CONTINUOUS
  0
LINE
  8
WHITE
 10
11.884000
 20
0.789000
 30
0.000000
 11
11.975000
 21
0.782999
 31
0.000000
  6
CONTINUOUS
  0
ARC
  8
WHITE
 10
11.976000
 20
0.792999
 30
0.000000
 40
0.010050
 50
-95.710593
 51
-5.710900
  6
CONTINUOUS
  0
LINE
  8
WHITE
 10
11.986000
 20
0.791999
 30
0.000000
 11
12.004000
 21
1.072999
 31
0.000000
  6
CONTINUOUS
  0
ARC
  8
WHITE
 10
12.014000
 20
1.072199
 30
0.000000
 40
0.010032
 50
101.533700
 51
175.426079
  6
CONTINUOUS
  0
ARC
  8
WHITE
 10
12.040204
 20
0.988731
 30
0.000000
 40
0.097469
 50
-6.910109
 51
106.823459
  6
CONTINUOUS
  0
ARC
  8
WHITE
 10
12.587392
 20
0.919334
 30
0.000000
 40
0.454105
 50
172.703845
 51
196.942929
  6
CONTINUOUS
  0
ARC
  8
WHITE
 10
-3.768500
 20
-4.027899
 30
0.000000
 40
16.633620
 50
15.592090
 51
16.826099
  6
CONTINUOUS
  0
ARC
  8
WHITE
 10
11.981924
 20
0.394206
 30
0.000000
 40
0.275430
 50
-95.400823
 51
10.203986
  6
CONTINUOUS
  0
ARC
  8
WHITE
 10
11.548872
 20
9.128407
 30
0.000000
 40
9.017603
 50
-106.180430
 51
-87.412324
  6
CONTINUOUS
  0
ARC
  8
WHITE
 10
9.048999
 20
0.522000
 30
0.000000
 40
0.055542
 50
76.463650
 51
256.463783
  6
CONTINUOUS
  0
ARC
  8
WHITE
 10
11.001900
 20
10.053900
 30
0.000000
 40
9.674390
 50
-101.567321
 51
-87.463800
  6
CONTINUOUS
  0
ARC
  8
WHITE
 10
11.428384
 20
0.424799
 30
0.000000
 40
0.035849
 50
-87.420450
 51
44.530837
  6
CONTINUOUS
  0
ARC
  8
WHITE
 10
11.656105
 20
0.659370
 30
0.000000
 40
0.291089
 50
106.796666
 51
226.011221
  6
CONTINUOUS
  0
ARC
  8
WHITE
 10
11.444969
 20
1.359820
 30
0.000000
 40
0.440491
 50
-73.240423
 51
-36.952905
  6
CONTINUOUS
  0
ARC
  8
WHITE
 10
11.840575
 20
1.048813
 30
0.000000
 40
0.063525
 50
60.340986
 51
133.338070
  6
CONTINUOUS
  0
ARC
  8
WHITE
 10
11.795226
 20
0.997565
 30
0.000000
 40
0.131252
 50
41.188143
 51
54.196717
  6
CONTINUOUS
  0
CIRCLE
  8
WHITE
 10
11.595000
 20
0.640999
 30
0.000000
 40
0.104227
  6
CONTINUOUS
  0
LINE
  8
WHITE
 10
9.411999
 20
0.814999
 30
0.000000
 11
9.430999
 21
1.098999
 31
0.000000
  6
CONTINUOUS
  0
ARC
  8
WHITE
 10
9.420999
 20
1.100000
 30
0.000000
 40
0.010050
 50
-5.716266
 51
84.287110
  6
CONTINUOUS
  0
LINE
  8
WHITE
 10
9.421999
 20
1.110000
 30
0.000000
 11
9.331000
 21
1.116000
 31
0.000000
  6
CONTINUOUS
  0
ARC
  8
WHITE
 10
9.329999
 20
1.106000
 30
0.000000
 40
0.010050
 50
84.283734
 51
174.289900
  6
CONTINUOUS
  0
LINE
  8
WHITE
 10
9.319999
 20
1.107000
 30
0.000000
 11
9.300999
 21
0.825999
 31
0.000000
  6
CONTINUOUS
  0
ARC
  8
WHITE
 10
9.290999
 20
0.826599
 30
0.000000
 40
0.010018
 50
-72.644500
 51
-3.433630
  6
CONTINUOUS
  0
ARC
  8
WHITE
 10
9.265809
 20
0.910383
 30
0.000000
 40
0.097506
 50
173.157123
 51
286.797511
  6
CONTINUOUS
  0
ARC
  8
WHITE
 10
8.718599
 20
0.979600
 30
0.000000
 40
0.454068
 50
-7.287741
 51
16.950580
  6
CONTINUOUS
  0
ARC
  8
WHITE
 10
25.062280
 20
5.966833
 30
0.000000
 40
16.633600
 50
-164.265002
 51
-163.030049
  6
CONTINUOUS
  0
ARC
  8
WHITE
 10
9.322999
 20
1.504899
 30
0.000000
 40
0.275374
 50
84.374190
 51
190.229917
  6
CONTINUOUS
  0
ARC
  8
WHITE
 10
10.301023
 20
11.406617
 30
0.000000
 40
9.674528
 50
-95.641420
 51
-78.420297
  6
CONTINUOUS
  0
ARC
  8
WHITE
 10
12.252200
 20
1.874300
 30
0.000000
 40
0.055470
 50
-70.228500
 51
99.547565
  6
CONTINUOUS
  0
ARC
  8
WHITE
 10
10.167691
 20
8.642413
 30
0.000000
 40
7.137256
 50
-92.318168
 51
-72.861094
  6
CONTINUOUS
  0
ARC
  8
WHITE
 10
9.876899
 20
1.475000
 30
0.000000
 40
0.036061
 50
86.661721
 51
226.238600
  6
CONTINUOUS
  0
ARC
  8
WHITE
 10
9.649782
 20
1.239594
 30
0.000000
 40
0.291045
 50
-73.180114
 51
46.000449
  6
CONTINUOUS
  0
ARC
  8
WHITE
 10
9.861054
 20
0.539186
 30
0.000000
 40
0.440534
 50
106.762752
 51
143.049642
  6
CONTINUOUS
  0
ARC
  8
WHITE
 10
9.465207
 20
0.848987
 30
0.000000
 40
0.062782
 50
-120.820201
 51
-45.770804
  6
CONTINUOUS
  0
ARC
  8
WHITE
 10
9.464776
 20
0.849653
 30
0.000000
 40
0.063137
 50
-146.710464
 51
-120.174385
  6
CONTINUOUS
  0
CIRCLE
  8
WHITE
 10
9.710300
 20
1.258699
 30
0.000000
 40
0.104227
  6
CONTINUOUS
  0
ARC
  8
WHITE
 10
3.387500
 20
5.552400
 30
0.000000
 40
0.009990
 50
49.460190
 51
138.652223
  6
CONTINUOUS
  0
LINE
  8
WHITE
 10
3.380000
 20
5.559000
 30
0.000000
 11
3.030881
 21
5.141407
 31
0.000000
  6
CONTINUOUS
  0
ARC
  8
WHITE
 10
3.015537
 20
5.154235
 30
0.000000
 40
0.020000
 50
-130.136257
 51
-39.896538
  6
CONTINUOUS
  0
LINE
  8
WHITE
 10
3.002645
 20
5.138945
 30
0.000000
 11
2.953981
 21
5.179977
 31
0.000000
  6
CONTINUOUS
  0
ARC
  8
WHITE
 10
3.008317
 20
5.244120
 30
0.000000
 40
0.084064
 50
141.007163
 51
229.731823
  6
CONTINUOUS
  0
ARC
  8
WHITE
 10
2.429600
 20
5.715199
 30
0.000000
 40
0.662146
 50
-39.165208
 51
22.350950
  6
CONTINUOUS
  0
ARC
  8
WHITE
 10
3.363479
 20
5.990910
 30
0.000000
 40
0.322368
 50
64.551687
 51
184.253769
  6
CONTINUOUS
  0
ARC
  8
WHITE
 10
3.498291
 20
6.272783
 30
0.000000
 40
0.009935
 50
-28.777562
 51
68.081930
  6
CONTINUOUS
  0
LINE
  8
WHITE
 10
3.506999
 20
6.268000
 30
0.000000
 11
3.341948
 21
5.998030
 31
0.000000
  6
CONTINUOUS
  0
ARC
  8
WHITE
 10
3.350499
 20
5.992900
 30
0.000000
 40
0.009972
 50
149.039200
 51
243.178019
  6
CONTINUOUS
  0
LINE
  8
WHITE
 10
3.345999
 20
5.984001
 30
0.000000
 11
3.421969
 21
5.936948
 31
0.000000
  6
CONTINUOUS
  0
ARC
  8
WHITE
 10
3.427100
 20
5.945499
 30
0.000000
 40
0.009972
 50
-120.965727
 51
-26.821981
  6
CONTINUOUS
  0
LINE
  8
WHITE
 10
3.435999
 20
5.940999
 30
0.000000
 11
3.601999
 21
6.212999
 31
0.000000
  6
CONTINUOUS
  0
ARC
  8
WHITE
 10
3.610665
 20
6.208000
 30
0.000000
 40
0.010004
 50
88.078350
 51
150.021413
  6
CONTINUOUS
  0
ARC
  8
WHITE
 10
3.625384
 20
6.495901
 30
0.000000
 40
0.278275
 50
-92.962841
 51
-45.623960
  6
CONTINUOUS
  0
ARC
  8
WHITE
 10
3.971001
 20
6.177498
 30
0.000000
 40
0.192568
 50
-38.357814
 51
141.642046
  6
CONTINUOUS
  0
ARC
  8
WHITE
 10
4.345092
 20
5.891689
 30
0.000000
 40
0.278256
 50
143.296405
 51
193.020362
  6
CONTINUOUS
  0
ARC
  8
WHITE
 10
4.064100
 20
5.828000
 30
0.000000
 40
0.009940
 50
-53.591225
 51
5.766087
  6
CONTINUOUS
  0
LINE
  8
WHITE
 10
4.070000
 20
5.820000
 30
0.000000
 11
3.830993
 21
5.609006
 31
0.000000
  6
CONTINUOUS
  0
ARC
  8
WHITE
 10
3.837599
 20
5.601499
 30
0.000000
 40
0.010000
 50
131.347089
 51
220.539152
  6
CONTINUOUS
  0
LINE
  8
WHITE
 10
3.829999
 20
5.594999
 30
0.000000
 11
3.889993
 21
5.527993
 31
0.000000
  6
CONTINUOUS
  0
ARC
  8
WHITE
 10
3.897500
 20
5.534599
 30
0.000000
 40
0.010000
 50
-138.652911
 51
-49.460848
  6
CONTINUOUS
  0
LINE
  8
WHITE
 10
3.904000
 20
5.526999
 30
0.000000
 11
4.140999
 21
5.735000
 31
0.000000
  6
CONTINUOUS
  0
ARC
  8
WHITE
 10
4.148036
 20
5.728084
 30
0.000000
 40
0.009867
 50
36.608177
 51
135.496855
  6
CONTINUOUS
  0
ARC
  8
WHITE
 10
3.894178
 20
5.545797
 30
0.000000
 40
0.322391
 50
-84.336041
 51
35.709249
  6
CONTINUOUS
  0
ARC
  8
WHITE
 10
3.784100
 20
4.578299
 30
0.000000
 40
0.662066
 50
77.624176
 51
139.189400
  6
CONTINUOUS
  0
ARC
  8
WHITE
 10
3.219892
 20
5.066406
 30
0.000000
 40
0.083980
 50
-129.920781
 51
-41.282339
  6
CONTINUOUS
  0
LINE
  8
WHITE
 10
3.166000
 20
5.001999
 30
0.000000
 11
3.117496
 21
5.042166
 31
0.000000
  6
CONTINUOUS
  0
ARC
  8
WHITE
 10
3.130252
 20
5.057569
 30
0.000000
 40
0.019999
 50
140.025567
 51
230.370133
  6
CONTINUOUS
  0
LINE
  8
WHITE
 10
3.114925
 20
5.070418
 30
0.000000
 11
3.465000
 21
5.487999
 31
0.000000
  6
CONTINUOUS
  0
ARC
  8
WHITE
 10
3.457000
 20
5.493999
 30
0.000000
 40
0.010000
 50
-36.869898
 51
53.130102
  6
CONTINUOUS
  0
LINE
  8
WHITE
 10
3.463000
 20
5.501999
 30
0.000000
 11
3.393993
 21
5.559992
 31
0.000000
  6
CONTINUOUS
  0
LINE
  8
WHITE
 10
8.912646
 20
9.657171
 30
0.000000
 11
8.916999
 21
9.543999
 31
0.000000
  6
CONTINUOUS
  0
ARC
  8
WHITE
 10
8.927000
 20
9.545000
 30
0.000000
 40
0.010051
 50
-174.284302
 51
-90.000000
  6
CONTINUOUS
  0
LINE
  8
WHITE
 10
8.927000
 20
9.534949
 30
0.000000
 11
9.017000
 21
9.534999
 31
0.000000
  6
CONTINUOUS
  0
ARC
  8
WHITE
 10
9.017000
 20
9.545000
 30
0.000000
 40
0.010001
 50
-90.000000
 51
0.000000
  6
CONTINUOUS
  0
LINE
  8
WHITE
 10
9.027001
 20
9.545000
 30
0.000000
 11
9.022000
 21
9.670000
 31
0.000000
  6
CONTINUOUS
  0
ARC
  8
WHITE
 10
9.032000
 20
9.670200
 30
0.000000
 40
0.010002
 50
101.539200
 51
181.145763
  6
CONTINUOUS
  0
ARC
  8
WHITE
 10
8.957099
 20
10.049600
 30
0.000000
 40
0.376721
 50
-78.842160
 51
-20.931700
  6
CONTINUOUS
  0
ARC
  8
WHITE
 10
8.322208
 20
10.190034
 30
0.000000
 40
1.024361
 50
-15.573799
 51
33.338159
  6
CONTINUOUS
  0
ARC
  8
WHITE
 10
9.211700
 20
10.775200
 30
0.000000
 40
0.040356
 50
47.507490
 51
213.374429
  6
CONTINUOUS
  0
ARC
  8
WHITE
 10
8.530172
 20
10.038546
 30
0.000000
 40
1.043918
 50
-27.160555
 51
47.236898
  6
CONTINUOUS
  0
ARC
  8
WHITE
 10
8.958848
 20
9.892165
 30
0.000000
 40
0.599275
 50
-142.095181
 51
-33.430126
  6
CONTINUOUS
  0
ARC
  8
WHITE
 10
9.374435
 20
10.072238
 30
0.000000
 40
1.043974
 50
137.316435
 51
211.678066
  6
CONTINUOUS
  0
ARC
  8
WHITE
 10
8.639500
 20
10.756500
 30
0.000000
 40
0.040105
 50
-35.869521
 51
144.131198
  6
CONTINUOUS
  0
ARC
  8
WHITE
 10
9.569779
 20
10.239662
 30
0.000000
 40
1.024397
 50
151.210779
 51
200.136814
  6
CONTINUOUS
  0
ARC
  8
WHITE
 10
8.948200
 20
10.048900
 30
0.000000
 40
0.376759
 50
-154.550381
 51
-100.119900
  6
CONTINUOUS
  0
LINE
  8
WHITE
 10
8.882000
 20
9.678003
 30
0.000000
 11
8.895307
 21
9.676227
 31
0.000000
  6
CONTINUOUS
  0
ARC
  8
WHITE
 10
8.892661
 20
9.656402
 30
0.000000
 40
0.020001
 50
2.203589
 51
82.397785
  6
CONTINUOUS
  0
LINE
  8
WHITE
 10
7.494724
 20
9.569547
 30
0.000000
 11
7.486000
 21
9.456999
 31
0.000000
  6
CONTINUOUS
  0
ARC
  8
WHITE
 10
7.496000
 20
9.455999
 30
0.000000
 40
0.010050
 50
174.289407
 51
264.286700
  6
CONTINUOUS
  0
LINE
  8
WHITE
 10
7.495000
 20
9.445999
 30
0.000000
 11
7.585000
 21
9.439000
 31
0.000000
  6
CONTINUOUS
  0
ARC
  8
WHITE
 10
7.585999
 20
9.449000
 30
0.000000
 40
0.010050
 50
-95.704920
 51
-5.712800
  6
CONTINUOUS
  0
LINE
  8
WHITE
 10
7.595999
 20
9.448000
 30
0.000000
 11
7.605000
 21
9.569000
 31
0.000000
  6
CONTINUOUS
  0
ARC
  8
WHITE
 10
7.615051
 20
9.569005
 30
0.000000
 40
0.010051
 50
96.006921
 51
180.028503
  6
CONTINUOUS
  0
ARC
  8
WHITE
 10
7.591199
 20
9.935800
 30
0.000000
 40
0.357527
 50
-86.343657
 51
-10.279200
  6
CONTINUOUS
  0
ARC
  8
WHITE
 10
6.780894
 20
10.079866
 30
0.000000
 40
1.180538
 50
-10.141307
 51
25.548385
  6
CONTINUOUS
  0
ARC
  8
WHITE
 10
7.889180
 20
10.608729
 30
0.000000
 40
0.047473
 50
42.825709
 51
204.555669
  6
CONTINUOUS
  0
ARC
  8
WHITE
 10
7.233499
 20
10.009100
 30
0.000000
 40
0.935995
 50
-44.160200
 51
42.462726
  6
CONTINUOUS
  0
ARC
  8
WHITE
 10
7.546564
 20
9.613971
 30
0.000000
 40
0.441001
 50
-153.180566
 51
-35.636907
  6
CONTINUOUS
  0
ARC
  8
WHITE
 10
7.917399
 20
9.955100
 30
0.000000
 40
0.935956
 50
128.558500
 51
215.243816
  6
CONTINUOUS
  0
ARC
  8
WHITE
 10
7.368487
 20
10.655007
 30
0.000000
 40
0.047032
 50
-42.848633
 51
137.151778
  6
CONTINUOUS
  0
ARC
  8
WHITE
 10
8.377149
 20
9.956124
 30
0.000000
 40
1.180585
 50
145.605485
 51
181.559253
  6
CONTINUOUS
  0
ARC
  8
WHITE
 10
7.578800
 20
9.960899
 30
0.000000
 40
0.383578
 50
-174.479698
 51
-106.946800
  6
CONTINUOUS
  0
LINE
  8
WHITE
 10
7.466993
 20
9.593978
 30
0.000000
 11
7.480087
 21
9.590376
 31
0.000000
  6
CONTINUOUS
  0
ARC
  8
WHITE
 10
7.474784
 20
9.571092
 30
0.000000
 40
0.020000
 50
-4.430565
 51
74.624025
  6
CONTINUOUS
  0
LINE
  8
WHITE
 10
11.438561
 20
9.087531
 30
0.000000
 11
11.428000
 21
8.973999
 31
0.000000
  6
CONTINUOUS
  0
ARC
  8
WHITE
 10
11.438000
 20
8.972999
 30
0.000000
 40
0.010050
 50
174.289407
 51
264.286700
  6
CONTINUOUS
  0
LINE
  8
WHITE
 10
11.437000
 20
8.962999
 30
0.000000
 11
11.526000
 21
8.954000
 31
0.000000
  6
CONTINUOUS
  0
ARC
  8
WHITE
 10
11.527000
 20
8.964000
 30
0.000000
 40
0.010050
 50
-95.710593
 51
-5.713300
  6
CONTINUOUS
  0
LINE
  8
WHITE
 10
11.537000
 20
8.963000
 30
0.000000
 11
11.549000
 21
9.085000
 31
0.000000
  6
CONTINUOUS
  0
ARC
  8
WHITE
 10
11.559000
 20
9.084099
 30
0.000000
 40
0.010041
 50
95.770150
 51
174.851552
  6
CONTINUOUS
  0
ARC
  8
WHITE
 10
11.512438
 20
9.482915
 30
0.000000
 40
0.391485
 50
-83.318031
 51
-43.587619
  6
CONTINUOUS
  0
ARC
  8
WHITE
 10
11.085389
 20
9.604181
 30
0.000000
 40
0.811166
 50
-28.832169
 51
30.264356
  6
CONTINUOUS
  0
ARC
  8
WHITE
 10
11.831500
 20
10.043999
 30
0.000000
 40
0.055056
 50
34.266881
 51
214.265986
  6
CONTINUOUS
  0
ARC
  8
WHITE
 10
11.110400
 20
9.464499
 30
0.000000
 40
0.979992
 50
-36.322700
 51
38.532868
  6
CONTINUOUS
  0
ARC
  8
WHITE
 10
11.502184
 20
9.176532
 30
0.000000
 40
0.493762
 50
-154.375224
 51
-36.328871
  6
CONTINUOUS
  0
ARC
  8
WHITE
 10
11.940587
 20
9.386188
 30
0.000000
 40
0.979717
 50
130.602786
 51
205.591837
  6
CONTINUOUS
  0
ARC
  8
WHITE
 10
11.336183
 20
10.085808
 30
0.000000
 40
0.055300
 50
-37.653288
 51
126.904487
  6
CONTINUOUS
  0
ARC
  8
WHITE
 10
11.992234
 20
9.519739
 30
0.000000
 40
0.811297
 50
138.997329
 51
198.077253
  6
CONTINUOUS
  0
ARC
  8
WHITE
 10
11.550784
 20
9.479223
 30
0.000000
 40
0.391645
 50
-147.361495
 51
-110.754708
  6
CONTINUOUS
  0
LINE
  8
WHITE
 10
11.411997
 20
9.112992
 30
0.000000
 11
11.425370
 21
9.108220
 31
0.000000
  6
CONTINUOUS
  0
ARC
  8
WHITE
 10
11.418647
 20
9.089384
 30
0.000000
 40
0.020000
 50
-5.316071
 51
70.357353
  6
CONTINUOUS
  0
LINE
  8
WHITE
 10
1.597608
 20
8.604108
 30
0.000000
 11
1.610999
 21
8.501999
 31
0.000000
  6
CONTINUOUS
  0
ARC
  8
WHITE
 10
1.620799
 20
8.503899
 30
0.000000
 40
0.009982
 50
-169.027760
 51
-83.087700
  6
CONTINUOUS
  0
LINE
  8
WHITE
 10
1.622000
 20
8.493990
 30
0.000000
 11
1.712000
 21
8.505999
 31
0.000000
  6
CONTINUOUS
  0
ARC
  8
WHITE
 10
1.710090
 20
8.515797
 30
0.000000
 40
0.009982
 50
-78.969227
 51
6.920989
  6
CONTINUOUS
  0
LINE
  8
WHITE
 10
1.719999
 20
8.517000
 30
0.000000
 11
1.705000
 21
8.628999
 31
0.000000
  6
CONTINUOUS
  0
ARC
  8
WHITE
 10
1.714882
 20
8.630097
 30
0.000000
 40
0.009943
 50
95.088826
 51
186.340192
  6
CONTINUOUS
  0
ARC
  8
WHITE
 10
1.671184
 20
8.995298
 30
0.000000
 40
0.357869
 50
-83.128556
 51
16.677193
  6
CONTINUOUS
  0
ARC
  8
WHITE
 10
0.214799
 20
8.562099
 30
0.000000
 40
1.877314
 50
16.586396
 51
33.125480
  6
CONTINUOUS
  0
ARC
  8
WHITE
 10
1.828511
 20
9.613492
 30
0.000000
 40
0.048708
 50
54.205341
 51
211.553503
  6
CONTINUOUS
  0
ARC
  8
WHITE
 10
1.312399
 20
8.933699
 30
0.000000
 40
0.902210
 50
-34.938900
 51
52.869741
  6
CONTINUOUS
  0
ARC
  8
WHITE
 10
1.638900
 20
8.705699
 30
0.000000
 40
0.503980
 50
-129.702200
 51
-34.948216
  6
CONTINUOUS
  0
ARC
  8
WHITE
 10
1.893858
 20
9.011645
 30
0.000000
 40
0.902233
 50
142.408055
 51
230.252025
  6
CONTINUOUS
  0
ARC
  8
WHITE
 10
1.217969
 20
9.532902
 30
0.000000
 40
0.048700
 50
-19.058482
 51
143.250596
  6
CONTINUOUS
  0
ARC
  8
WHITE
 10
3.052000
 20
8.944499
 30
0.000000
 40
1.877419
 50
162.245426
 51
178.794400
  6
CONTINUOUS
  0
ARC
  8
WHITE
 10
1.532799
 20
8.976400
 30
0.000000
 40
0.357883
 50
178.783152
 51
275.162500
  6
CONTINUOUS
  0
LINE
  8
WHITE
 10
1.565001
 20
8.619970
 30
0.000000
 11
1.575117
 21
8.621330
 31
0.000000
  6
CONTINUOUS
  0
ARC
  8
WHITE
 10
1.577778
 20
8.601508
 30
0.000000
 40
0.020000
 50
7.469697
 51
97.645947
  6
CONTINUOUS
  0
LINE
  8
WHITE
 10
4.419692
 20
3.617910
 30
0.000000
 11
4.339000
 21
3.696000
 31
0.000000
  6
CONTINUOUS
  0
ARC
  8
WHITE
 10
4.345607
 20
3.703508
 30
0.000000
 40
0.010001
 50
139.526247
 51
228.652395
  6
CONTINUOUS
  0
LINE
  8
WHITE
 10
4.337999
 20
3.710000
 30
0.000000
 11
4.401000
 21
3.775000
 31
0.000000
  6
CONTINUOUS
  0
ARC
  8
WHITE
 10
4.407999
 20
3.767899
 30
0.000000
 40
0.009970
 50
45.406890
 51
134.585527
  6
CONTINUOUS
  0
LINE
  8
WHITE
 10
4.414999
 20
3.774999
 30
0.000000
 11
4.501999
 21
3.691999
 31
0.000000
  6
CONTINUOUS
  0
ARC
  8
WHITE
 10
4.509078
 20
3.699021
 30
0.000000
 40
0.009971
 50
-135.231604
 51
-53.565122
  6
CONTINUOUS
  0
ARC
  8
WHITE
 10
4.750199
 20
3.385299
 30
0.000000
 40
0.385710
 50
45.829680
 51
127.573921
  6
CONTINUOUS
  0
ARC
  8
WHITE
 10
3.635760
 20
2.381764
 30
0.000000
 40
1.884710
 50
24.188302
 51
42.785216
  6
CONTINUOUS
  0
ARC
  8
WHITE
 10
5.393499
 20
3.170099
 30
0.000000
 40
0.041730
 50
-157.305938
 51
6.733823
  6
CONTINUOUS
  0
ARC
  8
WHITE
 10
4.462393
 20
3.080158
 30
0.000000
 40
0.977161
 50
5.569361
 51
88.439858
  6
CONTINUOUS
  0
ARC
  8
WHITE
 10
4.477455
 20
3.638701
 30
0.000000
 40
0.418415
 50
88.419234
 51
183.796467
  6
CONTINUOUS
  0
ARC
  8
WHITE
 10
5.034997
 20
3.677832
 30
0.000000
 40
0.977326
 50
-176.078723
 51
-93.167175
  6
CONTINUOUS
  0
ARC
  8
WHITE
 10
4.982200
 20
2.743699
 30
0.000000
 40
0.041717
 50
-91.648004
 51
66.315960
  6
CONTINUOUS
  0
ARC
  8
WHITE
 10
5.699201
 20
4.531714
 30
0.000000
 40
1.884723
 50
-130.426908
 51
-111.810412
  6
CONTINUOUS
  0
ARC
  8
WHITE
 10
4.742000
 20
3.377299
 30
0.000000
 40
0.385737
 50
147.953700
 51
226.607238
  6
CONTINUOUS
  0
LINE
  8
WHITE
 10
4.415042
 20
3.581973
 30
0.000000
 11
4.422123
 21
3.592005
 31
0.000000
  6
CONTINUOUS
  0
ARC
  8
WHITE
 10
4.405783
 20
3.603538
 30
0.000000
 40
0.020000
 50
-35.214977
 51
45.937929
  6
CONTINUOUS
  0
LINE
  8
WHITE
 10
6.238694
 20
2.206054
 30
0.000000
 11
6.129000
 21
2.194999
 31
0.000000
  6
CONTINUOUS
  0
ARC
  8
WHITE
 10
6.128000
 20
2.204999
 30
0.000000
 40
0.010050
 50
-174.289900
 51
-84.289407
  6
CONTINUOUS
  0
LINE
  8
WHITE
 10
6.118000
 20
2.203999
 30
0.000000
 11
6.109000
 21
2.293999
 31
0.000000
  6
CONTINUOUS
  0
ARC
  8
WHITE
 10
6.119000
 20
2.294999
 30
0.000000
 40
0.010050
 50
95.712750
 51
185.710593
  6
CONTINUOUS
  0
LINE
  8
WHITE
 10
6.118000
 20
2.304999
 30
0.000000
 11
6.237999
 21
2.315999
 31
0.000000
  6
CONTINUOUS
  0
ARC
  8
WHITE
 10
6.236999
 20
2.325999
 30
0.000000
 40
0.010050
 50
-84.289407
 51
5.710051
  6
CONTINUOUS
  0
ARC
  8
WHITE
 10
6.540200
 20
2.348299
 30
0.000000
 40
0.293974
 50
79.060760
 51
184.155051
  6
CONTINUOUS
  0
ARC
  8
WHITE
 10
6.365436
 20
0.230397
 30
0.000000
 40
2.417554
 50
73.055976
 51
84.527647
  6
CONTINUOUS
  0
ARC
  8
WHITE
 10
7.079552
 20
2.578139
 30
0.000000
 40
0.036412
 50
-105.207545
 51
49.915792
  6
CONTINUOUS
  0
ARC
  8
WHITE
 10
6.553699
 20
1.908599
 30
0.000000
 40
0.887748
 50
51.774616
 51
97.879090
  6
CONTINUOUS
  0
ARC
  8
WHITE
 10
6.477727
 20
2.087895
 30
0.000000
 40
0.701563
 50
93.736807
 51
159.638490
  6
CONTINUOUS
  0
ARC
  8
WHITE
 10
6.058175
 20
2.243731
 30
0.000000
 40
0.254004
 50
159.665296
 51
211.239650
  6
CONTINUOUS
  0
ARC
  8
WHITE
 10
6.440700
 20
2.476000
 30
0.000000
 40
0.701524
 50
-148.743474
 51
-82.769700
  6
CONTINUOUS
  0
ARC
  8
WHITE
 10
6.480449
 20
2.666503
 30
0.000000
 40
0.887777
 50
-86.865524
 51
-40.749882
  6
CONTINUOUS
  0
ARC
  8
WHITE
 10
7.126399
 20
2.111699
 30
0.000000
 40
0.036299
 50
-42.878608
 51
120.449800
  6
CONTINUOUS
  0
ARC
  8
WHITE
 10
5.973200
 20
4.277589
 30
0.000000
 40
2.417496
 50
-73.470514
 51
-62.003817
  6
CONTINUOUS
  0
ARC
  8
WHITE
 10
6.550899
 20
2.232700
 30
0.000000
 40
0.294087
 50
-169.278600
 51
-68.014143
  6
CONTINUOUS
  0
LINE
  8
WHITE
 10
6.261946
 20
2.177990
 30
0.000000
 11
6.260529
 21
2.188762
 31
0.000000
  6
CONTINUOUS
  0
ARC
  8
WHITE
 10
6.240700
 20
2.186154
 30
0.000000
 40
0.020000
 50
7.492793
 51
95.756200
  6
CONTINUOUS
  0
LINE
  8
WHITE
 10
9.886180
 20
8.954796
 30
0.000000
 11
9.810999
 21
8.869999
 31
0.000000
  6
CONTINUOUS
  0
ARC
  8
WHITE
 10
9.818599
 20
8.863499
 30
0.000000
 40
0.010000
 50
139.460848
 51
228.653500
  6
CONTINUOUS
  0
LINE
  8
WHITE
 10
9.811993
 20
8.855992
 30
0.000000
 11
9.878999
 21
8.796999
 31
0.000000
  6
CONTINUOUS
  0
ARC
  8
WHITE
 10
9.886056
 20
8.804143
 30
0.000000
 40
0.010042
 50
-134.648992
 51
-37.712944
  6
CONTINUOUS
  0
LINE
  8
WHITE
 10
9.894000
 20
8.798000
 30
0.000000
 11
9.973999
 21
8.887999
 31
0.000000
  6
CONTINUOUS
  0
ARC
  8
WHITE
 10
9.981300
 20
8.881199
 30
0.000000
 40
0.009977
 50
61.896580
 51
137.034828
  6
CONTINUOUS
  0
ARC
  8
WHITE
 10
10.161000
 20
9.185500
 30
0.000000
 40
0.343432
 50
-120.634722
 51
-68.477500
  6
CONTINUOUS
  0
ARC
  8
WHITE
 10
9.792473
 20
9.558382
 30
0.000000
 40
0.850838
 50
-54.463853
 51
-10.522564
  6
CONTINUOUS
  0
ARC
  8
WHITE
 10
10.679000
 20
9.398000
 30
0.000000
 40
0.050249
 50
-5.710737
 51
174.289340
  6
CONTINUOUS
  0
ARC
  8
WHITE
 10
9.805233
 20
9.407213
 30
0.000000
 40
0.923876
 50
-67.284136
 51
-0.881484
  6
CONTINUOUS
  0
ARC
  8
WHITE
 10
9.983799
 20
8.982500
 30
0.000000
 40
0.463153
 50
164.277300
 51
292.628395
  6
CONTINUOUS
  0
ARC
  8
WHITE
 10
10.426919
 20
8.856702
 30
0.000000
 40
0.923783
 50
97.771678
 51
164.214425
  6
CONTINUOUS
  0
ARC
  8
WHITE
 10
10.313000
 20
9.722999
 30
0.000000
 40
0.050220
 50
-77.347945
 51
102.652685
  6
CONTINUOUS
  0
ARC
  8
WHITE
 10
10.579770
 20
8.862590
 30
0.000000
 40
0.850766
 50
107.495775
 51
152.228597
  6
CONTINUOUS
  0
ARC
  8
WHITE
 10
10.160834
 20
9.184751
 30
0.000000
 40
0.341991
 50
167.460680
 51
214.507079
  6
CONTINUOUS
  0
LINE
  8
WHITE
 10
9.879014
 20
8.991010
 30
0.000000
 11
9.887222
 21
8.980054
 31
0.000000
  6
CONTINUOUS
  0
ARC
  8
WHITE
 10
9.871215
 20
8.968064
 30
0.000000
 40
0.020000
 50
-41.560263
 51
36.834947
  6
CONTINUOUS
  0
ENDSEC
  0
EOF
