  0
SECTION
  2
HEADER
  9
$ACADVER
  1
AC1014
  9
$HANDSEED
  5
FFFF
  9
$MEASUREMENT
 70
     1
  0
ENDSEC
  0
SECTION
  2
TABLES
  0
TABLE
  2
VPORT
  5
8
330
0
100
AcDbSymbolTable
 70
     4
  0
VPORT
  5
2E
330
8
100
AcDbSymbolTableRecord
100
AcDbViewportTableRecord
  2
*ACTIVE
 70
     0
 10
0.0
 20
0.0
 11
1.0
 21
1.0
 12
210.0
 22
148.5
 13
0.0
 23
0.0
 14
10.0
 24
10.0
 15
10.0
 25
10.0
 16
0.0
 26
0.0
 36
1.0
 17
0.0
 27
0.0
 37
0.0
 40
341.0
 41
1.24
 42
50.0
 43
0.0
 44
0.0
 50
0.0
 51
0.0
 71
     0
 72
   100
 73
     1
 74
     3
 75
     0
 76
     0
 77
     0
 78
     0
  0
ENDTAB
  0
TABLE
  2
LTYPE
  5
5
330
0
100
AcDbSymbolTable
 70
     1
  0
LTYPE
  5
14
330
5
100
AcDbSymbolTableRecord
100
AcDbLinetypeTableRecord
  2
BYBLOCK
 70
     0
  3

 72
    65
 73
     0
 40
0.0
  0
LTYPE
  5
15
330
5
100
AcDbSymbolTableRecord
100
AcDbLinetypeTableRecord
  2
BYLAYER
 70
     0
  3

 72
    65
 73
     0
 40
0.0
  0
LTYPE
  5
16
330
5
100
AcDbSymbolTableRecord
100
AcDbLinetypeTableRecord
  2
CONTINUOUS
 70
     0
  3
Solid line
 72
    65
 73
     0
 40
0.0
  0
ENDTAB
  0
TABLE
  2
LAYER
  5
2
100
AcDbSymbolTable
 70
2
  0
LAYER
  5
50
100
AcDbSymbolTableRecord
100
AcDbLayerTableRecord
  2
0
 70
0
  6
CONTINUOUS
  0
LAYER
  5
51
100
AcDbSymbolTableRecord
100
AcDbLayerTableRecord
  2
Layer_1
 70
0
  6
CONTINUOUS
  0
ENDTAB
  0
TABLE
  2
STYLE
  5
3
330
0
100
AcDbSymbolTable
 70
     1
  0
STYLE
  5
11
330
3
100
AcDbSymbolTableRecord
100
AcDbTextStyleTableRecord
  2
STANDARD
 70
     0
 40
0.0
 41
1.0
 50
0.0
 71
     0
 42
2.5
  3
txt
  4

  0
ENDTAB
  0
TABLE
  2
VIEW
  5
6
330
0
100
AcDbSymbolTable
 70
     0
  0
ENDTAB
  0
TABLE
  2
UCS
  5
7
330
0
100
AcDbSymbolTable
 70
     0
  0
ENDTAB
  0
TABLE
  2
APPID
  5
9
330
0
100
AcDbSymbolTable
 70
     2
  0
APPID
  5
12
330
9
100
AcDbSymbolTableRecord
100
AcDbRegAppTableRecord
  2
ACAD
 70
     0
  0
ENDTAB
  0
TABLE
  2
DIMSTYLE
  5
A
330
0
100
AcDbSymbolTable
 70
     1
  0
DIMSTYLE
105
27
330
A
100
AcDbSymbolTableRecord
100
AcDbDimStyleTableRecord
  2
ISO-25
 70
     0
  3

  4

  5

  6

  7

 40
1.0
 41
2.5
 42
0.625
 43
3.75
 44
1.25
 45
0.0
 46
0.0
 47
0.0
 48
0.0
140
2.5
141
2.5
142
0.0
143
0.03937007874016
144
1.0
145
0.0
146
1.0
147
0.625
 71
     0
 72
     0
 73
     0
 74
     0
 75
     0
 76
     0
 77
     1
 78
     8
170
     0
171
     3
172
     1
173
     0
174
     0
175
     0
176
     0
177
     0
178
     0
270
     2
271
     2
272
     2
273
     2
274
     3
340
11
275
     0
280
     0
281
     0
282
     0
283
     0
284
     8
285
     0
286
     0
287
     3
288
     0
  0
ENDTAB
  0
TABLE
  2
BLOCK_RECORD
  5
1
330
0
100
AcDbSymbolTable
 70
     1
  0
BLOCK_RECORD
  5
1F
330
1
100
AcDbSymbolTableRecord
100
AcDbBlockTableRecord
  2
*MODEL_SPACE
  0
BLOCK_RECORD
  5
1B
330
1
100
AcDbSymbolTableRecord
100
AcDbBlockTableRecord
  2
*PAPER_SPACE
  0
ENDTAB
  0
ENDSEC
  0
SECTION
  2
BLOCKS
  0
BLOCK
  5
20
330
1F
100
AcDbEntity
  8
0
100
AcDbBlockBegin
  2
*MODEL_SPACE
 70
     0
 10
0.0
 20
0.0
 30
0.0
  3
*MODEL_SPACE
  1

  0
ENDBLK
  5
21
330
1F
100
AcDbEntity
  8
0
100
AcDbBlockEnd
  0
BLOCK
  5
1C
330
1B
100
AcDbEntity
 67
     1
  8
0
100
AcDbBlockBegin
  2
*PAPER_SPACE
  1

  0
ENDBLK
  5
1D
330
1B
100
AcDbEntity
 67
     1
  8
0
100
AcDbBlockEnd
  0
ENDSEC
  0
SECTION
  2
ENTITIES
  0
SPLINE
  5
100
100
AcDbEntity
  8
Layer_1
 62
3
100
AcDbSpline
 70
0
 71
3
 72
10
 73
6
 74
4
 40
0.000000
 40
0.000000
 40
0.000000
 40
0.000000
 40
7.877290
 40
15.503433
 40
23.380722
 40
23.380722
 40
23.380722
 40
23.380722
 10
153.493752
 20
368.843847
 30
0.0
 10
150.852878
 20
368.433236
 30
0.0
 10
145.655327
 20
367.625107
 30
0.0
 10
139.665124
 20
361.634903
 30
0.0
 10
138.856994
 20
356.437352
 30
0.0
 10
138.446384
 20
353.796479
 30
0.0
 11
153.493752
 21
368.843847
 31
0.0
 11
145.887519
 21
366.795209
 31
0.0
 11
140.495022
 21
361.402711
 31
0.0
 11
138.446384
 21
353.796479
 31
0.0
  0
LWPOLYLINE
  5
101
100
AcDbEntity
  8
Layer_1
 62
3
100
AcDbPolyline
 90
2
 70
1
 10
138.446384
 20
353.796479
 30
0.0
 10
138.446384
 20
264.623263
 30
0.0
  0
SPLINE
  5
102
100
AcDbEntity
  8
Layer_1
 62
3
100
AcDbSpline
 70
0
 71
3
 72
10
 73
6
 74
4
 40
0.000000
 40
0.000000
 40
0.000000
 40
0.000000
 40
7.877290
 40
15.503433
 40
23.380722
 40
23.380722
 40
23.380722
 40
23.380722
 10
138.446384
 20
264.623263
 30
0.0
 10
138.856994
 20
261.982389
 30
0.0
 10
139.665124
 20
256.784838
 30
0.0
 10
145.655327
 20
250.794634
 30
0.0
 10
150.852878
 20
249.986505
 30
0.0
 10
153.493752
 20
249.575895
 30
0.0
 11
138.446384
 21
264.623263
 31
0.0
 11
140.495022
 21
257.017030
 31
0.0
 11
145.887519
 21
251.624532
 31
0.0
 11
153.493752
 21
249.575895
 31
0.0
  0
LWPOLYLINE
  5
103
100
AcDbEntity
  8
Layer_1
 62
3
100
AcDbPolyline
 90
3
 70
1
 10
153.493752
 20
249.575895
 30
0.0
 10
176.980120
 20
249.575895
 30
0.0
 10
176.980120
 20
220.232335
 30
0.0
  0
SPLINE
  5
104
100
AcDbEntity
  8
Layer_1
 62
3
100
AcDbSpline
 70
0
 71
3
 72
10
 73
6
 74
4
 40
0.000000
 40
0.000000
 40
0.000000
 40
0.000000
 40
6.717438
 40
13.220812
 40
19.938250
 40
19.938250
 40
19.938250
 40
19.938250
 10
176.980120
 20
220.232335
 30
0.0
 10
177.330295
 20
217.980308
 30
0.0
 10
178.019485
 20
213.548021
 30
0.0
 10
183.127711
 20
208.439795
 30
0.0
 10
187.559998
 20
207.750605
 30
0.0
 10
189.812024
 20
207.400431
 30
0.0
 11
176.980120
 21
220.232335
 31
0.0
 11
178.727166
 21
213.746057
 31
0.0
 11
183.325746
 21
209.147476
 31
0.0
 11
189.812024
 21
207.400431
 31
0.0
  0
LWPOLYLINE
  5
105
100
AcDbEntity
  8
Layer_1
 62
3
100
AcDbPolyline
 90
2
 70
1
 10
189.812024
 20
207.400431
 30
0.0
 10
221.343880
 20
207.400431
 30
0.0
  0
SPLINE
  5
106
100
AcDbEntity
  8
Layer_1
 62
3
100
AcDbSpline
 70
0
 71
3
 72
10
 73
6
 74
4
 40
0.000000
 40
0.000000
 40
0.000000
 40
0.000000
 40
6.717438
 40
13.220812
 40
19.938250
 40
19.938250
 40
19.938250
 40
19.938250
 10
221.343880
 20
207.400431
 30
0.0
 10
223.595906
 20
207.750605
 30
0.0
 10
228.028193
 20
208.439795
 30
0.0
 10
233.136419
 20
213.548021
 30
0.0
 10
233.825609
 20
217.980308
 30
0.0
 10
234.175784
 20
220.232335
 30
0.0
 11
221.343880
 21
207.400431
 31
0.0
 11
227.830158
 21
209.147476
 31
0.0
 11
232.428738
 21
213.746057
 31
0.0
 11
234.175784
 21
220.232335
 31
0.0
  0
LWPOLYLINE
  5
107
100
AcDbEntity
  8
Layer_1
 62
3
100
AcDbPolyline
 90
3
 70
1
 10
234.175784
 20
220.232335
 30
0.0
 10
234.175784
 20
249.575895
 30
0.0
 10
257.663240
 20
249.575895
 30
0.0
  0
SPLINE
  5
108
100
AcDbEntity
  8
Layer_1
 62
3
100
AcDbSpline
 70
0
 71
3
 72
10
 73
6
 74
4
 40
0.000000
 40
0.000000
 40
0.000000
 40
0.000000
 40
7.877290
 40
15.503433
 40
23.380722
 40
23.380722
 40
23.380722
 40
23.380722
 10
257.663240
 20
249.575895
 30
0.0
 10
260.304114
 20
249.986505
 30
0.0
 10
265.501665
 20
250.794634
 30
0.0
 10
271.491868
 20
256.784838
 30
0.0
 10
272.299998
 20
261.982389
 30
0.0
 10
272.710608
 20
264.623263
 30
0.0
 11
257.663240
 21
249.575895
 31
0.0
 11
265.269473
 21
251.624532
 31
0.0
 11
270.661970
 21
257.017030
 31
0.0
 11
272.710608
 21
264.623263
 31
0.0
  0
LWPOLYLINE
  5
109
100
AcDbEntity
  8
Layer_1
 62
3
100
AcDbPolyline
 90
2
 70
1
 10
272.710608
 20
264.623263
 30
0.0
 10
272.710608
 20
353.796479
 30
0.0
  0
SPLINE
  5
10a
100
AcDbEntity
  8
Layer_1
 62
3
100
AcDbSpline
 70
0
 71
3
 72
10
 73
6
 74
4
 40
0.000000
 40
0.000000
 40
0.000000
 40
0.000000
 40
7.877290
 40
15.503433
 40
23.380722
 40
23.380722
 40
23.380722
 40
23.380722
 10
272.710608
 20
353.796479
 30
0.0
 10
272.299998
 20
356.437352
 30
0.0
 10
271.491868
 20
361.634903
 30
0.0
 10
265.501665
 20
367.625107
 30
0.0
 10
260.304114
 20
368.433236
 30
0.0
 10
257.663240
 20
368.843847
 30
0.0
 11
272.710608
 21
353.796479
 31
0.0
 11
270.661970
 21
361.402711
 31
0.0
 11
265.269473
 21
366.795209
 31
0.0
 11
257.663240
 21
368.843847
 31
0.0
  0
LWPOLYLINE
  5
10b
100
AcDbEntity
  8
Layer_1
 62
3
100
AcDbPolyline
 90
3
 70
1
 10
257.663240
 20
368.843847
 30
0.0
 10
153.493752
 20
368.843847
 30
0.0
 10
153.493752
 20
368.843847
 30
0.0
  0
SPLINE
  5
10c
100
AcDbEntity
  8
Layer_1
 62
3
100
AcDbSpline
 70
0
 71
3
 72
10
 73
6
 74
4
 40
0.000000
 40
0.000000
 40
0.000000
 40
0.000000
 40
7.877290
 40
15.503433
 40
23.380722
 40
23.380722
 40
23.380722
 40
23.380722
 10
425.592240
 20
368.843847
 30
0.0
 10
422.951366
 20
368.433236
 30
0.0
 10
417.753815
 20
367.625107
 30
0.0
 10
411.763612
 20
361.634903
 30
0.0
 10
410.955482
 20
356.437352
 30
0.0
 10
410.544872
 20
353.796479
 30
0.0
 11
425.592240
 21
368.843847
 31
0.0
 11
417.986007
 21
366.795209
 31
0.0
 11
412.593510
 21
361.402711
 31
0.0
 11
410.544872
 21
353.796479
 31
0.0
  0
LWPOLYLINE
  5
10d
100
AcDbEntity
  8
Layer_1
 62
3
100
AcDbPolyline
 90
2
 70
1
 10
410.544872
 20
353.796479
 30
0.0
 10
410.544872
 20
264.623263
 30
0.0
  0
SPLINE
  5
10e
100
AcDbEntity
  8
Layer_1
 62
3
100
AcDbSpline
 70
0
 71
3
 72
10
 73
6
 74
4
 40
0.000000
 40
0.000000
 40
0.000000
 40
0.000000
 40
7.877290
 40
15.503433
 40
23.380722
 40
23.380722
 40
23.380722
 40
23.380722
 10
410.544872
 20
264.623263
 30
0.0
 10
410.955482
 20
261.982389
 30
0.0
 10
411.763612
 20
256.784838
 30
0.0
 10
417.753815
 20
250.794634
 30
0.0
 10
422.951366
 20
249.986505
 30
0.0
 10
425.592240
 20
249.575895
 30
0.0
 11
410.544872
 21
264.623263
 31
0.0
 11
412.593510
 21
257.017030
 31
0.0
 11
417.986007
 21
251.624532
 31
0.0
 11
425.592240
 21
249.575895
 31
0.0
  0
LWPOLYLINE
  5
10f
100
AcDbEntity
  8
Layer_1
 62
3
100
AcDbPolyline
 90
3
 70
1
 10
425.592240
 20
249.575895
 30
0.0
 10
449.078616
 20
249.575895
 30
0.0
 10
449.078616
 20
220.232335
 30
0.0
  0
SPLINE
  5
110
100
AcDbEntity
  8
Layer_1
 62
3
100
AcDbSpline
 70
0
 71
3
 72
10
 73
6
 74
4
 40
0.000000
 40
0.000000
 40
0.000000
 40
0.000000
 40
6.717437
 40
13.220809
 40
19.938245
 40
19.938245
 40
19.938245
 40
19.938245
 10
449.078616
 20
220.232335
 30
0.0
 10
449.428790
 20
217.980309
 30
0.0
 10
450.117979
 20
213.548022
 30
0.0
 10
455.226201
 20
208.439795
 30
0.0
 10
459.658486
 20
207.750605
 30
0.0
 10
461.910512
 20
207.400431
 30
0.0
 11
449.078616
 21
220.232335
 31
0.0
 11
450.825660
 21
213.746057
 31
0.0
 11
455.424236
 21
209.147476
 31
0.0
 11
461.910512
 21
207.400431
 31
0.0
  0
LWPOLYLINE
  5
111
100
AcDbEntity
  8
Layer_1
 62
3
100
AcDbPolyline
 90
2
 70
1
 10
461.910512
 20
207.400431
 30
0.0
 10
493.442368
 20
207.400431
 30
0.0
  0
SPLINE
  5
112
100
AcDbEntity
  8
Layer_1
 62
3
100
AcDbSpline
 70
0
 71
3
 72
10
 73
6
 74
4
 40
0.000000
 40
0.000000
 40
0.000000
 40
0.000000
 40
6.717436
 40
13.220808
 40
19.938245
 40
19.938245
 40
19.938245
 40
19.938245
 10
493.442368
 20
207.400431
 30
0.0
 10
495.694394
 20
207.750605
 30
0.0
 10
500.126679
 20
208.439795
 30
0.0
 10
505.234901
 20
213.548022
 30
0.0
 10
505.924090
 20
217.980309
 30
0.0
 10
506.274264
 20
220.232335
 30
0.0
 11
493.442368
 21
207.400431
 31
0.0
 11
499.928644
 21
209.147476
 31
0.0
 11
504.527220
 21
213.746057
 31
0.0
 11
506.274264
 21
220.232335
 31
0.0
  0
LWPOLYLINE
  5
113
100
AcDbEntity
  8
Layer_1
 62
3
100
AcDbPolyline
 90
3
 70
1
 10
506.274264
 20
220.232335
 30
0.0
 10
506.274264
 20
249.575895
 30
0.0
 10
529.761728
 20
249.575895
 30
0.0
  0
SPLINE
  5
114
100
AcDbEntity
  8
Layer_1
 62
3
100
AcDbSpline
 70
0
 71
3
 72
10
 73
6
 74
4
 40
0.000000
 40
0.000000
 40
0.000000
 40
0.000000
 40
7.877290
 40
15.503433
 40
23.380722
 40
23.380722
 40
23.380722
 40
23.380722
 10
529.761728
 20
249.575895
 30
0.0
 10
532.402602
 20
249.986505
 30
0.0
 10
537.600153
 20
250.794634
 30
0.0
 10
543.590356
 20
256.784838
 30
0.0
 10
544.398486
 20
261.982389
 30
0.0
 10
544.809096
 20
264.623263
 30
0.0
 11
529.761728
 21
249.575895
 31
0.0
 11
537.367961
 21
251.624532
 31
0.0
 11
542.760458
 21
257.017030
 31
0.0
 11
544.809096
 21
264.623263
 31
0.0
  0
LWPOLYLINE
  5
115
100
AcDbEntity
  8
Layer_1
 62
3
100
AcDbPolyline
 90
2
 70
1
 10
544.809096
 20
264.623263
 30
0.0
 10
544.809096
 20
353.796479
 30
0.0
  0
SPLINE
  5
116
100
AcDbEntity
  8
Layer_1
 62
3
100
AcDbSpline
 70
0
 71
3
 72
10
 73
6
 74
4
 40
0.000000
 40
0.000000
 40
0.000000
 40
0.000000
 40
7.877290
 40
15.503433
 40
23.380722
 40
23.380722
 40
23.380722
 40
23.380722
 10
544.809096
 20
353.796479
 30
0.0
 10
544.398486
 20
356.437352
 30
0.0
 10
543.590356
 20
361.634903
 30
0.0
 10
537.600153
 20
367.625107
 30
0.0
 10
532.402602
 20
368.433236
 30
0.0
 10
529.761728
 20
368.843847
 30
0.0
 11
544.809096
 21
353.796479
 31
0.0
 11
542.760458
 21
361.402711
 31
0.0
 11
537.367961
 21
366.795209
 31
0.0
 11
529.761728
 21
368.843847
 31
0.0
  0
LWPOLYLINE
  5
117
100
AcDbEntity
  8
Layer_1
 62
3
100
AcDbPolyline
 90
3
 70
1
 10
529.761728
 20
368.843847
 30
0.0
 10
425.592240
 20
368.843847
 30
0.0
 10
425.592240
 20
368.843847
 30
0.0
  0
SPLINE
  5
118
100
AcDbEntity
  8
Layer_1
 62
3
100
AcDbSpline
 70
0
 71
3
 72
25
 73
21
 74
19
 40
0.000000
 40
0.000000
 40
0.000000
 40
0.000000
 40
25.039860
 40
49.337045
 40
74.376904
 40
99.416764
 40
123.713949
 40
148.753808
 40
161.290277
 40
173.723001
 40
186.259469
 40
198.795938
 40
211.228662
 40
223.765131
 40
236.301599
 40
248.734323
 40
261.270792
 40
273.807260
 40
286.239984
 40
298.776453
 40
298.776453
 40
298.776453
 40
298.776453
 10
524.829912
 20
309.855535
 30
0.0
 10
523.513645
 20
301.413237
 30
0.0
 10
520.920151
 20
284.779037
 30
0.0
 10
501.854395
 20
266.466736
 30
0.0
 10
476.983096
 20
259.679284
 30
0.0
 10
451.853687
 20
266.472197
 30
0.0
 10
433.546946
 20
284.757680
 30
0.0
 10
427.925597
 20
305.705347
 30
0.0
 10
430.154822
 20
322.387726
 30
0.0
 10
434.988867
 20
334.075863
 30
0.0
 10
442.685160
 20
344.109880
 30
0.0
 10
452.720724
 20
351.805479
 30
0.0
 10
464.402013
 20
356.643828
 30
0.0
 10
476.939438
 20
358.299066
 30
0.0
 10
489.478118
 20
356.643855
 30
0.0
 10
501.155665
 20
351.805373
 30
0.0
 10
511.205037
 20
344.110280
 30
0.0
 10
518.849913
 20
334.074377
 30
0.0
 10
523.874810
 20
322.393242
 30
0.0
 10
524.510664
 20
314.046331
 30
0.0
 10
524.829912
 20
309.855535
 30
0.0
 11
524.829912
 21
309.855535
 31
0.0
 11
518.291485
 21
285.684404
 31
0.0
 11
501.110779
 21
268.503701
 31
0.0
 11
476.939648
 21
261.965279
 31
0.0
 11
452.768517
 21
268.503701
 31
0.0
 11
435.587811
 21
285.684404
 31
0.0
 11
429.049384
 21
309.855535
 31
0.0
 11
430.690129
 21
322.284171
 31
0.0
 11
435.447927
 21
333.770510
 31
0.0
 11
443.076117
 21
343.719066
 31
0.0
 11
453.024672
 21
351.347256
 31
0.0
 11
464.511012
 21
356.105053
 31
0.0
 11
476.939648
 21
357.745799
 31
0.0
 11
489.368284
 21
356.105053
 31
0.0
 11
500.854624
 21
351.347256
 31
0.0
 11
510.803179
 21
343.719066
 31
0.0
 11
518.431369
 21
333.770510
 31
0.0
 11
523.189167
 21
322.284171
 31
0.0
 11
524.829912
 21
309.855535
 31
0.0
  0
LWPOLYLINE
  5
119
100
AcDbEntity
  8
Layer_1
 62
3
100
AcDbPolyline
 90
2
 70
1
 10
524.829912
 20
309.855535
 30
0.0
 10
524.829912
 20
309.855535
 30
0.0
  0
SPLINE
  5
11a
100
AcDbEntity
  8
Layer_1
 62
3
100
AcDbSpline
 70
0
 71
3
 72
10
 73
6
 74
4
 40
0.000000
 40
0.000000
 40
0.000000
 40
0.000000
 40
7.877290
 40
15.503433
 40
23.380722
 40
23.380722
 40
23.380722
 40
23.380722
 10
289.853744
 20
368.843847
 30
0.0
 10
287.212870
 20
368.433236
 30
0.0
 10
282.015319
 20
367.625107
 30
0.0
 10
276.025116
 20
361.634903
 30
0.0
 10
275.216986
 20
356.437352
 30
0.0
 10
274.806376
 20
353.796479
 30
0.0
 11
289.853744
 21
368.843847
 31
0.0
 11
282.247511
 21
366.795209
 31
0.0
 11
276.855014
 21
361.402711
 31
0.0
 11
274.806376
 21
353.796479
 31
0.0
  0
LWPOLYLINE
  5
11b
100
AcDbEntity
  8
Layer_1
 62
3
100
AcDbPolyline
 90
2
 70
1
 10
274.806376
 20
353.796479
 30
0.0
 10
274.806376
 20
264.623263
 30
0.0
  0
SPLINE
  5
11c
100
AcDbEntity
  8
Layer_1
 62
3
100
AcDbSpline
 70
0
 71
3
 72
10
 73
6
 74
4
 40
0.000000
 40
0.000000
 40
0.000000
 40
0.000000
 40
7.877290
 40
15.503433
 40
23.380722
 40
23.380722
 40
23.380722
 40
23.380722
 10
274.806376
 20
264.623263
 30
0.0
 10
275.216986
 20
261.982389
 30
0.0
 10
276.025116
 20
256.784838
 30
0.0
 10
282.015319
 20
250.794634
 30
0.0
 10
287.212870
 20
249.986505
 30
0.0
 10
289.853744
 20
249.575895
 30
0.0
 11
274.806376
 21
264.623263
 31
0.0
 11
276.855014
 21
257.017030
 31
0.0
 11
282.247511
 21
251.624532
 31
0.0
 11
289.853744
 21
249.575895
 31
0.0
  0
SPLINE
  5
11d
100
AcDbEntity
  8
Layer_1
 62
3
100
AcDbSpline
 70
0
 71
3
 72
16
 73
12
 74
10
 40
0.000000
 40
0.000000
 40
0.000000
 40
0.000000
 40
5.474420
 40
10.749800
 40
16.053977
 40
31.061164
 40
58.931654
 40
73.938841
 40
92.502078
 40
110.742312
 40
129.305550
 40
129.305550
 40
129.305550
 40
129.305550
 10
313.340112
 20
220.232335
 30
0.0
 10
313.586680
 20
218.375297
 30
0.0
 10
314.070851
 20
214.728741
 30
0.0
 10
317.202053
 20
210.552904
 30
0.0
 10
326.447751
 20
204.668155
 30
0.0
 10
319.492931
 20
232.253375
 30
0.0
 10
320.961657
 20
244.782582
 30
0.0
 10
325.753094
 20
269.348948
 30
0.0
 10
304.812885
 20
274.380700
 30
0.0
 10
295.794356
 20
291.565082
 30
0.0
 10
294.143386
 20
303.723191
 30
0.0
 10
293.310656
 20
309.855599
 30
0.0
 11
313.340112
 21
220.232335
 31
0.0
 11
314.498005
 21
214.881769
 31
0.0
 11
317.633904
 21
210.639626
 31
0.0
 11
322.241136
 21
208.011375
 31
0.0
 11
322.241136
 21
223.018562
 31
0.0
 11
322.241136
 21
250.889052
 31
0.0
 11
322.241136
 21
265.896239
 31
0.0
 11
306.941468
 21
276.408800
 31
0.0
 11
296.913952
 21
291.645435
 31
0.0
 11
293.310656
 21
309.855599
 31
0.0
  0
SPLINE
  5
11e
100
AcDbEntity
  8
Layer_1
 62
3
100
AcDbSpline
 70
0
 71
3
 72
13
 73
9
 74
7
 40
0.000000
 40
0.000000
 40
0.000000
 40
0.000000
 40
25.039849
 40
49.337024
 40
74.376873
 40
99.416720
 40
123.713893
 40
148.753739
 40
148.753739
 40
148.753739
 40
148.753739
 10
293.310656
 20
309.855599
 30
0.0
 10
294.627888
 20
318.297857
 30
0.0
 10
297.223283
 20
334.931979
 30
0.0
 10
316.274977
 20
353.244786
 30
0.0
 10
341.200903
 20
360.030243
 30
0.0
 10
366.126828
 20
353.244783
 30
0.0
 10
385.178517
 20
334.931977
 30
0.0
 10
387.773912
 20
318.297856
 30
0.0
 10
389.091144
 20
309.855599
 30
0.0
 11
293.310656
 21
309.855599
 31
0.0
 11
299.849085
 21
334.026717
 31
0.0
 11
317.029784
 21
351.207413
 31
0.0
 11
341.200904
 21
357.745839
 31
0.0
 11
365.372020
 21
351.207411
 31
0.0
 11
382.552716
 21
334.026715
 31
0.0
 11
389.091144
 21
309.855599
 31
0.0
  0
LWPOLYLINE
  5
11f
100
AcDbEntity
  8
Layer_1
 62
3
100
AcDbPolyline
 90
3
 70
1
 10
289.853744
 20
249.575895
 30
0.0
 10
313.340112
 20
249.575895
 30
0.0
 10
313.340112
 20
220.232335
 30
0.0
  0
SPLINE
  5
120
100
AcDbEntity
  8
Layer_1
 62
3
100
AcDbSpline
 70
0
 71
3
 72
10
 73
6
 74
4
 40
0.000000
 40
0.000000
 40
0.000000
 40
0.000000
 40
18.012337
 40
35.728237
 40
53.740574
 40
53.740574
 40
53.740574
 40
53.740574
 10
389.091144
 20
309.855599
 30
0.0
 10
388.405891
 20
303.839886
 30
0.0
 10
387.046664
 20
291.907464
 30
0.0
 10
377.006618
 20
276.089298
 30
0.0
 10
366.787700
 20
269.780264
 30
0.0
 10
361.635848
 20
266.599575
 30
0.0
 11
389.091144
 21
309.855599
 31
0.0
 11
385.684324
 21
292.168376
 31
0.0
 11
376.190637
 21
277.211002
 31
0.0
 11
361.635848
 21
266.599575
 31
0.0
  0
LWPOLYLINE
  5
121
100
AcDbEntity
  8
Layer_1
 62
3
100
AcDbPolyline
 90
2
 70
1
 10
361.635848
 20
266.599575
 30
0.0
 10
361.635848
 20
208.011375
 30
0.0
  0
SPLINE
  5
122
100
AcDbEntity
  8
Layer_1
 62
3
100
AcDbSpline
 70
0
 71
3
 72
10
 73
6
 74
4
 40
0.000000
 40
0.000000
 40
0.000000
 40
0.000000
 40
5.303833
 40
10.578979
 40
16.053139
 40
16.053139
 40
16.053139
 40
16.053139
 10
361.635848
 20
208.011375
 30
0.0
 10
363.256496
 20
208.761913
 30
0.0
 10
366.489027
 20
210.258929
 30
0.0
 10
369.853417
 20
214.805648
 30
0.0
 10
370.305528
 20
218.401249
 30
0.0
 10
370.535768
 20
220.232335
 30
0.0
 11
361.635848
 21
208.011375
 31
0.0
 11
366.242563
 21
210.639839
 31
0.0
 11
369.378045
 21
214.881998
 31
0.0
 11
370.535768
 21
220.232335
 31
0.0
  0
LWPOLYLINE
  5
123
100
AcDbEntity
  8
Layer_1
 62
3
100
AcDbPolyline
 90
3
 70
1
 10
370.535768
 20
220.232335
 30
0.0
 10
370.535768
 20
249.575895
 30
0.0
 10
394.023232
 20
249.575895
 30
0.0
  0
SPLINE
  5
124
100
AcDbEntity
  8
Layer_1
 62
3
100
AcDbSpline
 70
0
 71
3
 72
10
 73
6
 74
4
 40
0.000000
 40
0.000000
 40
0.000000
 40
0.000000
 40
7.877290
 40
15.503433
 40
23.380722
 40
23.380722
 40
23.380722
 40
23.380722
 10
394.023232
 20
249.575895
 30
0.0
 10
396.664106
 20
249.986505
 30
0.0
 10
401.861657
 20
250.794634
 30
0.0
 10
407.851860
 20
256.784838
 30
0.0
 10
408.659990
 20
261.982389
 30
0.0
 10
409.070600
 20
264.623263
 30
0.0
 11
394.023232
 21
249.575895
 31
0.0
 11
401.629465
 21
251.624532
 31
0.0
 11
407.021962
 21
257.017030
 31
0.0
 11
409.070600
 21
264.623263
 31
0.0
  0
LWPOLYLINE
  5
125
100
AcDbEntity
  8
Layer_1
 62
3
100
AcDbPolyline
 90
2
 70
1
 10
409.070600
 20
264.623263
 30
0.0
 10
409.070600
 20
353.796479
 30
0.0
  0
SPLINE
  5
126
100
AcDbEntity
  8
Layer_1
 62
3
100
AcDbSpline
 70
0
 71
3
 72
10
 73
6
 74
4
 40
0.000000
 40
0.000000
 40
0.000000
 40
0.000000
 40
7.877290
 40
15.503433
 40
23.380722
 40
23.380722
 40
23.380722
 40
23.380722
 10
409.070600
 20
353.796479
 30
0.0
 10
408.659990
 20
356.437352
 30
0.0
 10
407.851860
 20
361.634903
 30
0.0
 10
401.861657
 20
367.625107
 30
0.0
 10
396.664106
 20
368.433236
 30
0.0
 10
394.023232
 20
368.843847
 30
0.0
 11
409.070600
 21
353.796479
 31
0.0
 11
407.021962
 21
361.402711
 31
0.0
 11
401.629465
 21
366.795209
 31
0.0
 11
394.023232
 21
368.843847
 31
0.0
  0
LWPOLYLINE
  5
127
100
AcDbEntity
  8
Layer_1
 62
3
100
AcDbPolyline
 90
3
 70
1
 10
394.023232
 20
368.843847
 30
0.0
 10
289.853744
 20
368.843847
 30
0.0
 10
289.853744
 20
368.843847
 30
0.0
  0
SPLINE
  5
128
100
AcDbEntity
  8
Layer_1
 62
3
100
AcDbSpline
 70
0
 71
3
 72
28
 73
24
 74
22
 40
0.000000
 40
0.000000
 40
0.000000
 40
0.000000
 40
7.399582
 40
14.579694
 40
21.979275
 40
25.683955
 40
29.357976
 40
33.062655
 40
36.767334
 40
40.441356
 40
44.146035
 40
47.850715
 40
51.524738
 40
55.229418
 40
58.934099
 40
62.608122
 40
66.312802
 40
70.017481
 40
73.691503
 40
77.396182
 40
81.100861
 40
84.774882
 40
88.479561
 40
88.479561
 40
88.479561
 40
88.479561
 10
355.353352
 20
309.855535
 30
0.0
 10
354.963935
 20
307.360913
 30
0.0
 10
354.196651
 20
302.445659
 30
0.0
 10
348.568970
 20
297.031536
 30
0.0
 10
342.433798
 20
295.371408
 30
0.0
 10
337.496633
 20
296.030030
 30
0.0
 10
334.044108
 20
297.458576
 30
0.0
 10
331.078539
 20
299.732914
 30
0.0
 10
328.804501
 20
302.698553
 30
0.0
 10
327.374681
 20
306.150495
 30
0.0
 10
326.885544
 20
309.855534
 30
0.0
 10
327.374676
 20
313.560582
 30
0.0
 10
328.804507
 20
317.012500
 30
0.0
 10
331.078503
 20
319.978233
 30
0.0
 10
334.044230
 20
322.252227
 30
0.0
 10
337.496169
 20
323.682058
 30
0.0
 10
341.201139
 20
324.171190
 30
0.0
 10
344.906470
 20
323.682057
 30
0.0
 10
348.357328
 20
322.252225
 30
0.0
 10
351.327039
 20
319.978230
 30
0.0
 10
353.586192
 20
317.012498
 30
0.0
 10
355.071109
 20
313.560580
 30
0.0
 10
355.259011
 20
311.093966
 30
0.0
 10
355.353352
 20
309.855535
 30
0.0
 11
355.353352
 21
309.855535
 31
0.0
 11
353.421168
 21
302.712673
 31
0.0
 11
348.344062
 21
297.635567
 31
0.0
 11
341.201200
 21
295.703383
 31
0.0
 11
337.528387
 21
296.188242
 31
0.0
 11
334.134033
 21
297.594228
 31
0.0
 11
331.194113
 21
299.848450
 31
0.0
 11
328.939889
 21
302.788368
 31
0.0
 11
327.533901
 21
306.182721
 31
0.0
 11
327.049040
 21
309.855535
 31
0.0
 11
327.533899
 21
313.528349
 31
0.0
 11
328.939886
 21
316.922704
 31
0.0
 11
331.194110
 21
319.862624
 31
0.0
 11
334.134030
 21
322.116848
 31
0.0
 11
337.528385
 21
323.522835
 31
0.0
 11
341.201200
 21
324.007695
 31
0.0
 11
344.874013
 21
323.522834
 31
0.0
 11
348.268366
 21
322.116846
 31
0.0
 11
351.208285
 21
319.862622
 31
0.0
 11
353.462507
 21
316.922702
 31
0.0
 11
354.868493
 21
313.528348
 31
0.0
 11
355.353352
 21
309.855535
 31
0.0
  0
LWPOLYLINE
  5
129
100
AcDbEntity
  8
Layer_1
 62
3
100
AcDbPolyline
 90
2
 70
1
 10
355.353352
 20
309.855535
 30
0.0
 10
355.353352
 20
309.855535
 30
0.0
  0
SPLINE
  5
12a
100
AcDbEntity
  8
Layer_1
 62
3
100
AcDbSpline
 70
0
 71
3
 72
22
 73
18
 74
16
 40
0.000000
 40
0.000000
 40
0.000000
 40
0.000000
 40
2.837974
 40
5.591775
 40
8.429749
 40
11.267726
 40
14.021529
 40
16.859506
 40
18.280370
 40
19.689476
 40
21.110340
 40
22.531204
 40
23.940310
 40
25.361174
 40
28.199150
 40
30.952954
 40
33.790930
 40
33.790930
 40
33.790930
 40
33.790930
 10
346.629000
 20
309.855535
 30
0.0
 10
346.479816
 20
308.898699
 30
0.0
 10
346.185873
 20
307.013408
 30
0.0
 10
344.024994
 20
304.937924
 30
0.0
 10
341.206124
 20
304.168644
 30
0.0
 10
338.357998
 20
304.938540
 30
0.0
 10
336.283141
 20
307.010985
 30
0.0
 10
335.646023
 20
309.385160
 30
0.0
 10
335.898681
 20
311.275912
 30
0.0
 10
336.446559
 20
312.600637
 30
0.0
 10
337.318862
 20
313.737842
 30
0.0
 10
338.456216
 20
314.610181
 30
0.0
 10
339.780381
 20
315.158060
 30
0.0
 10
341.673940
 20
315.410668
 30
0.0
 10
344.026976
 20
314.773950
 30
0.0
 10
346.185370
 20
312.697460
 30
0.0
 10
346.479647
 20
310.812302
 30
0.0
 10
346.629000
 20
309.855535
 30
0.0
 11
346.629000
 21
309.855535
 31
0.0
 11
345.887945
 21
307.116021
 31
0.0
 11
343.940713
 21
305.168790
 31
0.0
 11
341.201200
 21
304.427735
 31
0.0
 11
338.461683
 21
305.168787
 31
0.0
 11
336.514449
 21
307.116019
 31
0.0
 11
335.773392
 21
309.855535
 31
0.0
 11
335.959351
 21
311.264177
 31
0.0
 11
336.498592
 21
312.566021
 31
0.0
 11
337.363159
 21
313.693575
 31
0.0
 11
338.490713
 21
314.558143
 31
0.0
 11
339.792557
 21
315.097384
 31
0.0
 11
341.201200
 21
315.283343
 31
0.0
 11
343.940716
 21
314.542286
 31
0.0
 11
345.887947
 21
312.595051
 31
0.0
 11
346.629000
 21
309.855535
 31
0.0
  0
LWPOLYLINE
  5
12b
100
AcDbEntity
  8
Layer_1
 62
3
100
AcDbPolyline
 90
2
 70
1
 10
346.629000
 20
309.855535
 30
0.0
 10
346.629000
 20
309.855535
 30
0.0
  0
SPLINE
  5
12c
100
AcDbEntity
  8
Layer_1
 62
5
100
AcDbSpline
 70
0
 71
3
 72
22
 73
18
 74
16
 40
0.000000
 40
0.000000
 40
0.000000
 40
0.000000
 40
2.837974
 40
5.591775
 40
8.429749
 40
11.267726
 40
14.021529
 40
16.859506
 40
18.280370
 40
19.689476
 40
21.110340
 40
22.531204
 40
23.940310
 40
25.361174
 40
28.199150
 40
30.952954
 40
33.790930
 40
33.790930
 40
33.790930
 40
33.790930
 10
210.629000
 20
309.855535
 30
0.0
 10
210.479816
 20
308.898699
 30
0.0
 10
210.185873
 20
307.013408
 30
0.0
 10
208.024994
 20
304.937924
 30
0.0
 10
205.206124
 20
304.168644
 30
0.0
 10
202.357998
 20
304.938540
 30
0.0
 10
200.283141
 20
307.010985
 30
0.0
 10
199.646023
 20
309.385160
 30
0.0
 10
199.898681
 20
311.275912
 30
0.0
 10
200.446559
 20
312.600637
 30
0.0
 10
201.318862
 20
313.737842
 30
0.0
 10
202.456216
 20
314.610181
 30
0.0
 10
203.780381
 20
315.158060
 30
0.0
 10
205.673940
 20
315.410668
 30
0.0
 10
208.026976
 20
314.773950
 30
0.0
 10
210.185370
 20
312.697460
 30
0.0
 10
210.479647
 20
310.812302
 30
0.0
 10
210.629000
 20
309.855535
 30
0.0
 11
210.629000
 21
309.855535
 31
0.0
 11
209.887945
 21
307.116021
 31
0.0
 11
207.940713
 21
305.168790
 31
0.0
 11
205.201200
 21
304.427735
 31
0.0
 11
202.461683
 21
305.168787
 31
0.0
 11
200.514449
 21
307.116019
 31
0.0
 11
199.773392
 21
309.855535
 31
0.0
 11
199.959351
 21
311.264177
 31
0.0
 11
200.498592
 21
312.566021
 31
0.0
 11
201.363159
 21
313.693575
 31
0.0
 11
202.490713
 21
314.558143
 31
0.0
 11
203.792557
 21
315.097384
 31
0.0
 11
205.201200
 21
315.283343
 31
0.0
 11
207.940716
 21
314.542286
 31
0.0
 11
209.887947
 21
312.595051
 31
0.0
 11
210.629000
 21
309.855535
 31
0.0
  0
LWPOLYLINE
  5
12d
100
AcDbEntity
  8
Layer_1
 62
5
100
AcDbPolyline
 90
2
 70
1
 10
210.629000
 20
309.855535
 30
0.0
 10
210.629000
 20
309.855535
 30
0.0
  0
SPLINE
  5
12e
100
AcDbEntity
  8
Layer_1
 62
5
100
AcDbSpline
 70
0
 71
3
 72
25
 73
21
 74
19
 40
0.000000
 40
0.000000
 40
0.000000
 40
0.000000
 40
2.081627
 40
4.101514
 40
6.183142
 40
7.225332
 40
8.258897
 40
9.301087
 40
10.343277
 40
11.376842
 40
12.419032
 40
13.461222
 40
14.494787
 40
15.536977
 40
16.579167
 40
17.612732
 40
18.654922
 40
20.736549
 40
22.756436
 40
24.838064
 40
24.838064
 40
24.838064
 40
24.838064
 10
297.243328
 20
266.919015
 30
0.0
 10
297.133778
 20
266.217235
 30
0.0
 10
296.917928
 20
264.834491
 30
0.0
 10
295.334766
 20
263.311407
 30
0.0
 10
293.608839
 20
262.844385
 30
0.0
 10
292.219930
 20
263.029665
 30
0.0
 10
291.248675
 20
263.431539
 30
0.0
 10
290.414409
 20
264.071348
 30
0.0
 10
289.774682
 20
264.905633
 30
0.0
 10
289.372449
 20
265.876723
 30
0.0
 10
289.234845
 20
266.919015
 30
0.0
 10
289.372449
 20
267.961306
 30
0.0
 10
289.774682
 20
268.932396
 30
0.0
 10
290.414409
 20
269.766681
 30
0.0
 10
291.248675
 20
270.406490
 30
0.0
 10
292.219930
 20
270.808364
 30
0.0
 10
293.608839
 20
270.993644
 30
0.0
 10
295.334766
 20
270.526622
 30
0.0
 10
296.917928
 20
269.003538
 30
0.0
 10
297.133778
 20
267.620794
 30
0.0
 10
297.243328
 20
266.919015
 30
0.0
 11
297.243328
 21
266.919015
 31
0.0
 11
296.699771
 21
264.909607
 31
0.0
 11
295.271496
 21
263.481331
 31
0.0
 11
293.262088
 21
262.937775
 31
0.0
 11
292.228862
 21
263.074173
 31
0.0
 11
291.273972
 21
263.469700
 31
0.0
 11
290.446922
 21
264.103851
 31
0.0
 11
289.812769
 21
264.930900
 31
0.0
 11
289.417240
 21
265.885789
 31
0.0
 11
289.280840
 21
266.919015
 31
0.0
 11
289.417240
 21
267.952240
 31
0.0
 11
289.812769
 21
268.907129
 31
0.0
 11
290.446922
 21
269.734179
 31
0.0
 11
291.273972
 21
270.368329
 31
0.0
 11
292.228862
 21
270.763856
 31
0.0
 11
293.262088
 21
270.900255
 31
0.0
 11
295.271496
 21
270.356698
 31
0.0
 11
296.699771
 21
268.928422
 31
0.0
 11
297.243328
 21
266.919015
 31
0.0
  0
LWPOLYLINE
  5
12f
100
AcDbEntity
  8
Layer_1
 62
5
100
AcDbPolyline
 90
2
 70
1
 10
297.243328
 20
266.919015
 30
0.0
 10
297.243328
 20
266.919015
 30
0.0
  0
SPLINE
  5
130
100
AcDbEntity
  8
Layer_1
 62
5
100
AcDbSpline
 70
0
 71
3
 72
25
 73
21
 74
19
 40
0.000000
 40
0.000000
 40
0.000000
 40
0.000000
 40
2.081627
 40
4.101514
 40
6.183142
 40
7.225332
 40
8.258897
 40
9.301087
 40
10.343277
 40
11.376842
 40
12.419032
 40
13.461222
 40
14.494787
 40
15.536977
 40
16.579167
 40
17.612732
 40
18.654922
 40
20.736549
 40
22.756436
 40
24.838064
 40
24.838064
 40
24.838064
 40
24.838064
 10
297.243328
 20
353.319015
 30
0.0
 10
297.133778
 20
352.617235
 30
0.0
 10
296.917928
 20
351.234491
 30
0.0
 10
295.334766
 20
349.711407
 30
0.0
 10
293.608839
 20
349.244385
 30
0.0
 10
292.219930
 20
349.429665
 30
0.0
 10
291.248675
 20
349.831539
 30
0.0
 10
290.414409
 20
350.471348
 30
0.0
 10
289.774682
 20
351.305633
 30
0.0
 10
289.372449
 20
352.276723
 30
0.0
 10
289.234845
 20
353.319015
 30
0.0
 10
289.372449
 20
354.361306
 30
0.0
 10
289.774682
 20
355.332396
 30
0.0
 10
290.414409
 20
356.166681
 30
0.0
 10
291.248675
 20
356.806490
 30
0.0
 10
292.219930
 20
357.208364
 30
0.0
 10
293.608839
 20
357.393644
 30
0.0
 10
295.334766
 20
356.926622
 30
0.0
 10
296.917928
 20
355.403538
 30
0.0
 10
297.133778
 20
354.020794
 30
0.0
 10
297.243328
 20
353.319015
 30
0.0
 11
297.243328
 21
353.319015
 31
0.0
 11
296.699771
 21
351.309607
 31
0.0
 11
295.271496
 21
349.881331
 31
0.0
 11
293.262088
 21
349.337775
 31
0.0
 11
292.228862
 21
349.474173
 31
0.0
 11
291.273972
 21
349.869700
 31
0.0
 11
290.446922
 21
350.503851
 31
0.0
 11
289.812769
 21
351.330900
 31
0.0
 11
289.417240
 21
352.285789
 31
0.0
 11
289.280840
 21
353.319015
 31
0.0
 11
289.417240
 21
354.352240
 31
0.0
 11
289.812769
 21
355.307129
 31
0.0
 11
290.446922
 21
356.134179
 31
0.0
 11
291.273972
 21
356.768329
 31
0.0
 11
292.228862
 21
357.163856
 31
0.0
 11
293.262088
 21
357.300255
 31
0.0
 11
295.271496
 21
356.756698
 31
0.0
 11
296.699771
 21
355.328422
 31
0.0
 11
297.243328
 21
353.319015
 31
0.0
  0
LWPOLYLINE
  5
131
100
AcDbEntity
  8
Layer_1
 62
5
100
AcDbPolyline
 90
2
 70
1
 10
297.243328
 20
353.319015
 30
0.0
 10
297.243328
 20
353.319015
 30
0.0
  0
SPLINE
  5
132
100
AcDbEntity
  8
Layer_1
 62
5
100
AcDbSpline
 70
0
 71
3
 72
19
 73
15
 74
13
 40
0.000000
 40
0.000000
 40
0.000000
 40
0.000000
 40
2.081627
 40
4.101514
 40
6.183142
 40
8.264769
 40
10.284656
 40
12.366284
 40
14.447911
 40
16.467798
 40
18.549426
 40
20.631053
 40
22.650940
 40
24.732567
 40
24.732567
 40
24.732567
 40
24.732567
 10
387.194272
 20
266.919015
 30
0.0
 10
387.303696
 20
266.217188
 30
0.0
 10
387.519298
 20
264.834350
 30
0.0
 10
389.104296
 20
263.311959
 30
0.0
 10
391.171858
 20
262.747866
 30
0.0
 10
393.261127
 20
263.311959
 30
0.0
 10
394.782291
 20
264.834350
 30
0.0
 10
395.346801
 20
266.919015
 30
0.0
 10
394.782291
 20
269.003679
 30
0.0
 10
393.261127
 20
270.526070
 30
0.0
 10
391.171858
 20
271.090163
 30
0.0
 10
389.104296
 20
270.526070
 30
0.0
 10
387.519298
 20
269.003679
 30
0.0
 10
387.303696
 20
267.620841
 30
0.0
 10
387.194272
 20
266.919015
 30
0.0
 11
387.194272
 21
266.919015
 31
0.0
 11
387.737829
 21
264.909607
 31
0.0
 11
389.166104
 21
263.481331
 31
0.0
 11
391.175512
 21
262.937775
 31
0.0
 11
393.184920
 21
263.481331
 31
0.0
 11
394.613195
 21
264.909607
 31
0.0
 11
395.156752
 21
266.919015
 31
0.0
 11
394.613195
 21
268.928422
 31
0.0
 11
393.184920
 21
270.356698
 31
0.0
 11
391.175512
 21
270.900255
 31
0.0
 11
389.166104
 21
270.356698
 31
0.0
 11
387.737829
 21
268.928422
 31
0.0
 11
387.194272
 21
266.919015
 31
0.0
  0
LWPOLYLINE
  5
133
100
AcDbEntity
  8
Layer_1
 62
5
100
AcDbPolyline
 90
2
 70
1
 10
387.194272
 20
266.919015
 30
0.0
 10
387.194272
 20
266.919015
 30
0.0
  0
SPLINE
  5
134
100
AcDbEntity
  8
Layer_1
 62
5
100
AcDbSpline
 70
0
 71
3
 72
19
 73
15
 74
13
 40
0.000000
 40
0.000000
 40
0.000000
 40
0.000000
 40
2.081627
 40
4.101514
 40
6.183142
 40
8.264769
 40
10.284656
 40
12.366284
 40
14.447911
 40
16.467798
 40
18.549426
 40
20.631053
 40
22.650940
 40
24.732567
 40
24.732567
 40
24.732567
 40
24.732567
 10
387.194272
 20
353.319015
 30
0.0
 10
387.303696
 20
352.617188
 30
0.0
 10
387.519298
 20
351.234350
 30
0.0
 10
389.104296
 20
349.711959
 30
0.0
 10
391.171858
 20
349.147866
 30
0.0
 10
393.261127
 20
349.711959
 30
0.0
 10
394.782291
 20
351.234350
 30
0.0
 10
395.346801
 20
353.319015
 30
0.0
 10
394.782291
 20
355.403679
 30
0.0
 10
393.261127
 20
356.926070
 30
0.0
 10
391.171858
 20
357.490163
 30
0.0
 10
389.104296
 20
356.926070
 30
0.0
 10
387.519298
 20
355.403679
 30
0.0
 10
387.303696
 20
354.020841
 30
0.0
 10
387.194272
 20
353.319015
 30
0.0
 11
387.194272
 21
353.319015
 31
0.0
 11
387.737829
 21
351.309607
 31
0.0
 11
389.166104
 21
349.881331
 31
0.0
 11
391.175512
 21
349.337775
 31
0.0
 11
393.184920
 21
349.881331
 31
0.0
 11
394.613195
 21
351.309607
 31
0.0
 11
395.156752
 21
353.319015
 31
0.0
 11
394.613195
 21
355.328422
 31
0.0
 11
393.184920
 21
356.756698
 31
0.0
 11
391.175512
 21
357.300255
 31
0.0
 11
389.166104
 21
356.756698
 31
0.0
 11
387.737829
 21
355.328422
 31
0.0
 11
387.194272
 21
353.319015
 31
0.0
  0
LWPOLYLINE
  5
135
100
AcDbEntity
  8
Layer_1
 62
5
100
AcDbPolyline
 90
2
 70
1
 10
387.194272
 20
353.319015
 30
0.0
 10
387.194272
 20
353.319015
 30
0.0
  0
SPLINE
  5
136
100
AcDbEntity
  8
Layer_1
 62
5
100
AcDbSpline
 70
0
 71
3
 72
25
 73
21
 74
19
 40
0.000000
 40
0.000000
 40
0.000000
 40
0.000000
 40
2.081627
 40
4.101514
 40
6.183142
 40
7.225332
 40
8.258897
 40
9.301087
 40
10.343277
 40
11.376842
 40
12.419032
 40
13.461222
 40
14.494787
 40
15.536977
 40
16.579167
 40
17.612732
 40
18.654922
 40
20.736549
 40
22.756436
 40
24.838064
 40
24.838064
 40
24.838064
 40
24.838064
 10
161.243328
 20
266.919015
 30
0.0
 10
161.133778
 20
266.217235
 30
0.0
 10
160.917928
 20
264.834491
 30
0.0
 10
159.334766
 20
263.311407
 30
0.0
 10
157.608839
 20
262.844385
 30
0.0
 10
156.219930
 20
263.029665
 30
0.0
 10
155.248675
 20
263.431539
 30
0.0
 10
154.414409
 20
264.071348
 30
0.0
 10
153.774682
 20
264.905633
 30
0.0
 10
153.372449
 20
265.876723
 30
0.0
 10
153.234845
 20
266.919015
 30
0.0
 10
153.372449
 20
267.961306
 30
0.0
 10
153.774682
 20
268.932396
 30
0.0
 10
154.414409
 20
269.766681
 30
0.0
 10
155.248675
 20
270.406490
 30
0.0
 10
156.219930
 20
270.808364
 30
0.0
 10
157.608839
 20
270.993644
 30
0.0
 10
159.334766
 20
270.526622
 30
0.0
 10
160.917928
 20
269.003538
 30
0.0
 10
161.133778
 20
267.620794
 30
0.0
 10
161.243328
 20
266.919015
 30
0.0
 11
161.243328
 21
266.919015
 31
0.0
 11
160.699771
 21
264.909607
 31
0.0
 11
159.271496
 21
263.481331
 31
0.0
 11
157.262088
 21
262.937775
 31
0.0
 11
156.228862
 21
263.074173
 31
0.0
 11
155.273972
 21
263.469700
 31
0.0
 11
154.446922
 21
264.103851
 31
0.0
 11
153.812769
 21
264.930900
 31
0.0
 11
153.417240
 21
265.885789
 31
0.0
 11
153.280840
 21
266.919015
 31
0.0
 11
153.417240
 21
267.952240
 31
0.0
 11
153.812769
 21
268.907129
 31
0.0
 11
154.446922
 21
269.734179
 31
0.0
 11
155.273972
 21
270.368329
 31
0.0
 11
156.228862
 21
270.763856
 31
0.0
 11
157.262088
 21
270.900255
 31
0.0
 11
159.271496
 21
270.356698
 31
0.0
 11
160.699771
 21
268.928422
 31
0.0
 11
161.243328
 21
266.919015
 31
0.0
  0
LWPOLYLINE
  5
137
100
AcDbEntity
  8
Layer_1
 62
5
100
AcDbPolyline
 90
2
 70
1
 10
161.243328
 20
266.919015
 30
0.0
 10
161.243328
 20
266.919015
 30
0.0
  0
SPLINE
  5
138
100
AcDbEntity
  8
Layer_1
 62
5
100
AcDbSpline
 70
0
 71
3
 72
25
 73
21
 74
19
 40
0.000000
 40
0.000000
 40
0.000000
 40
0.000000
 40
2.081627
 40
4.101514
 40
6.183142
 40
7.225332
 40
8.258897
 40
9.301087
 40
10.343277
 40
11.376842
 40
12.419032
 40
13.461222
 40
14.494787
 40
15.536977
 40
16.579167
 40
17.612732
 40
18.654922
 40
20.736549
 40
22.756436
 40
24.838064
 40
24.838064
 40
24.838064
 40
24.838064
 10
161.243328
 20
353.319015
 30
0.0
 10
161.133778
 20
352.617235
 30
0.0
 10
160.917928
 20
351.234491
 30
0.0
 10
159.334766
 20
349.711407
 30
0.0
 10
157.608839
 20
349.244385
 30
0.0
 10
156.219930
 20
349.429665
 30
0.0
 10
155.248675
 20
349.831539
 30
0.0
 10
154.414409
 20
350.471348
 30
0.0
 10
153.774682
 20
351.305633
 30
0.0
 10
153.372449
 20
352.276723
 30
0.0
 10
153.234845
 20
353.319015
 30
0.0
 10
153.372449
 20
354.361306
 30
0.0
 10
153.774682
 20
355.332396
 30
0.0
 10
154.414409
 20
356.166681
 30
0.0
 10
155.248675
 20
356.806490
 30
0.0
 10
156.219930
 20
357.208364
 30
0.0
 10
157.608839
 20
357.393644
 30
0.0
 10
159.334766
 20
356.926622
 30
0.0
 10
160.917928
 20
355.403538
 30
0.0
 10
161.133778
 20
354.020794
 30
0.0
 10
161.243328
 20
353.319015
 30
0.0
 11
161.243328
 21
353.319015
 31
0.0
 11
160.699771
 21
351.309607
 31
0.0
 11
159.271496
 21
349.881331
 31
0.0
 11
157.262088
 21
349.337775
 31
0.0
 11
156.228862
 21
349.474173
 31
0.0
 11
155.273972
 21
349.869700
 31
0.0
 11
154.446922
 21
350.503851
 31
0.0
 11
153.812769
 21
351.330900
 31
0.0
 11
153.417240
 21
352.285789
 31
0.0
 11
153.280840
 21
353.319015
 31
0.0
 11
153.417240
 21
354.352240
 31
0.0
 11
153.812769
 21
355.307129
 31
0.0
 11
154.446922
 21
356.134179
 31
0.0
 11
155.273972
 21
356.768329
 31
0.0
 11
156.228862
 21
357.163856
 31
0.0
 11
157.262088
 21
357.300255
 31
0.0
 11
159.271496
 21
356.756698
 31
0.0
 11
160.699771
 21
355.328422
 31
0.0
 11
161.243328
 21
353.319015
 31
0.0
  0
LWPOLYLINE
  5
139
100
AcDbEntity
  8
Layer_1
 62
5
100
AcDbPolyline
 90
2
 70
1
 10
161.243328
 20
353.319015
 30
0.0
 10
161.243328
 20
353.319015
 30
0.0
  0
SPLINE
  5
13a
100
AcDbEntity
  8
Layer_1
 62
5
100
AcDbSpline
 70
0
 71
3
 72
19
 73
15
 74
13
 40
0.000000
 40
0.000000
 40
0.000000
 40
0.000000
 40
2.081627
 40
4.101514
 40
6.183142
 40
8.264769
 40
10.284656
 40
12.366284
 40
14.447911
 40
16.467798
 40
18.549426
 40
20.631053
 40
22.650940
 40
24.732567
 40
24.732567
 40
24.732567
 40
24.732567
 10
251.194272
 20
266.919015
 30
0.0
 10
251.303696
 20
266.217188
 30
0.0
 10
251.519298
 20
264.834350
 30
0.0
 10
253.104296
 20
263.311959
 30
0.0
 10
255.171858
 20
262.747866
 30
0.0
 10
257.261127
 20
263.311959
 30
0.0
 10
258.782291
 20
264.834350
 30
0.0
 10
259.346801
 20
266.919015
 30
0.0
 10
258.782291
 20
269.003679
 30
0.0
 10
257.261127
 20
270.526070
 30
0.0
 10
255.171858
 20
271.090163
 30
0.0
 10
253.104296
 20
270.526070
 30
0.0
 10
251.519298
 20
269.003679
 30
0.0
 10
251.303696
 20
267.620841
 30
0.0
 10
251.194272
 20
266.919015
 30
0.0
 11
251.194272
 21
266.919015
 31
0.0
 11
251.737829
 21
264.909607
 31
0.0
 11
253.166104
 21
263.481331
 31
0.0
 11
255.175512
 21
262.937775
 31
0.0
 11
257.184920
 21
263.481331
 31
0.0
 11
258.613195
 21
264.909607
 31
0.0
 11
259.156752
 21
266.919015
 31
0.0
 11
258.613195
 21
268.928422
 31
0.0
 11
257.184920
 21
270.356698
 31
0.0
 11
255.175512
 21
270.900255
 31
0.0
 11
253.166104
 21
270.356698
 31
0.0
 11
251.737829
 21
268.928422
 31
0.0
 11
251.194272
 21
266.919015
 31
0.0
  0
LWPOLYLINE
  5
13b
100
AcDbEntity
  8
Layer_1
 62
5
100
AcDbPolyline
 90
2
 70
1
 10
251.194272
 20
266.919015
 30
0.0
 10
251.194272
 20
266.919015
 30
0.0
  0
SPLINE
  5
13c
100
AcDbEntity
  8
Layer_1
 62
5
100
AcDbSpline
 70
0
 71
3
 72
19
 73
15
 74
13
 40
0.000000
 40
0.000000
 40
0.000000
 40
0.000000
 40
2.081627
 40
4.101514
 40
6.183142
 40
8.264769
 40
10.284656
 40
12.366284
 40
14.447911
 40
16.467798
 40
18.549426
 40
20.631053
 40
22.650940
 40
24.732567
 40
24.732567
 40
24.732567
 40
24.732567
 10
251.194272
 20
353.319015
 30
0.0
 10
251.303696
 20
352.617188
 30
0.0
 10
251.519298
 20
351.234350
 30
0.0
 10
253.104296
 20
349.711959
 30
0.0
 10
255.171858
 20
349.147866
 30
0.0
 10
257.261127
 20
349.711959
 30
0.0
 10
258.782291
 20
351.234350
 30
0.0
 10
259.346801
 20
353.319015
 30
0.0
 10
258.782291
 20
355.403679
 30
0.0
 10
257.261127
 20
356.926070
 30
0.0
 10
255.171858
 20
357.490163
 30
0.0
 10
253.104296
 20
356.926070
 30
0.0
 10
251.519298
 20
355.403679
 30
0.0
 10
251.303696
 20
354.020841
 30
0.0
 10
251.194272
 20
353.319015
 30
0.0
 11
251.194272
 21
353.319015
 31
0.0
 11
251.737829
 21
351.309607
 31
0.0
 11
253.166104
 21
349.881331
 31
0.0
 11
255.175512
 21
349.337775
 31
0.0
 11
257.184920
 21
349.881331
 31
0.0
 11
258.613195
 21
351.309607
 31
0.0
 11
259.156752
 21
353.319015
 31
0.0
 11
258.613195
 21
355.328422
 31
0.0
 11
257.184920
 21
356.756698
 31
0.0
 11
255.175512
 21
357.300255
 31
0.0
 11
253.166104
 21
356.756698
 31
0.0
 11
251.737829
 21
355.328422
 31
0.0
 11
251.194272
 21
353.319015
 31
0.0
  0
LWPOLYLINE
  5
13d
100
AcDbEntity
  8
Layer_1
 62
5
100
AcDbPolyline
 90
2
 70
1
 10
251.194272
 20
353.319015
 30
0.0
 10
251.194272
 20
353.319015
 30
0.0
  0
SPLINE
  5
13e
100
AcDbEntity
  8
Layer_1
 62
5
100
AcDbSpline
 70
0
 71
3
 72
25
 73
21
 74
19
 40
0.000000
 40
0.000000
 40
0.000000
 40
0.000000
 40
2.081627
 40
4.101514
 40
6.183142
 40
7.225332
 40
8.258897
 40
9.301087
 40
10.343277
 40
11.376842
 40
12.419032
 40
13.461222
 40
14.494787
 40
15.536977
 40
16.579167
 40
17.612732
 40
18.654922
 40
20.736549
 40
22.756436
 40
24.838064
 40
24.838064
 40
24.838064
 40
24.838064
 10
433.243328
 20
266.919015
 30
0.0
 10
433.133778
 20
266.217235
 30
0.0
 10
432.917928
 20
264.834491
 30
0.0
 10
431.334766
 20
263.311407
 30
0.0
 10
429.608839
 20
262.844385
 30
0.0
 10
428.219930
 20
263.029665
 30
0.0
 10
427.248675
 20
263.431539
 30
0.0
 10
426.414409
 20
264.071348
 30
0.0
 10
425.774682
 20
264.905633
 30
0.0
 10
425.372449
 20
265.876723
 30
0.0
 10
425.234845
 20
266.919015
 30
0.0
 10
425.372449
 20
267.961306
 30
0.0
 10
425.774682
 20
268.932396
 30
0.0
 10
426.414409
 20
269.766681
 30
0.0
 10
427.248675
 20
270.406490
 30
0.0
 10
428.219930
 20
270.808364
 30
0.0
 10
429.608839
 20
270.993644
 30
0.0
 10
431.334766
 20
270.526622
 30
0.0
 10
432.917928
 20
269.003538
 30
0.0
 10
433.133778
 20
267.620794
 30
0.0
 10
433.243328
 20
266.919015
 30
0.0
 11
433.243328
 21
266.919015
 31
0.0
 11
432.699771
 21
264.909607
 31
0.0
 11
431.271496
 21
263.481331
 31
0.0
 11
429.262088
 21
262.937775
 31
0.0
 11
428.228862
 21
263.074173
 31
0.0
 11
427.273972
 21
263.469700
 31
0.0
 11
426.446922
 21
264.103851
 31
0.0
 11
425.812769
 21
264.930900
 31
0.0
 11
425.417240
 21
265.885789
 31
0.0
 11
425.280840
 21
266.919015
 31
0.0
 11
425.417240
 21
267.952240
 31
0.0
 11
425.812769
 21
268.907129
 31
0.0
 11
426.446922
 21
269.734179
 31
0.0
 11
427.273972
 21
270.368329
 31
0.0
 11
428.228862
 21
270.763856
 31
0.0
 11
429.262088
 21
270.900255
 31
0.0
 11
431.271496
 21
270.356698
 31
0.0
 11
432.699771
 21
268.928422
 31
0.0
 11
433.243328
 21
266.919015
 31
0.0
  0
LWPOLYLINE
  5
13f
100
AcDbEntity
  8
Layer_1
 62
5
100
AcDbPolyline
 90
2
 70
1
 10
433.243328
 20
266.919015
 30
0.0
 10
433.243328
 20
266.919015
 30
0.0
  0
SPLINE
  5
140
100
AcDbEntity
  8
Layer_1
 62
5
100
AcDbSpline
 70
0
 71
3
 72
25
 73
21
 74
19
 40
0.000000
 40
0.000000
 40
0.000000
 40
0.000000
 40
2.081627
 40
4.101514
 40
6.183142
 40
7.225332
 40
8.258897
 40
9.301087
 40
10.343277
 40
11.376842
 40
12.419032
 40
13.461222
 40
14.494787
 40
15.536977
 40
16.579167
 40
17.612732
 40
18.654922
 40
20.736549
 40
22.756436
 40
24.838064
 40
24.838064
 40
24.838064
 40
24.838064
 10
433.243328
 20
353.319015
 30
0.0
 10
433.133778
 20
352.617235
 30
0.0
 10
432.917928
 20
351.234491
 30
0.0
 10
431.334766
 20
349.711407
 30
0.0
 10
429.608839
 20
349.244385
 30
0.0
 10
428.219930
 20
349.429665
 30
0.0
 10
427.248675
 20
349.831539
 30
0.0
 10
426.414409
 20
350.471348
 30
0.0
 10
425.774682
 20
351.305633
 30
0.0
 10
425.372449
 20
352.276723
 30
0.0
 10
425.234845
 20
353.319015
 30
0.0
 10
425.372449
 20
354.361306
 30
0.0
 10
425.774682
 20
355.332396
 30
0.0
 10
426.414409
 20
356.166681
 30
0.0
 10
427.248675
 20
356.806490
 30
0.0
 10
428.219930
 20
357.208364
 30
0.0
 10
429.608839
 20
357.393644
 30
0.0
 10
431.334766
 20
356.926622
 30
0.0
 10
432.917928
 20
355.403538
 30
0.0
 10
433.133778
 20
354.020794
 30
0.0
 10
433.243328
 20
353.319015
 30
0.0
 11
433.243328
 21
353.319015
 31
0.0
 11
432.699771
 21
351.309607
 31
0.0
 11
431.271496
 21
349.881331
 31
0.0
 11
429.262088
 21
349.337775
 31
0.0
 11
428.228862
 21
349.474173
 31
0.0
 11
427.273972
 21
349.869700
 31
0.0
 11
426.446922
 21
350.503851
 31
0.0
 11
425.812769
 21
351.330900
 31
0.0
 11
425.417240
 21
352.285789
 31
0.0
 11
425.280840
 21
353.319015
 31
0.0
 11
425.417240
 21
354.352240
 31
0.0
 11
425.812769
 21
355.307129
 31
0.0
 11
426.446922
 21
356.134179
 31
0.0
 11
427.273972
 21
356.768329
 31
0.0
 11
428.228862
 21
357.163856
 31
0.0
 11
429.262088
 21
357.300255
 31
0.0
 11
431.271496
 21
356.756698
 31
0.0
 11
432.699771
 21
355.328422
 31
0.0
 11
433.243328
 21
353.319015
 31
0.0
  0
LWPOLYLINE
  5
141
100
AcDbEntity
  8
Layer_1
 62
5
100
AcDbPolyline
 90
2
 70
1
 10
433.243328
 20
353.319015
 30
0.0
 10
433.243328
 20
353.319015
 30
0.0
  0
SPLINE
  5
142
100
AcDbEntity
  8
Layer_1
 62
5
100
AcDbSpline
 70
0
 71
3
 72
19
 73
15
 74
13
 40
0.000000
 40
0.000000
 40
0.000000
 40
0.000000
 40
2.081627
 40
4.101514
 40
6.183142
 40
8.264769
 40
10.284656
 40
12.366284
 40
14.447911
 40
16.467798
 40
18.549426
 40
20.631053
 40
22.650940
 40
24.732567
 40
24.732567
 40
24.732567
 40
24.732567
 10
523.194272
 20
266.919015
 30
0.0
 10
523.303696
 20
266.217188
 30
0.0
 10
523.519298
 20
264.834350
 30
0.0
 10
525.104296
 20
263.311959
 30
0.0
 10
527.171858
 20
262.747866
 30
0.0
 10
529.261127
 20
263.311959
 30
0.0
 10
530.782291
 20
264.834350
 30
0.0
 10
531.346801
 20
266.919015
 30
0.0
 10
530.782291
 20
269.003679
 30
0.0
 10
529.261127
 20
270.526070
 30
0.0
 10
527.171858
 20
271.090163
 30
0.0
 10
525.104296
 20
270.526070
 30
0.0
 10
523.519298
 20
269.003679
 30
0.0
 10
523.303696
 20
267.620841
 30
0.0
 10
523.194272
 20
266.919015
 30
0.0
 11
523.194272
 21
266.919015
 31
0.0
 11
523.737829
 21
264.909607
 31
0.0
 11
525.166104
 21
263.481331
 31
0.0
 11
527.175512
 21
262.937775
 31
0.0
 11
529.184920
 21
263.481331
 31
0.0
 11
530.613195
 21
264.909607
 31
0.0
 11
531.156752
 21
266.919015
 31
0.0
 11
530.613195
 21
268.928422
 31
0.0
 11
529.184920
 21
270.356698
 31
0.0
 11
527.175512
 21
270.900255
 31
0.0
 11
525.166104
 21
270.356698
 31
0.0
 11
523.737829
 21
268.928422
 31
0.0
 11
523.194272
 21
266.919015
 31
0.0
  0
LWPOLYLINE
  5
143
100
AcDbEntity
  8
Layer_1
 62
5
100
AcDbPolyline
 90
2
 70
1
 10
523.194272
 20
266.919015
 30
0.0
 10
523.194272
 20
266.919015
 30
0.0
  0
SPLINE
  5
144
100
AcDbEntity
  8
Layer_1
 62
5
100
AcDbSpline
 70
0
 71
3
 72
19
 73
15
 74
13
 40
0.000000
 40
0.000000
 40
0.000000
 40
0.000000
 40
2.081627
 40
4.101514
 40
6.183142
 40
8.264769
 40
10.284656
 40
12.366284
 40
14.447911
 40
16.467798
 40
18.549426
 40
20.631053
 40
22.650940
 40
24.732567
 40
24.732567
 40
24.732567
 40
24.732567
 10
523.194272
 20
353.319015
 30
0.0
 10
523.303696
 20
352.617188
 30
0.0
 10
523.519298
 20
351.234350
 30
0.0
 10
525.104296
 20
349.711959
 30
0.0
 10
527.171858
 20
349.147866
 30
0.0
 10
529.261127
 20
349.711959
 30
0.0
 10
530.782291
 20
351.234350
 30
0.0
 10
531.346801
 20
353.319015
 30
0.0
 10
530.782291
 20
355.403679
 30
0.0
 10
529.261127
 20
356.926070
 30
0.0
 10
527.171858
 20
357.490163
 30
0.0
 10
525.104296
 20
356.926070
 30
0.0
 10
523.519298
 20
355.403679
 30
0.0
 10
523.303696
 20
354.020841
 30
0.0
 10
523.194272
 20
353.319015
 30
0.0
 11
523.194272
 21
353.319015
 31
0.0
 11
523.737829
 21
351.309607
 31
0.0
 11
525.166104
 21
349.881331
 31
0.0
 11
527.175512
 21
349.337775
 31
0.0
 11
529.184920
 21
349.881331
 31
0.0
 11
530.613195
 21
351.309607
 31
0.0
 11
531.156752
 21
353.319015
 31
0.0
 11
530.613195
 21
355.328422
 31
0.0
 11
529.184920
 21
356.756698
 31
0.0
 11
527.175512
 21
357.300255
 31
0.0
 11
525.166104
 21
356.756698
 31
0.0
 11
523.737829
 21
355.328422
 31
0.0
 11
523.194272
 21
353.319015
 31
0.0
  0
LWPOLYLINE
  5
145
100
AcDbEntity
  8
Layer_1
 62
5
100
AcDbPolyline
 90
2
 70
1
 10
523.194272
 20
353.319015
 30
0.0
 10
523.194272
 20
353.319015
 30
0.0
  0
ENDSEC
  0
SECTION
  2
OBJECTS
  0
DICTIONARY
  5
C
330
0
100
AcDbDictionary
  3
ACAD_GROUP
350
D
  3
ACAD_MLINESTYLE
350
17
  0
DICTIONARY
  5
D
330
C
100
AcDbDictionary
  0
DICTIONARY
  5
1A
330
C
100
AcDbDictionary
  0
DICTIONARY
  5
17
330
C
100
AcDbDictionary
  3
STANDARD
350
18
  0
DICTIONARY
  5
19
330
C
100
AcDbDictionary
  0
ENDSEC
  0
EOF
