  0
SECTION
  2
HEADER
  9
$ACADVER
  1
AC1014
  9
$ACADMAINTVER
 70
     9
  9
$DWGCODEPAGE
  3
MAC-ROMAN
  9
$INSBASE
 10
0.0
 20
0.0
 30
0.0
  9
$EXTMIN
 10
1.000000000000000E+20
 20
1.000000000000000E+20
 30
1.000000000000000E+20
  9
$EXTMAX
 10
-1.000000000000000E+20
 20
-1.000000000000000E+20
 30
-1.000000000000000E+20
  9
$LIMMIN
 10
0.0
 20
0.0
  9
$LIMMAX
 10
12.0
 20
9.0
  9
$ORTHOMODE
 70
     0
  9
$REGENMODE
 70
     1
  9
$FILLMODE
 70
     1
  9
$QTEXTMODE
 70
     0
  9
$MIRRTEXT
 70
     1
  9
$DRAGMODE
 70
     2
  9
$LTSCALE
 40
1.0
  9
$OSMODE
 70
    37
  9
$ATTMODE
 70
     1
  9
$TEXTSIZE
 40
0.2
  9
$TRACEWID
 40
0.05
  9
$TEXTSTYLE
  7
STANDARD
  9
$CLAYER
  8
0
  9
$CELTYPE
  6
BYLAYER
  9
$CECOLOR
 62
   256
  9
$CELTSCALE
 40
1.0
  9
$DELOBJ
 70
     1
  9
$DISPSILH
 70
     0
  9
$DIMSCALE
 40
1.0
  9
$DIMASZ
 40
0.18
  9
$DIMEXO
 40
0.0625
  9
$DIMDLI
 40
0.38
  9
$DIMRND
 40
0.0
  9
$DIMDLE
 40
0.0
  9
$DIMEXE
 40
0.18
  9
$DIMTP
 40
0.0
  9
$DIMTM
 40
0.0
  9
$DIMTXT
 40
0.18
  9
$DIMCEN
 40
0.09
  9
$DIMTSZ
 40
0.0
  9
$DIMTOL
 70
     0
  9
$DIMLIM
 70
     0
  9
$DIMTIH
 70
     1
  9
$DIMTOH
 70
     1
  9
$DIMSE1
 70
     0
  9
$DIMSE2
 70
     0
  9
$DIMTAD
 70
     0
  9
$DIMZIN
 70
     0
  9
$DIMBLK
  1

  9
$DIMASO
 70
     1
  9
$DIMSHO
 70
     1
  9
$DIMPOST
  1

  9
$DIMAPOST
  1

  9
$DIMALT
 70
     0
  9
$DIMALTD
 70
     2
  9
$DIMALTF
 40
25.4
  9
$DIMLFAC
 40
1.0
  9
$DIMTOFL
 70
     0
  9
$DIMTVP
 40
0.0
  9
$DIMTIX
 70
     0
  9
$DIMSOXD
 70
     0
  9
$DIMSAH
 70
     0
  9
$DIMBLK1
  1

  9
$DIMBLK2
  1

  9
$DIMSTYLE
  2
STANDARD
  9
$DIMCLRD
 70
     0
  9
$DIMCLRE
 70
     0
  9
$DIMCLRT
 70
     0
  9
$DIMTFAC
 40
1.0
  9
$DIMGAP
 40
0.09
  9
$DIMJUST
 70
     0
  9
$DIMSD1
 70
     0
  9
$DIMSD2
 70
     0
  9
$DIMTOLJ
 70
     1
  9
$DIMTZIN
 70
     0
  9
$DIMALTZ
 70
     0
  9
$DIMALTTZ
 70
     0
  9
$DIMFIT
 70
     3
  9
$DIMUPT
 70
     0
  9
$DIMUNIT
 70
     2
  9
$DIMDEC
 70
     4
  9
$DIMTDEC
 70
     4
  9
$DIMALTU
 70
     2
  9
$DIMALTTD
 70
     2
  9
$DIMTXSTY
  7
STANDARD
  9
$DIMAUNIT
 70
     0
  9
$LUNITS
 70
     2
  9
$LUPREC
 70
     4
  9
$SKETCHINC
 40
0.1
  9
$FILLETRAD
 40
0.5
  9
$AUNITS
 70
     0
  9
$AUPREC
 70
     0
  9
$MENU
  1
.
  9
$ELEVATION
 40
0.0
  9
$PELEVATION
 40
0.0
  9
$THICKNESS
 40
0.0
  9
$LIMCHECK
 70
     0
  9
$CHAMFERA
 40
0.0
  9
$CHAMFERB
 40
0.0
  9
$CHAMFERC
 40
0.0
  9
$CHAMFERD
 40
0.0
  9
$SKPOLY
 70
     0
  9
$TDCREATE
 40
2457218.370949063
  9
$TDUPDATE
 40
2457218.370949063
  9
$TDINDWG
 40
0.0000000116
  9
$TDUSRTIMER
 40
0.0000000116
  9
$USRTIMER
 70
     1
  9
$ANGBASE
 50
0.0
  9
$ANGDIR
 70
     0
  9
$PDMODE
 70
     0
  9
$PDSIZE
 40
0.0
  9
$PLINEWID
 40
0.0
  9
$COORDS
 70
     1
  9
$SPLFRAME
 70
     0
  9
$SPLINETYPE
 70
     6
  9
$SPLINESEGS
 70
     8
  9
$ATTDIA
 70
     0
  9
$ATTREQ
 70
     1
  9
$HANDLING
 70
     1
  9
$HANDSEED
  5
204
  9
$SURFTAB1
 70
     6
  9
$SURFTAB2
 70
     6
  9
$SURFTYPE
 70
     6
  9
$SURFU
 70
     6
  9
$SURFV
 70
     6
  9
$UCSNAME
  2

  9
$UCSORG
 10
0.0
 20
0.0
 30
0.0
  9
$UCSXDIR
 10
1.0
 20
0.0
 30
0.0
  9
$UCSYDIR
 10
0.0
 20
1.0
 30
0.0
  9
$PUCSNAME
  2

  9
$PUCSORG
 10
0.0
 20
0.0
 30
0.0
  9
$PUCSXDIR
 10
1.0
 20
0.0
 30
0.0
  9
$PUCSYDIR
 10
0.0
 20
1.0
 30
0.0
  9
$USERI1
 70
     0
  9
$USERI2
 70
     0
  9
$USERI3
 70
     0
  9
$USERI4
 70
     0
  9
$USERI5
 70
     0
  9
$USERR1
 40
0.0
  9
$USERR2
 40
0.0
  9
$USERR3
 40
0.0
  9
$USERR4
 40
0.0
  9
$USERR5
 40
0.0
  9
$WORLDVIEW
 70
     1
  9
$SHADEDGE
 70
     3
  9
$SHADEDIF
 70
    70
  9
$TILEMODE
 70
     1
  9
$MAXACTVP
 70
    64
  9
$PINSBASE
 10
0.0
 20
0.0
 30
0.0
  9
$PLIMCHECK
 70
     0
  9
$PEXTMIN
 10
1.000000000000000E+20
 20
1.000000000000000E+20
 30
1.000000000000000E+20
  9
$PEXTMAX
 10
-1.000000000000000E+20
 20
-1.000000000000000E+20
 30
-1.000000000000000E+20
  9
$PLIMMIN
 10
0.0
 20
0.0
  9
$PLIMMAX
 10
12.0
 20
9.0
  9
$UNITMODE
 70
     0
  9
$VISRETAIN
 70
     1
  9
$PLINEGEN
 70
     0
  9
$PSLTSCALE
 70
     1
  9
$TREEDEPTH
 70
  3020
  9
$PICKSTYLE
 70
     1
  9
$CMLSTYLE
  2
STANDARD
  9
$CMLJUST
 70
     0
  9
$CMLSCALE
 40
1.0
  9
$PROXYGRAPHICS
 70
     1
  9
$MEASUREMENT
 70
     0
  0
ENDSEC
  0
SECTION
  2
CLASSES
  0
CLASS
  1
ACDBDICTIONARYWDFLT
  2
AcDbDictionaryWithDefault
  3
ObjectDBX Classes
 90
        0
280
     0
281
     0
  0
CLASS
  1
VISUALSTYLE
  2
AcDbVisualStyle
  3
ObjectDBX Classes
 90
     4095
280
     0
281
     0
  0
CLASS
  1
MATERIAL
  2
AcDbMaterial
  3
ObjectDBX Classes
 90
     1153
280
     0
281
     0
  0
CLASS
  1
SCALE
  2
AcDbScale
  3
ObjectDBX Classes
 90
     1153
280
     0
281
     0
  0
CLASS
  1
SUN
  2
AcDbSun
  3
SCENEOE
 90
     1153
280
     0
281
     0
  0
CLASS
  1
DICTIONARYVAR
  2
AcDbDictionaryVar
  3
ObjectDBX Classes
 90
        0
280
     0
281
     0
  0
CLASS
  1
XRECORD
  2
AcDbXrecord
  3
ObjectDBX Classes
 90
        0
280
     0
281
     0
  0
CLASS
  1
LWPOLYLINE
  2
AcDbPolyline
  3
ObjectDBX Classes
 90
        0
280
     0
281
     1
  0
CLASS
  1
HATCH
  2
AcDbHatch
  3
ObjectDBX Classes
 90
        0
280
     0
281
     1
  0
CLASS
  1
ACDBPLACEHOLDER
  2
AcDbPlaceHolder
  3
ObjectDBX Classes
 90
        0
280
     0
281
     0
  0
CLASS
  1
LAYOUT
  2
AcDbLayout
  3
ObjectDBX Classes
 90
        0
280
     0
281
     0
  0
ENDSEC
  0
SECTION
  2
TABLES
  0
TABLE
  2
VPORT
  5
8
102
{ACAD_XDICTIONARY
360
1FA
102
}
330
0
100
AcDbSymbolTable
 70
     1
  0
VPORT
  5
29
330
8
100
AcDbSymbolTableRecord
100
AcDbViewportTableRecord
  2
*ACTIVE
 70
     0
 10
0.0
 20
0.0
 11
1.0
 21
1.0
 12
0.0
 22
0.0
 13
0.0
 23
0.0
 14
0.5
 24
0.5
 15
0.5
 25
0.5
 16
0.0
 26
0.0
 36
1.0
 17
0.0
 27
0.0
 37
-1000.0
 40
20.20804948689523
 41
2.027455121436113
 42
50.0
 43
32.04587235926774
 44
40.55941130868796
 50
0.0
 51
0.0
 71
     0
 72
   100
 73
     1
 74
     3
 75
     0
 76
     0
 77
     0
 78
     0
  0
ENDTAB
  0
TABLE
  2
LTYPE
  5
5
330
0
100
AcDbSymbolTable
 70
     1
  0
LTYPE
  5
14
330
5
100
AcDbSymbolTableRecord
100
AcDbLinetypeTableRecord
  2
BYBLOCK
 70
     0
  3

 72
    65
 73
     0
 40
0.0
  0
LTYPE
  5
15
330
5
100
AcDbSymbolTableRecord
100
AcDbLinetypeTableRecord
  2
BYLAYER
 70
     0
  3

 72
    65
 73
     0
 40
0.0
  0
LTYPE
  5
16
330
5
100
AcDbSymbolTableRecord
100
AcDbLinetypeTableRecord
  2
CONTINUOUS
 70
     0
  3
Solid line
 72
    65
 73
     0
 40
0.0
  0
ENDTAB
  0
TABLE
  2
LAYER
  5
2
330
0
100
AcDbSymbolTable
 70
     3
  0
LAYER
  5
10
330
2
100
AcDbSymbolTableRecord
100
AcDbLayerTableRecord
  2
0
 70
     0
 62
     7
  6
CONTINUOUS
  0
LAYER
  5
6A
330
2
100
AcDbSymbolTableRecord
100
AcDbLayerTableRecord
  2
PROFILEEDGES
 70
     0
 62
     7
  6
CONTINUOUS
  0
LAYER
  5
6B
330
2
100
AcDbSymbolTableRecord
100
AcDbLayerTableRecord
  2
SECTIONCUTEDGES
 70
     0
 62
     7
  6
CONTINUOUS
  0
ENDTAB
  0
TABLE
  2
STYLE
  5
3
330
0
100
AcDbSymbolTable
 70
     2
  0
STYLE
  5
11
330
3
100
AcDbSymbolTableRecord
100
AcDbTextStyleTableRecord
  2
STANDARD
 70
     0
 40
0.0
 41
1.0
 50
0.0
 71
     0
 42
0.2
  3
txt
  4

  0
STYLE
  5
1D1
330
3
100
AcDbSymbolTableRecord
100
AcDbTextStyleTableRecord
  2
TAHOMA
 70
     0
 40
0.0
 41
1.0
 50
0.0
 71
     0
 42
0.2
  3
Tahoma
  4

1001
ACAD
1000
Tahoma
1071
       34
  0
ENDTAB
  0
TABLE
  2
VIEW
  5
6
330
0
100
AcDbSymbolTable
 70
     0
  0
ENDTAB
  0
TABLE
  2
UCS
  5
7
330
0
100
AcDbSymbolTable
 70
     0
  0
ENDTAB
  0
TABLE
  2
APPID
  5
9
330
0
100
AcDbSymbolTable
 70
     1
  0
APPID
  5
12
330
9
100
AcDbSymbolTableRecord
100
AcDbRegAppTableRecord
  2
ACAD
 70
     0
  0
ENDTAB
  0
TABLE
  2
DIMSTYLE
  5
A
330
0
100
AcDbSymbolTable
 70
     1
  0
DIMSTYLE
105
27
330
A
100
AcDbSymbolTableRecord
100
AcDbDimStyleTableRecord
  2
STANDARD
 70
     0
  3

  4

  5

  6

  7

 40
1.0
 41
0.18
 42
0.0625
 43
0.38
 44
0.18
 45
0.0
 46
0.0
 47
0.0
 48
0.0
140
0.18
141
0.09
142
0.0
143
25.4
144
1.0
145
0.0
146
1.0
147
0.09
 71
     0
 72
     0
 73
     1
 74
     1
 75
     0
 76
     0
 77
     0
 78
     0
170
     0
171
     2
172
     0
173
     0
174
     0
175
     0
176
     0
177
     0
178
     0
270
     2
271
     4
272
     4
273
     2
274
     2
340
11
275
     0
280
     0
281
     0
282
     0
283
     1
284
     0
285
     0
286
     0
287
     3
288
     0
  0
ENDTAB
  0
TABLE
  2
BLOCK_RECORD
  5
1
330
0
100
AcDbSymbolTable
 70
     1
  0
BLOCK_RECORD
  5
1F
330
1
100
AcDbSymbolTableRecord
100
AcDbBlockTableRecord
  2
*MODEL_SPACE
  0
BLOCK_RECORD
  5
1B
330
1
100
AcDbSymbolTableRecord
100
AcDbBlockTableRecord
  2
*PAPER_SPACE
  0
ENDTAB
  0
ENDSEC
  0
SECTION
  2
BLOCKS
  0
BLOCK
  5
20
330
1F
100
AcDbEntity
  8
0
100
AcDbBlockBegin
  2
*MODEL_SPACE
 70
     0
 10
0.0
 20
0.0
 30
0.0
  3
*MODEL_SPACE
  1

  0
ENDBLK
  5
21
330
1F
100
AcDbEntity
  8
0
100
AcDbBlockEnd
  0
BLOCK
  5
1C
330
1B
100
AcDbEntity
 67
     1
  8
0
100
AcDbBlockBegin
  2
*PAPER_SPACE
 70
     0
 10
0.0
 20
0.0
 30
0.0
  3
*PAPER_SPACE
  1

  0
ENDBLK
  5
1D
330
1B
100
AcDbEntity
 67
     1
  8
0
100
AcDbBlockEnd
  0
ENDSEC
  0
SECTION
  2
ENTITIES
  0
LINE
  5
6C
330
1F
100
AcDbEntity
  8
0
100
AcDbLine
 10
-5.404716792404562
 20
4.154394268854467
 30
0.0
 11
-3.172616993927632
 21
4.154394268854467
 31
0.0
  0
LINE
  5
6D
330
1F
100
AcDbEntity
  8
0
100
AcDbLine
 10
-2.352907374144026
 20
3.12785512997918
 30
0.0
 11
-2.352907374144026
 21
2.834375341660931
 31
0.0
  0
LINE
  5
6E
330
1F
100
AcDbEntity
  8
0
100
AcDbLine
 10
-1.751648735659852
 20
2.33595350856108
 30
0.0
 11
0.8483341777511617
 21
2.33595350856108
 31
0.0
  0
LINE
  5
6F
330
1F
100
AcDbEntity
  8
0
100
AcDbLine
 10
-3.172616993927632
 20
4.154394268854467
 30
0.0
 11
-3.059039956810852
 21
4.121823646044134
 31
0.0
  0
LINE
  5
70
330
1F
100
AcDbEntity
  8
0
100
AcDbLine
 10
-3.059039956810852
 20
4.121823646044134
 30
0.0
 11
-2.94982861529057
 21
4.07672961413521
 31
0.0
  0
LINE
  5
71
330
1F
100
AcDbEntity
  8
0
100
AcDbLine
 10
-2.94982861529057
 20
4.07672961413521
 30
0.0
 11
-2.846358966982182
 21
4.019680330972195
 31
0.0
  0
LINE
  5
72
330
1F
100
AcDbEntity
  8
0
100
AcDbLine
 10
-2.846358966982182
 20
4.019680330972195
 30
0.0
 11
-2.749934667599349
 21
3.951394583418179
 31
0.0
  0
LINE
  5
73
330
1F
100
AcDbEntity
  8
0
100
AcDbLine
 10
-2.749934667599349
 20
3.951394583418179
 30
0.0
 11
-2.661770605670987
 21
3.872732731070523
 31
0.0
  0
LINE
  5
74
330
1F
100
AcDbEntity
  8
0
100
AcDbLine
 10
-2.661770605670987
 20
3.872732731070523
 30
0.0
 11
-2.582977595672047
 21
3.784685866244052
 31
0.0
  0
LINE
  5
75
330
1F
100
AcDbEntity
  8
0
100
AcDbLine
 10
-2.582977595672047
 20
3.784685866244052
 30
0.0
 11
-2.51454838242508
 21
3.68836332680026
 31
0.0
  0
LINE
  5
76
330
1F
100
AcDbEntity
  8
0
100
AcDbLine
 10
-2.51454838242508
 20
3.68836332680026
 30
0.0
 11
-2.457345133109747
 21
3.584978719153669
 31
0.0
  0
LINE
  5
77
330
1F
100
AcDbEntity
  8
0
100
AcDbLine
 10
-2.457345133109747
 20
3.584978719153669
 30
0.0
 11
-2.412088574470489
 21
3.47583462755636
 31
0.0
  0
LINE
  5
78
330
1F
100
AcDbEntity
  8
0
100
AcDbLine
 10
-2.412088574470489
 20
3.47583462755636
 30
0.0
 11
-2.379348912091434
 21
3.362306202314966
 31
0.0
  0
LINE
  5
79
330
1F
100
AcDbEntity
  8
0
100
AcDbLine
 10
-2.379348912091434
 20
3.362306202314966
 30
0.0
 11
-2.359538646146578
 21
3.245823833719234
 31
0.0
  0
LINE
  5
7A
330
1F
100
AcDbEntity
  8
0
100
AcDbLine
 10
-2.359538646146578
 20
3.245823833719234
 30
0.0
 11
-2.352907374144026
 21
3.12785512997918
 31
0.0
  0
LINE
  5
7B
330
1F
100
AcDbEntity
  8
0
100
AcDbLine
 10
-2.352907374144026
 20
2.834375341660931
 30
0.0
 11
-2.347478516405031
 21
2.760363606351527
 31
0.0
  0
LINE
  5
7C
330
1F
100
AcDbEntity
  8
0
100
AcDbLine
 10
-2.347478516405031
 20
2.760363606351527
 30
0.0
 11
-2.331308155938995
 21
2.687936201992006
 31
0.0
  0
LINE
  5
7D
330
1F
100
AcDbEntity
  8
0
100
AcDbLine
 10
-2.331308155938995
 20
2.687936201992006
 30
0.0
 11
-2.304742443291287
 21
2.618643544578777
 31
0.0
  0
LINE
  5
7E
330
1F
100
AcDbEntity
  8
0
100
AcDbLine
 10
-2.304742443291287
 20
2.618643544578777
 30
0.0
 11
-2.268350056936777
 21
2.553968946201298
 31
0.0
  0
LINE
  5
7F
330
1F
100
AcDbEntity
  8
0
100
AcDbLine
 10
-2.268350056936777
 20
2.553968946201298
 30
0.0
 11
-2.222910029873395
 21
2.495296862546892
 31
0.0
  0
LINE
  5
80
330
1F
100
AcDbEntity
  8
0
100
AcDbLine
 10
-2.222910029873395
 20
2.495296862546892
 30
0.0
 11
-2.169395073265775
 21
2.443883256573914
 31
0.0
  0
LINE
  5
81
330
1F
100
AcDbEntity
  8
0
100
AcDbLine
 10
-2.169395073265775
 20
2.443883256573914
 30
0.0
 11
-2.108950754119908
 21
2.400828712761983
 31
0.0
  0
LINE
  5
82
330
1F
100
AcDbEntity
  8
0
100
AcDbLine
 10
-2.108950754119908
 20
2.400828712761983
 30
0.0
 11
-2.042870972722931
 21
2.367054877468947
 31
0.0
  0
LINE
  5
83
330
1F
100
AcDbEntity
  8
0
100
AcDbLine
 10
-2.042870972722931
 20
2.367054877468947
 30
0.0
 11
-1.972570264788655
 21
2.343284729724216
 31
0.0
  0
LINE
  5
84
330
1F
100
AcDbEntity
  8
0
100
AcDbLine
 10
-1.972570264788655
 20
2.343284729724216
 30
0.0
 11
-1.899553521222806
 21
2.330027104790168
 31
0.0
  0
LINE
  5
85
330
1F
100
AcDbEntity
  8
0
100
AcDbLine
 10
-1.899553521222806
 20
2.330027104790168
 30
0.0
 11
-1.82538377370128
 21
2.327565801788899
 31
0.0
  0
LINE
  5
86
330
1F
100
AcDbEntity
  8
0
100
AcDbLine
 10
-1.82538377370128
 20
2.327565801788899
 30
0.0
 11
-1.751648735659852
 21
2.33595350856108
 31
0.0
  0
LINE
  5
87
330
1F
100
AcDbEntity
  8
0
100
AcDbLine
 10
1.35823185849177
 20
1.868406892449155
 30
0.0
 11
1.35823185849177
 21
0.9300982734598562
 31
0.0
  0
LINE
  5
88
330
1F
100
AcDbEntity
  8
0
100
AcDbLine
 10
0.8483341777511617
 20
2.33595350856108
 30
0.0
 11
0.9114757230885339
 21
2.33204376121055
 31
0.0
  0
LINE
  5
89
330
1F
100
AcDbEntity
  8
0
100
AcDbLine
 10
0.9114757230885339
 20
2.33204376121055
 30
0.0
 11
0.9736525952228825
 21
2.320374252073032
 31
0.0
  0
LINE
  5
8A
330
1F
100
AcDbEntity
  8
0
100
AcDbLine
 10
0.9736525952228825
 20
2.320374252073032
 30
0.0
 11
1.033914859177914
 21
2.301123267294247
 31
0.0
  0
LINE
  5
8B
330
1F
100
AcDbEntity
  8
0
100
AcDbLine
 10
1.033914859177914
 20
2.301123267294247
 30
0.0
 11
1.091341831259702
 21
2.274584922405364
 31
0.0
  0
LINE
  5
8C
330
1F
100
AcDbEntity
  8
0
100
AcDbLine
 10
1.091341831259702
 20
2.274584922405364
 30
0.0
 11
1.145056145214792
 21
2.241164668841432
 31
0.0
  0
LINE
  5
8D
330
1F
100
AcDbEntity
  8
0
100
AcDbLine
 10
1.145056145214792
 20
2.241164668841432
 30
0.0
 11
1.194237156584179
 21
2.201373099475461
 31
0.0
  0
LINE
  5
8E
330
1F
100
AcDbEntity
  8
0
100
AcDbLine
 10
1.194237156584179
 20
2.201373099475461
 30
0.0
 11
1.238133480467889
 21
2.155818147807822
 31
0.0
  0
LINE
  5
8F
330
1F
100
AcDbEntity
  8
0
100
AcDbLine
 10
1.238133480467889
 20
2.155818147807822
 30
0.0
 11
1.276074471141933
 21
2.105195799989915
 31
0.0
  0
LINE
  5
90
330
1F
100
AcDbEntity
  8
0
100
AcDbLine
 10
1.276074471141933
 20
2.105195799989915
 30
0.0
 11
1.3074804681501
 21
2.050279461584517
 31
0.0
  0
LINE
  5
91
330
1F
100
AcDbEntity
  8
0
100
AcDbLine
 10
1.3074804681501
 20
2.050279461584517
 30
0.0
 11
1.331871652324642
 21
1.991908141516404
 31
0.0
  0
LINE
  5
92
330
1F
100
AcDbEntity
  8
0
100
AcDbLine
 10
1.331871652324642
 20
1.991908141516404
 30
0.0
 11
1.348875376438897
 21
1.930973633738133
 31
0.0
  0
LINE
  5
93
330
1F
100
AcDbEntity
  8
0
100
AcDbLine
 10
1.348875376438897
 20
1.930973633738133
 30
0.0
 11
1.35823185849177
 21
1.868406892449155
 31
0.0
  0
LINE
  5
94
330
1F
100
AcDbEntity
  8
0
100
AcDbLine
 10
1.081978992532683
 20
0.4600558564517959
 30
0.0
 11
0.317278135647145
 21
0.4600558564517959
 31
0.0
  0
LINE
  5
95
330
1F
100
AcDbEntity
  8
0
100
AcDbLine
 10
1.35823185849177
 20
0.9300982734598562
 30
0.0
 11
1.356123606530077
 21
0.8825158068074059
 31
0.0
  0
LINE
  5
96
330
1F
100
AcDbEntity
  8
0
100
AcDbLine
 10
1.356123606530077
 20
0.8825158068074059
 30
0.0
 11
1.349815373378049
 21
0.8353062521222857
 31
0.0
  0
LINE
  5
97
330
1F
100
AcDbEntity
  8
0
100
AcDbLine
 10
1.349815373378049
 20
0.8353062521222857
 30
0.0
 11
1.339356597742807
 21
0.7888395987967622
 31
0.0
  0
LINE
  5
98
330
1F
100
AcDbEntity
  8
0
100
AcDbLine
 10
1.339356597742807
 20
0.7888395987967622
 30
0.0
 11
1.32482924684602
 21
0.7434800139773398
 31
0.0
  0
LINE
  5
99
330
1F
100
AcDbEntity
  8
0
100
AcDbLine
 10
1.32482924684602
 20
0.7434800139773398
 30
0.0
 11
1.306347174033116
 21
0.6995829885245624
 31
0.0
  0
LINE
  5
9A
330
1F
100
AcDbEntity
  8
0
100
AcDbLine
 10
1.306347174033116
 20
0.6995829885245624
 30
0.0
 11
1.284055226484446
 21
0.6574925509697688
 31
0.0
  0
LINE
  5
9B
330
1F
100
AcDbEntity
  8
0
100
AcDbLine
 10
1.284055226484446
 20
0.6574925509697688
 30
0.0
 11
1.258128110023514
 21
0.6175385713045628
 31
0.0
  0
LINE
  5
9C
330
1F
100
AcDbEntity
  8
0
100
AcDbLine
 10
1.258128110023514
 20
0.6175385713045628
 30
0.0
 11
1.228769019917015
 21
0.580034175733075
 31
0.0
  0
LINE
  5
9D
330
1F
100
AcDbEntity
  8
0
100
AcDbLine
 10
1.228769019917015
 20
0.580034175733075
 30
0.0
 11
1.196208048398985
 21
0.5452732926476991
 31
0.0
  0
LINE
  5
9E
330
1F
100
AcDbEntity
  8
0
100
AcDbLine
 10
1.196208048398985
 20
0.5452732926476991
 30
0.0
 11
1.160700381398369
 21
0.5135283490623771
 31
0.0
  0
LINE
  5
9F
330
1F
100
AcDbEntity
  8
0
100
AcDbLine
 10
1.160700381398369
 20
0.5135283490623771
 30
0.0
 11
1.122524298602633
 21
0.4850481355547256
 31
0.0
  0
LINE
  5
A0
330
1F
100
AcDbEntity
  8
0
100
AcDbLine
 10
1.122524298602633
 20
0.4850481355547256
 30
0.0
 11
1.081978992532683
 21
0.4600558564517959
 31
0.0
  0
LINE
  5
A1
330
1F
100
AcDbEntity
  8
0
100
AcDbLine
 10
0.317278135647145
 20
0.4600558564517959
 30
0.0
 11
0.1077077494189006
 21
0.4481956612044209
 31
0.0
  0
LINE
  5
A2
330
1F
100
AcDbEntity
  8
0
100
AcDbLine
 10
0.1077077494189006
 20
0.4481956612044209
 30
0.0
 11
-0.0991863969283878
 21
0.4127665316297429
 31
0.0
  0
LINE
  5
A3
330
1F
100
AcDbEntity
  8
0
100
AcDbLine
 10
-0.0991863969283878
 20
0.4127665316297429
 30
0.0
 11
-0.3007622394296202
 21
0.354220902116201
 31
0.0
  0
LINE
  5
A4
330
1F
100
AcDbEntity
  8
0
100
AcDbLine
 10
-0.3007622394296202
 20
0.354220902116201
 30
0.0
 11
-0.4944456295206477
 21
0.2733064076296795
 31
0.0
  0
LINE
  5
A5
330
1F
100
AcDbEntity
  8
0
100
AcDbLine
 10
-0.4944456295206477
 20
0.2733064076296795
 30
0.0
 11
-0.6777632062359454
 21
0.1710563363221666
 31
0.0
  0
LINE
  5
A6
330
1F
100
AcDbEntity
  8
0
100
AcDbLine
 10
-0.6777632062359454
 20
0.1710563363221666
 30
0.0
 11
-0.8483739813352357
 21
0.0487764343136581
 31
0.0
  0
LINE
  5
A7
330
1F
100
AcDbEntity
  8
0
100
AcDbLine
 10
-0.8483739813352357
 20
0.0487764343136581
 30
0.0
 11
-1.00409923401399
 21
-0.0919717688483001
 31
0.0
  0
LINE
  5
A8
330
1F
100
AcDbEntity
  8
0
100
AcDbLine
 10
-1.00409923401399
 20
-0.0919717688483001
 30
0.0
 11
-1.142950333439396
 21
-0.2493909011148025
 31
0.0
  0
LINE
  5
A9
330
1F
100
AcDbEntity
  8
0
100
AcDbLine
 10
-1.142950333439396
 20
-0.2493909011148025
 30
0.0
 11
-1.263154133813085
 21
-0.421470700600076
 31
0.0
  0
LINE
  5
AA
330
1F
100
AcDbEntity
  8
0
100
AcDbLine
 10
-1.263154133813085
 20
-0.421470700600076
 30
0.0
 11
-1.363175617663409
 21
-0.6060136868757906
 31
0.0
  0
LINE
  5
AB
330
1F
100
AcDbEntity
  8
0
100
AcDbLine
 10
-1.363175617663409
 20
-0.6060136868757906
 30
0.0
 11
-1.441737498209284
 21
-0.8006632230691103
 31
0.0
  0
LINE
  5
AC
330
1F
100
AcDbEntity
  8
0
100
AcDbLine
 10
-1.441737498209284
 20
-0.8006632230691103
 30
0.0
 11
-1.497836530471064
 21
-1.002933610408641
 31
0.0
  0
LINE
  5
AD
330
1F
100
AcDbEntity
  8
0
100
AcDbLine
 10
-1.497836530471064
 20
-1.002933610408641
 30
0.0
 11
-2.37355235369895
 21
-3.712950516835686
 31
0.0
  0
LINE
  5
AE
330
1F
100
AcDbEntity
  8
0
100
AcDbLine
 10
-2.37355235369895
 20
-3.712950516835686
 30
0.0
 11
-2.450524788148426
 21
-3.917585890635982
 31
0.0
  0
LINE
  5
AF
330
1F
100
AcDbEntity
  8
0
100
AcDbLine
 10
-2.450524788148426
 20
-3.917585890635982
 30
0.0
 11
-2.546453056841225
 21
-4.114050032761437
 31
0.0
  0
LINE
  5
B0
330
1F
100
AcDbEntity
  8
0
100
AcDbLine
 10
-2.546453056841225
 20
-4.114050032761437
 30
0.0
 11
-2.66048205521875
 21
-4.300591661907527
 31
0.0
  0
LINE
  5
B1
330
1F
100
AcDbEntity
  8
0
100
AcDbLine
 10
-2.66048205521875
 20
-4.300591661907527
 30
0.0
 11
-2.79159532882359
 21
-4.475547946047611
 31
0.0
  0
LINE
  5
B2
330
1F
100
AcDbEntity
  8
0
100
AcDbLine
 10
-2.79159532882359
 20
-4.475547946047611
 30
0.0
 11
-2.938624133973692
 21
-4.637359324917016
 31
0.0
  0
LINE
  5
B3
330
1F
100
AcDbEntity
  8
0
100
AcDbLine
 10
-2.938624133973692
 20
-4.637359324917016
 30
0.0
 11
-3.100257855943815
 21
-4.784583411932593
 31
0.0
  0
LINE
  5
B4
330
1F
100
AcDbEntity
  8
0
100
AcDbLine
 10
-3.100257855943815
 20
-4.784583411932593
 30
0.0
 11
-3.275055691784362
 21
-4.915907851626614
 31
0.0
  0
LINE
  5
B5
330
1F
100
AcDbEntity
  8
0
100
AcDbLine
 10
-3.275055691784362
 20
-4.915907851626614
 30
0.0
 11
-3.461459493638722
 21
-5.030162017982667
 31
0.0
  0
LINE
  5
B6
330
1F
100
AcDbEntity
  8
0
100
AcDbLine
 10
-3.461459493638722
 20
-5.030162017982667
 30
0.0
 11
-3.657807658072596
 21
-5.126327449395944
 31
0.0
  0
LINE
  5
B7
330
1F
100
AcDbEntity
  8
0
100
AcDbLine
 10
-3.657807658072596
 20
-5.126327449395944
 30
0.0
 11
-3.862349937606835
 21
-5.203546927239318
 31
0.0
  0
LINE
  5
B8
330
1F
100
AcDbEntity
  8
0
100
AcDbLine
 10
-3.862349937606835
 20
-5.203546927239318
 30
0.0
 11
-4.073263042422521
 21
-5.261132117110468
 31
0.0
  0
LINE
  5
B9
330
1F
100
AcDbEntity
  8
0
100
AcDbLine
 10
-4.073263042422521
 20
-5.261132117110468
 30
0.0
 11
-4.288666893166113
 21
-5.298569704643927
 31
0.0
  0
LINE
  5
BA
330
1F
100
AcDbEntity
  8
0
100
AcDbLine
 10
-2.912218839904988
 20
2.496876789115308
 30
0.0
 11
-2.936825003948564
 21
2.500116252067669
 31
0.0
  0
LINE
  5
BB
330
1F
100
AcDbEntity
  8
0
100
AcDbLine
 10
-2.936825003948564
 20
2.500116252067669
 30
0.0
 11
-2.959754298576273
 21
2.5096138768781
 31
0.0
  0
LINE
  5
BC
330
1F
100
AcDbEntity
  8
0
100
AcDbLine
 10
-2.959754298576273
 20
2.5096138768781
 30
0.0
 11
-2.979444130251582
 21
2.524722416111301
 31
0.0
  0
LINE
  5
BD
330
1F
100
AcDbEntity
  8
0
100
AcDbLine
 10
-2.979444130251582
 20
2.524722416111301
 30
0.0
 11
-2.994552669484687
 21
2.544412247786577
 31
0.0
  0
LINE
  5
BE
330
1F
100
AcDbEntity
  8
0
100
AcDbLine
 10
-2.994552669484687
 20
2.544412247786577
 30
0.0
 11
-3.004050294295125
 21
2.567341542414215
 31
0.0
  0
LINE
  5
BF
330
1F
100
AcDbEntity
  8
0
100
AcDbLine
 10
-3.004050294295125
 20
2.567341542414215
 30
0.0
 11
-3.007289757247463
 21
2.591947706457823
 31
0.0
  0
LINE
  5
C0
330
1F
100
AcDbEntity
  8
0
100
AcDbLine
 10
-3.007289757247463
 20
2.591947706457823
 30
0.0
 11
-3.004050294295125
 21
2.616553870501439
 31
0.0
  0
LINE
  5
C1
330
1F
100
AcDbEntity
  8
0
100
AcDbLine
 10
-3.004050294295125
 20
2.616553870501439
 30
0.0
 11
-2.994552669484687
 21
2.6394831651291
 31
0.0
  0
LINE
  5
C2
330
1F
100
AcDbEntity
  8
0
100
AcDbLine
 10
-2.994552669484687
 20
2.6394831651291
 30
0.0
 11
-2.979444130251582
 21
2.659172996804352
 31
0.0
  0
LINE
  5
C3
330
1F
100
AcDbEntity
  8
0
100
AcDbLine
 10
-2.979444130251582
 20
2.659172996804352
 30
0.0
 11
-2.959754298576273
 21
2.674281536037538
 31
0.0
  0
LINE
  5
C4
330
1F
100
AcDbEntity
  8
0
100
AcDbLine
 10
-2.959754298576273
 20
2.674281536037538
 30
0.0
 11
-2.936825003948564
 21
2.683779160847984
 31
0.0
  0
LINE
  5
C5
330
1F
100
AcDbEntity
  8
0
100
AcDbLine
 10
-2.936825003948564
 20
2.683779160847984
 30
0.0
 11
-2.912218839904988
 21
2.687018623800361
 31
0.0
  0
LINE
  5
C6
330
1F
100
AcDbEntity
  8
0
100
AcDbLine
 10
-2.912218839904988
 20
2.687018623800361
 30
0.0
 11
-2.887612675861349
 21
2.683779160847984
 31
0.0
  0
LINE
  5
C7
330
1F
100
AcDbEntity
  8
0
100
AcDbLine
 10
-2.887612675861349
 20
2.683779160847984
 30
0.0
 11
-2.864683381233735
 21
2.674281536037538
 31
0.0
  0
LINE
  5
C8
330
1F
100
AcDbEntity
  8
0
100
AcDbLine
 10
-2.864683381233735
 20
2.674281536037538
 30
0.0
 11
-2.844993549558427
 21
2.659172996804352
 31
0.0
  0
LINE
  5
C9
330
1F
100
AcDbEntity
  8
0
100
AcDbLine
 10
-2.844993549558427
 20
2.659172996804352
 30
0.0
 11
-2.829885010325194
 21
2.6394831651291
 31
0.0
  0
LINE
  5
CA
330
1F
100
AcDbEntity
  8
0
100
AcDbLine
 10
-2.829885010325194
 20
2.6394831651291
 30
0.0
 11
-2.82038738551485
 21
2.616553870501439
 31
0.0
  0
LINE
  5
CB
330
1F
100
AcDbEntity
  8
0
100
AcDbLine
 10
-2.82038738551485
 20
2.616553870501439
 30
0.0
 11
-2.817147922562386
 21
2.591947706457823
 31
0.0
  0
LINE
  5
CC
330
1F
100
AcDbEntity
  8
0
100
AcDbLine
 10
-2.817147922562386
 20
2.591947706457823
 30
0.0
 11
-2.82038738551485
 21
2.567341542414215
 31
0.0
  0
LINE
  5
CD
330
1F
100
AcDbEntity
  8
0
100
AcDbLine
 10
-2.82038738551485
 20
2.567341542414215
 30
0.0
 11
-2.829885010325194
 21
2.544412247786577
 31
0.0
  0
LINE
  5
CE
330
1F
100
AcDbEntity
  8
0
100
AcDbLine
 10
-2.829885010325194
 20
2.544412247786577
 30
0.0
 11
-2.844993549558427
 21
2.524722416111301
 31
0.0
  0
LINE
  5
CF
330
1F
100
AcDbEntity
  8
0
100
AcDbLine
 10
-2.844993549558427
 20
2.524722416111301
 30
0.0
 11
-2.864683381233735
 21
2.5096138768781
 31
0.0
  0
LINE
  5
D0
330
1F
100
AcDbEntity
  8
0
100
AcDbLine
 10
-2.864683381233735
 20
2.5096138768781
 30
0.0
 11
-2.887612675861349
 21
2.500116252067669
 31
0.0
  0
LINE
  5
D1
330
1F
100
AcDbEntity
  8
0
100
AcDbLine
 10
-2.887612675861349
 20
2.500116252067669
 30
0.0
 11
-2.912218839904988
 21
2.496876789115308
 31
0.0
  0
LINE
  5
D2
330
1F
100
AcDbEntity
  8
0
100
AcDbLine
 10
-2.912218839904988
 20
3.331819008777604
 30
0.0
 11
-2.939207325748195
 21
3.335372110344964
 31
0.0
  0
LINE
  5
D3
330
1F
100
AcDbEntity
  8
0
100
AcDbLine
 10
-2.939207325748195
 20
3.335372110344964
 30
0.0
 11
-2.96435659088176
 21
3.345789277047002
 31
0.0
  0
LINE
  5
D4
330
1F
100
AcDbEntity
  8
0
100
AcDbLine
 10
-2.96435659088176
 20
3.345789277047002
 30
0.0
 11
-2.985952754447966
 21
3.362360596188164
 31
0.0
  0
LINE
  5
D5
330
1F
100
AcDbEntity
  8
0
100
AcDbLine
 10
-2.985952754447966
 20
3.362360596188164
 30
0.0
 11
-3.002524073589127
 21
3.383956759754376
 31
0.0
  0
LINE
  5
D6
330
1F
100
AcDbEntity
  8
0
100
AcDbLine
 10
-3.002524073589127
 20
3.383956759754376
 30
0.0
 11
-3.012941240291173
 21
3.409106024887949
 31
0.0
  0
LINE
  5
D7
330
1F
100
AcDbEntity
  8
0
100
AcDbLine
 10
-3.012941240291173
 20
3.409106024887949
 30
0.0
 11
-3.016494341858533
 21
3.436094510731149
 31
0.0
  0
LINE
  5
D8
330
1F
100
AcDbEntity
  8
0
100
AcDbLine
 10
-3.016494341858533
 20
3.436094510731149
 30
0.0
 11
-3.012941240291173
 21
3.463082996574348
 31
0.0
  0
LINE
  5
D9
330
1F
100
AcDbEntity
  8
0
100
AcDbLine
 10
-3.012941240291173
 20
3.463082996574348
 30
0.0
 11
-3.002524073589127
 21
3.488232261707921
 31
0.0
  0
LINE
  5
DA
330
1F
100
AcDbEntity
  8
0
100
AcDbLine
 10
-3.002524073589127
 20
3.488232261707921
 30
0.0
 11
-2.985952754447966
 21
3.509828425274134
 31
0.0
  0
LINE
  5
DB
330
1F
100
AcDbEntity
  8
0
100
AcDbLine
 10
-2.985952754447966
 20
3.509828425274134
 30
0.0
 11
-2.96435659088176
 21
3.526399744415296
 31
0.0
  0
LINE
  5
DC
330
1F
100
AcDbEntity
  8
0
100
AcDbLine
 10
-2.96435659088176
 20
3.526399744415296
 30
0.0
 11
-2.939207325748195
 21
3.536816911117334
 31
0.0
  0
LINE
  5
DD
330
1F
100
AcDbEntity
  8
0
100
AcDbLine
 10
-2.939207325748195
 20
3.536816911117334
 30
0.0
 11
-2.912218839904988
 21
3.540370012684694
 31
0.0
  0
LINE
  5
DE
330
1F
100
AcDbEntity
  8
0
100
AcDbLine
 10
-2.912218839904988
 20
3.540370012684694
 30
0.0
 11
-2.885230354061781
 21
3.536816911117334
 31
0.0
  0
LINE
  5
DF
330
1F
100
AcDbEntity
  8
0
100
AcDbLine
 10
-2.885230354061781
 20
3.536816911117334
 30
0.0
 11
-2.860081088928216
 21
3.526399744415296
 31
0.0
  0
LINE
  5
E0
330
1F
100
AcDbEntity
  8
0
100
AcDbLine
 10
-2.860081088928216
 20
3.526399744415296
 30
0.0
 11
-2.838484925362011
 21
3.509828425274134
 31
0.0
  0
LINE
  5
E1
330
1F
100
AcDbEntity
  8
0
100
AcDbLine
 10
-2.838484925362011
 20
3.509828425274134
 30
0.0
 11
-2.821913606220849
 21
3.488232261707921
 31
0.0
  0
LINE
  5
E2
330
1F
100
AcDbEntity
  8
0
100
AcDbLine
 10
-2.821913606220849
 20
3.488232261707921
 30
0.0
 11
-2.811496439518804
 21
3.463082996574348
 31
0.0
  0
LINE
  5
E3
330
1F
100
AcDbEntity
  8
0
100
AcDbLine
 10
-2.811496439518804
 20
3.463082996574348
 30
0.0
 11
-2.807943337951444
 21
3.436094510731149
 31
0.0
  0
LINE
  5
E4
330
1F
100
AcDbEntity
  8
0
100
AcDbLine
 10
-2.807943337951444
 20
3.436094510731149
 30
0.0
 11
-2.811496439518804
 21
3.409106024887949
 31
0.0
  0
LINE
  5
E5
330
1F
100
AcDbEntity
  8
0
100
AcDbLine
 10
-2.811496439518804
 20
3.409106024887949
 30
0.0
 11
-2.821913606220849
 21
3.383956759754376
 31
0.0
  0
LINE
  5
E6
330
1F
100
AcDbEntity
  8
0
100
AcDbLine
 10
-2.821913606220849
 20
3.383956759754376
 30
0.0
 11
-2.838484925362011
 21
3.362360596188164
 31
0.0
  0
LINE
  5
E7
330
1F
100
AcDbEntity
  8
0
100
AcDbLine
 10
-2.838484925362011
 20
3.362360596188164
 30
0.0
 11
-2.860081088928216
 21
3.345789277047002
 31
0.0
  0
LINE
  5
E8
330
1F
100
AcDbEntity
  8
0
100
AcDbLine
 10
-2.860081088928216
 20
3.345789277047002
 30
0.0
 11
-2.885230354061781
 21
3.335372110344964
 31
0.0
  0
LINE
  5
E9
330
1F
100
AcDbEntity
  8
0
100
AcDbLine
 10
-2.885230354061781
 20
3.335372110344964
 30
0.0
 11
-2.912218839904988
 21
3.331819008777604
 31
0.0
  0
LINE
  5
EA
330
1F
100
AcDbEntity
  8
0
100
AcDbLine
 10
0.7893570330577928
 20
1.861622425499522
 30
0.0
 11
0.7928781884408568
 21
1.888368255981708
 31
0.0
  0
LINE
  5
EB
330
1F
100
AcDbEntity
  8
0
100
AcDbLine
 10
0.7928781884408568
 20
1.888368255981708
 30
0.0
 11
0.8032016936695157
 21
1.913291402316076
 31
0.0
  0
LINE
  5
EC
330
1F
100
AcDbEntity
  8
0
100
AcDbLine
 10
0.8032016936695157
 20
1.913291402316076
 30
0.0
 11
0.8196240189229715
 21
1.934693393267484
 31
0.0
  0
LINE
  5
ED
330
1F
100
AcDbEntity
  8
0
100
AcDbLine
 10
0.8196240189229715
 20
1.934693393267484
 30
0.0
 11
0.8410260098743394
 21
1.951115718520948
 31
0.0
  0
LINE
  5
EE
330
1F
100
AcDbEntity
  8
0
100
AcDbLine
 10
0.8410260098743394
 20
1.951115718520948
 30
0.0
 11
0.8659491562087076
 21
1.96143922374967
 31
0.0
  0
LINE
  5
EF
330
1F
100
AcDbEntity
  8
0
100
AcDbLine
 10
0.8659491562087076
 20
1.96143922374967
 30
0.0
 11
0.8926949866908541
 21
1.964960379132702
 31
0.0
  0
LINE
  5
F0
330
1F
100
AcDbEntity
  8
0
100
AcDbLine
 10
0.8926949866908541
 20
1.964960379132702
 30
0.0
 11
0.9194408171730961
 21
1.96143922374967
 31
0.0
  0
LINE
  5
F1
330
1F
100
AcDbEntity
  8
0
100
AcDbLine
 10
0.9194408171730961
 20
1.96143922374967
 30
0.0
 11
0.9443639635074961
 21
1.951115718520948
 31
0.0
  0
LINE
  5
F2
330
1F
100
AcDbEntity
  8
0
100
AcDbLine
 10
0.9443639635074961
 20
1.951115718520948
 30
0.0
 11
0.9657659544588957
 21
1.934693393267484
 31
0.0
  0
LINE
  5
F3
330
1F
100
AcDbEntity
  8
0
100
AcDbLine
 10
0.9657659544588957
 20
1.934693393267484
 30
0.0
 11
0.9821882797123834
 21
1.913291402316076
 31
0.0
  0
LINE
  5
F4
330
1F
100
AcDbEntity
  8
0
100
AcDbLine
 10
0.9821882797123834
 20
1.913291402316076
 30
0.0
 11
0.9925117849410423
 21
1.888368255981708
 31
0.0
  0
LINE
  5
F5
330
1F
100
AcDbEntity
  8
0
100
AcDbLine
 10
0.9925117849410423
 20
1.888368255981708
 30
0.0
 11
0.9960329403242016
 21
1.861622425499522
 31
0.0
  0
LINE
  5
F6
330
1F
100
AcDbEntity
  8
0
100
AcDbLine
 10
0.9960329403242016
 20
1.861622425499522
 30
0.0
 11
0.9925117849410423
 21
1.834876595017304
 31
0.0
  0
LINE
  5
F7
330
1F
100
AcDbEntity
  8
0
100
AcDbLine
 10
0.9925117849410423
 20
1.834876595017304
 30
0.0
 11
0.9821882797123834
 21
1.809953448682904
 31
0.0
  0
LINE
  5
F8
330
1F
100
AcDbEntity
  8
0
100
AcDbLine
 10
0.9821882797123834
 20
1.809953448682904
 30
0.0
 11
0.9657659544588957
 21
1.78855145773156
 31
0.0
  0
LINE
  5
F9
330
1F
100
AcDbEntity
  8
0
100
AcDbLine
 10
0.9657659544588957
 20
1.78855145773156
 30
0.0
 11
0.9443639635074961
 21
1.772129132478064
 31
0.0
  0
LINE
  5
FA
330
1F
100
AcDbEntity
  8
0
100
AcDbLine
 10
0.9443639635074961
 20
1.772129132478064
 30
0.0
 11
0.9194408171730961
 21
1.761805627249341
 31
0.0
  0
LINE
  5
FB
330
1F
100
AcDbEntity
  8
0
100
AcDbLine
 10
0.9194408171730961
 20
1.761805627249341
 30
0.0
 11
0.8926949866908541
 21
1.758284471866317
 31
0.0
  0
LINE
  5
FC
330
1F
100
AcDbEntity
  8
0
100
AcDbLine
 10
0.8926949866908541
 20
1.758284471866317
 30
0.0
 11
0.8659491562087076
 21
1.761805627249341
 31
0.0
  0
LINE
  5
FD
330
1F
100
AcDbEntity
  8
0
100
AcDbLine
 10
0.8659491562087076
 20
1.761805627249341
 30
0.0
 11
0.8410260098743394
 21
1.772129132478064
 31
0.0
  0
LINE
  5
FE
330
1F
100
AcDbEntity
  8
0
100
AcDbLine
 10
0.8410260098743394
 20
1.772129132478064
 30
0.0
 11
0.8196240189229715
 21
1.78855145773156
 31
0.0
  0
LINE
  5
FF
330
1F
100
AcDbEntity
  8
0
100
AcDbLine
 10
0.8196240189229715
 20
1.78855145773156
 30
0.0
 11
0.8032016936695157
 21
1.809953448682904
 31
0.0
  0
LINE
  5
100
330
1F
100
AcDbEntity
  8
0
100
AcDbLine
 10
0.8032016936695157
 20
1.809953448682904
 30
0.0
 11
0.7928781884408568
 21
1.834876595017304
 31
0.0
  0
LINE
  5
101
330
1F
100
AcDbEntity
  8
0
100
AcDbLine
 10
0.7928781884408568
 20
1.834876595017304
 30
0.0
 11
0.7893570330577928
 21
1.861622425499522
 31
0.0
  0
LINE
  5
102
330
1F
100
AcDbEntity
  8
0
100
AcDbLine
 10
0.8926949866908541
 20
0.831578644290434
 30
0.0
 11
0.868088822647278
 21
0.8348181072428112
 31
0.0
  0
LINE
  5
103
330
1F
100
AcDbEntity
  8
0
100
AcDbLine
 10
0.868088822647278
 20
0.8348181072428112
 30
0.0
 11
0.8451595280196962
 21
0.8443157320532897
 31
0.0
  0
LINE
  5
104
330
1F
100
AcDbEntity
  8
0
100
AcDbLine
 10
0.8451595280196962
 20
0.8443157320532897
 30
0.0
 11
0.8254696963443564
 21
0.8594242712864113
 31
0.0
  0
LINE
  5
105
330
1F
100
AcDbEntity
  8
0
100
AcDbLine
 10
0.8254696963443564
 20
0.8594242712864113
 30
0.0
 11
0.8103611571111871
 21
0.8791141029616955
 31
0.0
  0
LINE
  5
106
330
1F
100
AcDbEntity
  8
0
100
AcDbLine
 10
0.8103611571111871
 20
0.8791141029616955
 30
0.0
 11
0.8008635323007485
 21
0.9020433975893408
 31
0.0
  0
LINE
  5
107
330
1F
100
AcDbEntity
  8
0
100
AcDbLine
 10
0.8008635323007485
 20
0.9020433975893408
 30
0.0
 11
0.7976240693483791
 21
0.9266495616329568
 31
0.0
  0
LINE
  5
108
330
1F
100
AcDbEntity
  8
0
100
AcDbLine
 10
0.7976240693483791
 20
0.9266495616329568
 30
0.0
 11
0.8008635323007485
 21
0.9512557256766123
 31
0.0
  0
LINE
  5
109
330
1F
100
AcDbEntity
  8
0
100
AcDbLine
 10
0.8008635323007485
 20
0.9512557256766123
 30
0.0
 11
0.8103611571111871
 21
0.9741850203042578
 31
0.0
  0
LINE
  5
10A
330
1F
100
AcDbEntity
  8
0
100
AcDbLine
 10
0.8103611571111871
 20
0.9741850203042578
 30
0.0
 11
0.8254696963443564
 21
0.9938748519794942
 31
0.0
  0
LINE
  5
10B
330
1F
100
AcDbEntity
  8
0
100
AcDbLine
 10
0.8254696963443564
 20
0.9938748519794942
 30
0.0
 11
0.8451595280196962
 21
1.008983391212695
 31
0.0
  0
LINE
  5
10C
330
1F
100
AcDbEntity
  8
0
100
AcDbLine
 10
0.8451595280196962
 20
1.008983391212695
 30
0.0
 11
0.868088822647278
 21
1.018481016023142
 31
0.0
  0
LINE
  5
10D
330
1F
100
AcDbEntity
  8
0
100
AcDbLine
 10
0.868088822647278
 20
1.018481016023142
 30
0.0
 11
0.8926949866908541
 21
1.021720478975487
 31
0.0
  0
LINE
  5
10E
330
1F
100
AcDbEntity
  8
0
100
AcDbLine
 10
0.8926949866908541
 20
1.021720478975487
 30
0.0
 11
0.9173011507344938
 21
1.018481016023142
 31
0.0
  0
LINE
  5
10F
330
1F
100
AcDbEntity
  8
0
100
AcDbLine
 10
0.9173011507344938
 20
1.018481016023142
 30
0.0
 11
0.940230445362171
 21
1.008983391212695
 31
0.0
  0
LINE
  5
110
330
1F
100
AcDbEntity
  8
0
100
AcDbLine
 10
0.940230445362171
 20
1.008983391212695
 30
0.0
 11
0.9599202770373518
 21
0.9938748519794942
 31
0.0
  0
LINE
  5
111
330
1F
100
AcDbEntity
  8
0
100
AcDbLine
 10
0.9599202770373518
 20
0.9938748519794942
 30
0.0
 11
0.975028816270712
 21
0.9741850203042578
 31
0.0
  0
LINE
  5
112
330
1F
100
AcDbEntity
  8
0
100
AcDbLine
 10
0.975028816270712
 20
0.9741850203042578
 30
0.0
 11
0.9845264410810234
 21
0.9512557256766123
 31
0.0
  0
LINE
  5
113
330
1F
100
AcDbEntity
  8
0
100
AcDbLine
 10
0.9845264410810234
 20
0.9512557256766123
 30
0.0
 11
0.9877659040334563
 21
0.9266495616329568
 31
0.0
  0
LINE
  5
114
330
1F
100
AcDbEntity
  8
0
100
AcDbLine
 10
0.9877659040334563
 20
0.9266495616329568
 30
0.0
 11
0.9845264410810234
 21
0.9020433975893408
 31
0.0
  0
LINE
  5
115
330
1F
100
AcDbEntity
  8
0
100
AcDbLine
 10
0.9845264410810234
 20
0.9020433975893408
 30
0.0
 11
0.975028816270712
 21
0.8791141029616955
 31
0.0
  0
LINE
  5
116
330
1F
100
AcDbEntity
  8
0
100
AcDbLine
 10
0.975028816270712
 20
0.8791141029616955
 30
0.0
 11
0.9599202770373518
 21
0.8594242712864113
 31
0.0
  0
LINE
  5
117
330
1F
100
AcDbEntity
  8
0
100
AcDbLine
 10
0.9599202770373518
 20
0.8594242712864113
 30
0.0
 11
0.940230445362171
 21
0.8443157320532897
 31
0.0
  0
LINE
  5
118
330
1F
100
AcDbEntity
  8
0
100
AcDbLine
 10
0.940230445362171
 20
0.8443157320532897
 30
0.0
 11
0.9173011507345257
 21
0.8348181072428112
 31
0.0
  0
LINE
  5
119
330
1F
100
AcDbEntity
  8
0
100
AcDbLine
 10
0.9173011507345257
 20
0.8348181072428112
 30
0.0
 11
0.8926949866908541
 21
0.831578644290434
 31
0.0
  0
LINE
  5
11A
330
1F
100
AcDbEntity
  8
0
100
AcDbLine
 10
-5.641088327695749
 20
3.346425948891505
 30
0.0
 11
-5.618699083325042
 21
3.355699877561143
 31
0.0
  0
LINE
  5
11B
330
1F
100
AcDbEntity
  8
0
100
AcDbLine
 10
-5.665114946427142
 20
3.343262784526933
 30
0.0
 11
-5.641088327695749
 21
3.346425948891505
 31
0.0
  0
LINE
  5
11C
330
1F
100
AcDbEntity
  8
0
100
AcDbLine
 10
-5.689141565158535
 20
3.346425948891505
 30
0.0
 11
-5.665114946427142
 21
3.343262784526933
 31
0.0
  0
LINE
  5
11D
330
1F
100
AcDbEntity
  8
0
100
AcDbLine
 10
-5.730756889535408
 20
3.370452567622898
 30
0.0
 11
-5.711530809529258
 21
3.355699877561135
 31
0.0
  0
LINE
  5
11E
330
1F
100
AcDbEntity
  8
0
100
AcDbLine
 10
-5.754783508266802
 20
3.460121129462542
 30
0.0
 11
-5.757946672631358
 21
3.436094510731149
 31
0.0
  0
LINE
  5
11F
330
1F
100
AcDbEntity
  8
0
100
AcDbLine
 10
-5.745509579597147
 20
3.482510373833257
 30
0.0
 11
-5.754783508266802
 21
3.460121129462542
 31
0.0
  0
LINE
  5
120
330
1F
100
AcDbEntity
  8
0
100
AcDbLine
 10
-5.618699083325042
 20
3.355699877561143
 30
0.0
 11
-5.599473003318892
 21
3.370452567622898
 31
0.0
  0
LINE
  5
121
330
1F
100
AcDbEntity
  8
0
100
AcDbLine
 10
-5.754783508266786
 20
3.412067891999756
 30
0.0
 11
-5.745509579597163
 21
3.389678647629049
 31
0.0
  0
LINE
  5
122
330
1F
100
AcDbEntity
  8
0
100
AcDbLine
 10
-5.757946672631358
 20
3.436094510731149
 30
0.0
 11
-5.754783508266786
 21
3.412067891999756
 31
0.0
  0
LINE
  5
123
330
1F
100
AcDbEntity
  8
0
100
AcDbLine
 10
-5.599473003318892
 20
3.370452567622898
 30
0.0
 11
-5.584720313257137
 21
3.389678647629041
 31
0.0
  0
LINE
  5
124
330
1F
100
AcDbEntity
  8
0
100
AcDbLine
 10
-5.582781116847475
 20
2.6394831651291
 30
0.0
 11
-5.597889656080644
 21
2.659172996804352
 31
0.0
  0
LINE
  5
125
330
1F
100
AcDbEntity
  8
0
100
AcDbLine
 10
-5.573283492037068
 20
2.616553870501439
 30
0.0
 11
-5.582781116847475
 21
2.6394831651291
 31
0.0
  0
LINE
  5
126
330
1F
100
AcDbEntity
  8
0
100
AcDbLine
 10
-5.570044029084603
 20
2.591947706457823
 30
0.0
 11
-5.573283492037068
 21
2.616553870501439
 31
0.0
  0
LINE
  5
127
330
1F
100
AcDbEntity
  8
0
100
AcDbLine
 10
-5.617579487755984
 20
2.674281536037538
 30
0.0
 11
-5.640508782383566
 21
2.683779160847984
 31
0.0
  0
LINE
  5
128
330
1F
100
AcDbEntity
  8
0
100
AcDbLine
 10
-5.597889656080644
 20
2.659172996804352
 30
0.0
 11
-5.617579487755984
 21
2.674281536037538
 31
0.0
  0
LINE
  5
129
330
1F
100
AcDbEntity
  8
0
100
AcDbLine
 10
-5.665114946427142
 20
2.687018623800361
 30
0.0
 11
-5.689721110470877
 21
2.683779160847984
 31
0.0
  0
LINE
  5
12A
330
1F
100
AcDbEntity
  8
0
100
AcDbLine
 10
-5.640508782383566
 20
2.683779160847984
 30
0.0
 11
-5.665114946427142
 21
2.687018623800361
 31
0.0
  0
LINE
  5
12B
330
1F
100
AcDbEntity
  8
0
100
AcDbLine
 10
-5.732340236773704
 20
2.659172996804352
 30
0.0
 11
-5.747448776006936
 21
2.6394831651291
 31
0.0
  0
LINE
  5
12C
330
1F
100
AcDbEntity
  8
0
100
AcDbLine
 10
-5.712650405098523
 20
2.674281536037538
 30
0.0
 11
-5.732340236773704
 21
2.659172996804352
 31
0.0
  0
LINE
  5
12D
330
1F
100
AcDbEntity
  8
0
100
AcDbLine
 10
-5.689721110470877
 20
2.683779160847984
 30
0.0
 11
-5.712650405098523
 21
2.674281536037538
 31
0.0
  0
LINE
  5
12E
330
1F
100
AcDbEntity
  8
0
100
AcDbLine
 10
-5.760185863769745
 20
2.591947706457823
 30
0.0
 11
-5.75694640081728
 21
2.567341542414215
 31
0.0
  0
LINE
  5
12F
330
1F
100
AcDbEntity
  8
0
100
AcDbLine
 10
-5.75694640081728
 20
2.616553870501439
 30
0.0
 11
-5.760185863769745
 21
2.591947706457823
 31
0.0
  0
LINE
  5
130
330
1F
100
AcDbEntity
  8
0
100
AcDbLine
 10
-5.747448776006936
 20
2.6394831651291
 30
0.0
 11
-5.75694640081728
 21
2.616553870501439
 31
0.0
  0
LINE
  5
131
330
1F
100
AcDbEntity
  8
0
100
AcDbLine
 10
-5.75694640081728
 20
2.567341542414215
 30
0.0
 11
-5.747448776006936
 21
2.544412247786577
 31
0.0
  0
LINE
  5
132
330
1F
100
AcDbEntity
  8
0
100
AcDbLine
 10
-5.689721110470877
 20
2.500116252067669
 30
0.0
 11
-5.665114946427142
 21
2.496876789115308
 31
0.0
  0
LINE
  5
133
330
1F
100
AcDbEntity
  8
0
100
AcDbLine
 10
-5.712650405098523
 20
2.5096138768781
 30
0.0
 11
-5.689721110470877
 21
2.500116252067669
 31
0.0
  0
LINE
  5
134
330
1F
100
AcDbEntity
  8
0
100
AcDbLine
 10
-5.732340236773704
 20
2.524722416111301
 30
0.0
 11
-5.712650405098523
 21
2.5096138768781
 31
0.0
  0
LINE
  5
135
330
1F
100
AcDbEntity
  8
0
100
AcDbLine
 10
-5.640508782383566
 20
2.500116252067669
 30
0.0
 11
-5.617579487755984
 21
2.5096138768781
 31
0.0
  0
LINE
  5
136
330
1F
100
AcDbEntity
  8
0
100
AcDbLine
 10
-5.665114946427142
 20
2.496876789115308
 30
0.0
 11
-5.640508782383566
 21
2.500116252067669
 31
0.0
  0
LINE
  5
137
330
1F
100
AcDbEntity
  8
0
100
AcDbLine
 10
-5.582781116847475
 20
2.544412247786577
 30
0.0
 11
-5.573283492037068
 21
2.567341542414215
 31
0.0
  0
LINE
  5
138
330
1F
100
AcDbEntity
  8
0
100
AcDbLine
 10
-5.597889656080644
 20
2.524722416111301
 30
0.0
 11
-5.582781116847475
 21
2.544412247786577
 31
0.0
  0
LINE
  5
139
330
1F
100
AcDbEntity
  8
0
100
AcDbLine
 10
-5.617579487755984
 20
2.5096138768781
 30
0.0
 11
-5.597889656080644
 21
2.524722416111301
 31
0.0
  0
LINE
  5
13A
330
1F
100
AcDbEntity
  8
0
100
AcDbLine
 10
-9.418359796206596
 20
1.951115718520948
 30
0.0
 11
-9.443282942540902
 21
1.96143922374967
 31
0.0
  0
LINE
  5
13B
330
1F
100
AcDbEntity
  8
0
100
AcDbLine
 10
-9.470028773023143
 20
0.831578644290434
 30
0.0
 11
-9.4454226089796
 21
0.8348181072428112
 31
0.0
  0
LINE
  5
13C
330
1F
100
AcDbEntity
  8
0
100
AcDbLine
 10
-9.49463493706675
 20
0.8348181072428112
 30
0.0
 11
-9.470028773023143
 21
0.831578644290434
 31
0.0
  0
LINE
  5
13D
330
1F
100
AcDbEntity
  8
0
100
AcDbLine
 10
-9.517564231694333
 20
0.8443157320532897
 30
0.0
 11
-9.49463493706675
 21
0.8348181072428112
 31
0.0
  0
LINE
  5
13E
330
1F
100
AcDbEntity
  8
0
100
AcDbLine
 10
-9.537254063369769
 20
0.8594242712864113
 30
0.0
 11
-9.517564231694333
 21
0.8443157320532897
 31
0.0
  0
LINE
  5
13F
330
1F
100
AcDbEntity
  8
0
100
AcDbLine
 10
-9.552362602602843
 20
0.8791141029616955
 30
0.0
 11
-9.537254063369769
 21
0.8594242712864113
 31
0.0
  0
LINE
  5
140
330
1F
100
AcDbEntity
  8
0
100
AcDbLine
 10
-9.561860227413344
 20
0.9020433975893408
 30
0.0
 11
-9.552362602602843
 21
0.8791141029616955
 31
0.0
  0
LINE
  5
141
330
1F
100
AcDbEntity
  8
0
100
AcDbLine
 10
-9.565099690365619
 20
0.9266495616329568
 30
0.0
 11
-9.561860227413344
 21
0.9020433975893408
 31
0.0
  0
LINE
  5
142
330
1F
100
AcDbEntity
  8
0
100
AcDbLine
 10
-9.561860227413344
 20
0.9512557256766123
 30
0.0
 11
-9.565099690365619
 21
0.9266495616329568
 31
0.0
  0
LINE
  5
143
330
1F
100
AcDbEntity
  8
0
100
AcDbLine
 10
-9.552362602602843
 20
0.9741850203042578
 30
0.0
 11
-9.561860227413344
 21
0.9512557256766123
 31
0.0
  0
LINE
  5
144
330
1F
100
AcDbEntity
  8
0
100
AcDbLine
 10
-9.537254063369769
 20
0.9938748519794942
 30
0.0
 11
-9.552362602602843
 21
0.9741850203042578
 31
0.0
  0
LINE
  5
145
330
1F
100
AcDbEntity
  8
0
100
AcDbLine
 10
-9.517564231694333
 20
1.008983391212695
 30
0.0
 11
-9.537254063369769
 21
0.9938748519794942
 31
0.0
  0
LINE
  5
146
330
1F
100
AcDbEntity
  8
0
100
AcDbLine
 10
-9.49463493706675
 20
1.018481016023142
 30
0.0
 11
-9.517564231694333
 21
1.008983391212695
 31
0.0
  0
LINE
  5
147
330
1F
100
AcDbEntity
  8
0
100
AcDbLine
 10
-9.470028773023143
 20
1.021720478975487
 30
0.0
 11
-9.49463493706675
 21
1.018481016023142
 31
0.0
  0
LINE
  5
148
330
1F
100
AcDbEntity
  8
0
100
AcDbLine
 10
-9.4454226089796
 20
1.018481016023142
 30
0.0
 11
-9.470028773023143
 21
1.021720478975487
 31
0.0
  0
LINE
  5
149
330
1F
100
AcDbEntity
  8
0
100
AcDbLine
 10
-9.42249331435189
 20
1.008983391212695
 30
0.0
 11
-9.4454226089796
 21
1.018481016023142
 31
0.0
  0
LINE
  5
14A
330
1F
100
AcDbEntity
  8
0
100
AcDbLine
 10
-9.402803482676646
 20
0.9938748519794942
 30
0.0
 11
-9.42249331435189
 21
1.008983391212695
 31
0.0
  0
LINE
  5
14B
330
1F
100
AcDbEntity
  8
0
100
AcDbLine
 10
-9.38769494344338
 20
0.9741850203042578
 30
0.0
 11
-9.402803482676646
 21
0.9938748519794942
 31
0.0
  0
LINE
  5
14C
330
1F
100
AcDbEntity
  8
0
100
AcDbLine
 10
-9.378197318633038
 20
0.9512557256766123
 30
0.0
 11
-9.38769494344338
 21
0.9741850203042578
 31
0.0
  0
LINE
  5
14D
330
1F
100
AcDbEntity
  8
0
100
AcDbLine
 10
-9.374957855680604
 20
0.9266495616329568
 30
0.0
 11
-9.378197318633038
 21
0.9512557256766123
 31
0.0
  0
LINE
  5
14E
330
1F
100
AcDbEntity
  8
0
100
AcDbLine
 10
-9.378197318633038
 20
0.9020433975893408
 30
0.0
 11
-9.374957855680604
 21
0.9266495616329568
 31
0.0
  0
LINE
  5
14F
330
1F
100
AcDbEntity
  8
0
100
AcDbLine
 10
-9.38769494344338
 20
0.8791141029616955
 30
0.0
 11
-9.378197318633038
 21
0.9020433975893408
 31
0.0
  0
LINE
  5
150
330
1F
100
AcDbEntity
  8
0
100
AcDbLine
 10
-9.402803482676646
 20
0.8594242712864113
 30
0.0
 11
-9.38769494344338
 21
0.8791141029616955
 31
0.0
  0
LINE
  5
151
330
1F
100
AcDbEntity
  8
0
100
AcDbLine
 10
-9.42249331435189
 20
0.8443157320532897
 30
0.0
 11
-9.402803482676646
 21
0.8594242712864113
 31
0.0
  0
LINE
  5
152
330
1F
100
AcDbEntity
  8
0
100
AcDbLine
 10
-9.4454226089796
 20
0.8348181072428112
 30
0.0
 11
-9.42249331435189
 21
0.8443157320532897
 31
0.0
  0
LINE
  5
153
330
1F
100
AcDbEntity
  8
0
100
AcDbLine
 10
-5.572283220222926
 20
3.436094510731149
 30
0.0
 11
-5.575446384587498
 21
3.460121129462542
 31
0.0
  0
LINE
  5
154
330
1F
100
AcDbEntity
  8
0
100
AcDbLine
 10
-4.714983848725327
 20
-5.203546927239318
 30
0.0
 11
-4.50407074390964
 21
-5.261132117110468
 31
0.0
  0
LINE
  5
155
330
1F
100
AcDbEntity
  8
0
100
AcDbLine
 10
-4.50407074390964
 20
-5.261132117110468
 30
0.0
 11
-4.288666893166113
 21
-5.298569704643927
 31
0.0
  0
LINE
  5
156
330
1F
100
AcDbEntity
  8
0
100
AcDbLine
 10
-5.575446384587482
 20
3.412067891999756
 30
0.0
 11
-5.572283220222926
 21
3.436094510731149
 31
0.0
  0
LINE
  5
157
330
1F
100
AcDbEntity
  8
0
100
AcDbLine
 10
-5.745509579597163
 20
3.389678647629049
 30
0.0
 11
-5.730756889535408
 21
3.370452567622898
 31
0.0
  0
LINE
  5
158
330
1F
100
AcDbEntity
  8
0
100
AcDbLine
 10
-9.559522066044513
 20
1.809953448682904
 30
0.0
 11
-9.543099740791185
 21
1.78855145773156
 31
0.0
  0
LINE
  5
159
330
1F
100
AcDbEntity
  8
0
100
AcDbLine
 10
-9.65931277886494
 20
0.4600558564517959
 30
0.0
 11
-8.894611921979275
 21
0.4600558564517959
 31
0.0
  0
LINE
  5
15A
330
1F
100
AcDbEntity
  8
0
100
AcDbLine
 10
-8.894611921979275
 20
0.4600558564517959
 30
0.0
 11
-8.685041535750935
 21
0.4481956612044209
 31
0.0
  0
LINE
  5
15B
330
1F
100
AcDbEntity
  8
0
100
AcDbLine
 10
-8.685041535750935
 20
0.4481956612044209
 30
0.0
 11
-8.478147389403679
 21
0.4127665316297429
 31
0.0
  0
LINE
  5
15C
330
1F
100
AcDbEntity
  8
0
100
AcDbLine
 10
-8.478147389403679
 20
0.4127665316297429
 30
0.0
 11
-8.27657154690267
 21
0.354220902116201
 31
0.0
  0
LINE
  5
15D
330
1F
100
AcDbEntity
  8
0
100
AcDbLine
 10
-8.27657154690267
 20
0.354220902116201
 30
0.0
 11
-8.08288815681161
 21
0.2733064076296795
 31
0.0
  0
LINE
  5
15E
330
1F
100
AcDbEntity
  8
0
100
AcDbLine
 10
-8.08288815681161
 20
0.2733064076296795
 30
0.0
 11
-7.899570580096153
 21
0.1710563363221666
 31
0.0
  0
LINE
  5
15F
330
1F
100
AcDbEntity
  8
0
100
AcDbLine
 10
-7.899570580096153
 20
0.1710563363221666
 30
0.0
 11
-7.728959804996927
 21
0.0487764343136581
 31
0.0
  0
LINE
  5
160
330
1F
100
AcDbEntity
  8
0
100
AcDbLine
 10
-7.728959804996927
 20
0.0487764343136581
 30
0.0
 11
-7.573234552318268
 21
-0.0919717688483001
 31
0.0
  0
LINE
  5
161
330
1F
100
AcDbEntity
  8
0
100
AcDbLine
 10
-7.573234552318268
 20
-0.0919717688483001
 30
0.0
 11
-7.434383452892766
 21
-0.2493909011148025
 31
0.0
  0
LINE
  5
162
330
1F
100
AcDbEntity
  8
0
100
AcDbLine
 10
-7.434383452892766
 20
-0.2493909011148025
 30
0.0
 11
-7.314179652519109
 21
-0.421470700600076
 31
0.0
  0
LINE
  5
163
330
1F
100
AcDbEntity
  8
0
100
AcDbLine
 10
-7.314179652519109
 20
-0.421470700600076
 30
0.0
 11
-7.214158168668658
 21
-0.6060136868757906
 31
0.0
  0
LINE
  5
164
330
1F
100
AcDbEntity
  8
0
100
AcDbLine
 10
-7.214158168668658
 20
-0.6060136868757906
 30
0.0
 11
-7.135596288122942
 21
-0.8006632230691103
 31
0.0
  0
LINE
  5
165
330
1F
100
AcDbEntity
  8
0
100
AcDbLine
 10
-7.135596288122942
 20
-0.8006632230691103
 30
0.0
 11
-7.079497255861098
 21
-1.002933610408641
 31
0.0
  0
LINE
  5
166
330
1F
100
AcDbEntity
  8
0
100
AcDbLine
 10
-7.079497255861098
 20
-1.002933610408641
 30
0.0
 11
-6.203781432633244
 21
-3.712950516835686
 31
0.0
  0
LINE
  5
167
330
1F
100
AcDbEntity
  8
0
100
AcDbLine
 10
-6.203781432633244
 20
-3.712950516835686
 30
0.0
 11
-6.126808998183767
 21
-3.917585890635982
 31
0.0
  0
LINE
  5
168
330
1F
100
AcDbEntity
  8
0
100
AcDbLine
 10
-5.916851731113411
 20
-4.300591661907527
 30
0.0
 11
-5.785738457508572
 21
-4.475547946047611
 31
0.0
  0
LINE
  5
169
330
1F
100
AcDbEntity
  8
0
100
AcDbLine
 10
-5.638709652358438
 20
-4.637359324917016
 30
0.0
 11
-5.477075930388379
 21
-4.784583411932593
 31
0.0
  0
LINE
  5
16A
330
1F
100
AcDbEntity
  8
0
100
AcDbLine
 10
-5.302278094547895
 20
-4.915907851626614
 30
0.0
 11
-5.115874292693568
 21
-5.030162017982667
 31
0.0
  0
LINE
  5
16B
330
1F
100
AcDbEntity
  8
0
100
AcDbLine
 10
-5.115874292693568
 20
-5.030162017982667
 30
0.0
 11
-4.919526128259471
 21
-5.126327449395944
 31
0.0
  0
LINE
  5
16C
330
1F
100
AcDbEntity
  8
0
100
AcDbLine
 10
-4.919526128259471
 20
-5.126327449395944
 30
0.0
 11
-4.714983848725327
 21
-5.203546927239318
 31
0.0
  0
LINE
  5
16D
330
1F
100
AcDbEntity
  8
0
100
AcDbLine
 10
-9.738034167730499
 20
0.5135283490623771
 30
0.0
 11
-9.699858084934794
 21
0.4850481355547256
 31
0.0
  0
LINE
  5
16E
330
1F
100
AcDbEntity
  8
0
100
AcDbLine
 10
-9.699858084934794
 20
0.4850481355547256
 30
0.0
 11
-9.65931277886494
 21
0.4600558564517959
 31
0.0
  0
LINE
  5
16F
330
1F
100
AcDbEntity
  8
0
100
AcDbLine
 10
-9.835461896355644
 20
0.6175385713045628
 30
0.0
 11
-9.80610280624924
 21
0.580034175733075
 31
0.0
  0
LINE
  5
170
330
1F
100
AcDbEntity
  8
0
100
AcDbLine
 10
-9.80610280624924
 20
0.580034175733075
 30
0.0
 11
-9.773541834731242
 21
0.5452732926476991
 31
0.0
  0
LINE
  5
171
330
1F
100
AcDbEntity
  8
0
100
AcDbLine
 10
-9.773541834731242
 20
0.5452732926476991
 30
0.0
 11
-9.738034167730499
 21
0.5135283490623771
 31
0.0
  0
LINE
  5
172
330
1F
100
AcDbEntity
  8
0
100
AcDbLine
 10
-9.861389012816607
 20
0.6574925509697688
 30
0.0
 11
-9.835461896355644
 21
0.6175385713045628
 31
0.0
  0
LINE
  5
173
330
1F
100
AcDbEntity
  8
0
100
AcDbLine
 10
-9.815467266800082
 20
2.155818147807822
 30
0.0
 11
-9.853408257474157
 21
2.105195799989915
 31
0.0
  0
LINE
  5
174
330
1F
100
AcDbEntity
  8
0
100
AcDbLine
 10
-9.853408257474157
 20
2.105195799989915
 30
0.0
 11
-9.884814254482293
 21
2.050279461584517
 31
0.0
  0
LINE
  5
175
330
1F
100
AcDbEntity
  8
0
100
AcDbLine
 10
-9.909205438656805
 20
1.991908141516404
 30
0.0
 11
-9.92620916277109
 21
1.930973633738133
 31
0.0
  0
LINE
  5
176
330
1F
100
AcDbEntity
  8
0
100
AcDbLine
 10
-9.92620916277109
 20
1.930973633738133
 30
0.0
 11
-9.935565644824123
 21
1.868406892449155
 31
0.0
  0
LINE
  5
177
330
1F
100
AcDbEntity
  8
0
100
AcDbLine
 10
-9.935565644824123
 20
1.868406892449155
 30
0.0
 11
-9.935565644824123
 21
0.9300982734598562
 31
0.0
  0
LINE
  5
178
330
1F
100
AcDbEntity
  8
0
100
AcDbLine
 10
-9.935565644824123
 20
0.9300982734598562
 30
0.0
 11
-9.933457392862207
 21
0.8825158068074059
 31
0.0
  0
LINE
  5
179
330
1F
100
AcDbEntity
  8
0
100
AcDbLine
 10
-9.933457392862207
 20
0.8825158068074059
 30
0.0
 11
-9.927149159710275
 21
0.8353062521222857
 31
0.0
  0
LINE
  5
17A
330
1F
100
AcDbEntity
  8
0
100
AcDbLine
 10
-9.927149159710275
 20
0.8353062521222857
 30
0.0
 11
-9.916690384075
 21
0.7888395987967622
 31
0.0
  0
LINE
  5
17B
330
1F
100
AcDbEntity
  8
0
100
AcDbLine
 10
-9.916690384075
 20
0.7888395987967622
 30
0.0
 11
-9.902163033178278
 21
0.7434800139773398
 31
0.0
  0
LINE
  5
17C
330
1F
100
AcDbEntity
  8
0
100
AcDbLine
 10
-9.902163033178278
 20
0.7434800139773398
 30
0.0
 11
-9.883680960365277
 21
0.6995829885245624
 31
0.0
  0
LINE
  5
17D
330
1F
100
AcDbEntity
  8
0
100
AcDbLine
 10
-9.883680960365277
 20
0.6995829885245624
 30
0.0
 11
-9.861389012816607
 21
0.6574925509697688
 31
0.0
  0
LINE
  5
17E
330
1F
100
AcDbEntity
  8
0
100
AcDbLine
 10
-6.751950012630946
 20
2.327565801788899
 30
0.0
 11
-6.825685050672311
 21
2.33595350856108
 31
0.0
  0
LINE
  5
17F
330
1F
100
AcDbEntity
  8
0
100
AcDbLine
 10
-6.825685050672311
 20
2.33595350856108
 30
0.0
 11
-9.42566796408345
 21
2.33595350856108
 31
0.0
  0
LINE
  5
180
330
1F
100
AcDbEntity
  8
0
100
AcDbLine
 10
-9.42566796408345
 20
2.33595350856108
 30
0.0
 11
-9.488809509420664
 21
2.33204376121055
 31
0.0
  0
LINE
  5
181
330
1F
100
AcDbEntity
  8
0
100
AcDbLine
 10
-9.488809509420664
 20
2.33204376121055
 30
0.0
 11
-9.55098638155514
 21
2.320374252073032
 31
0.0
  0
LINE
  5
182
330
1F
100
AcDbEntity
  8
0
100
AcDbLine
 10
-9.55098638155514
 20
2.320374252073032
 30
0.0
 11
-9.611248645510011
 21
2.301123267294247
 31
0.0
  0
LINE
  5
183
330
1F
100
AcDbEntity
  8
0
100
AcDbLine
 10
-9.611248645510011
 20
2.301123267294247
 30
0.0
 11
-9.668675617591958
 21
2.274584922405364
 31
0.0
  0
LINE
  5
184
330
1F
100
AcDbEntity
  8
0
100
AcDbLine
 10
-9.668675617591958
 20
2.274584922405364
 30
0.0
 11
-9.722389931546891
 21
2.241164668841432
 31
0.0
  0
LINE
  5
185
330
1F
100
AcDbEntity
  8
0
100
AcDbLine
 10
-9.722389931546891
 20
2.241164668841432
 30
0.0
 11
-9.771570942916403
 21
2.201373099475461
 31
0.0
  0
LINE
  5
186
330
1F
100
AcDbEntity
  8
0
100
AcDbLine
 10
-9.771570942916403
 20
2.201373099475461
 30
0.0
 11
-9.815467266800082
 21
2.155818147807822
 31
0.0
  0
LINE
  5
187
330
1F
100
AcDbEntity
  8
0
100
AcDbLine
 10
-6.604763521543539
 20
2.343284729724216
 30
0.0
 11
-6.67778026510942
 21
2.330027104790168
 31
0.0
  0
LINE
  5
188
330
1F
100
AcDbEntity
  8
0
100
AcDbLine
 10
-6.67778026510942
 20
2.330027104790168
 30
0.0
 11
-6.751950012630946
 21
2.327565801788899
 31
0.0
  0
LINE
  5
189
330
1F
100
AcDbEntity
  8
0
100
AcDbLine
 10
-5.477075930388379
 20
-4.784583411932593
 30
0.0
 11
-5.302278094547895
 21
-4.915907851626614
 31
0.0
  0
LINE
  5
18A
330
1F
100
AcDbEntity
  8
0
100
AcDbLine
 10
-6.468383032212413
 20
2.400828712761983
 30
0.0
 11
-6.534462813609231
 21
2.367054877468947
 31
0.0
  0
LINE
  5
18B
330
1F
100
AcDbEntity
  8
0
100
AcDbLine
 10
-6.534462813609231
 20
2.367054877468947
 30
0.0
 11
-6.604763521543539
 21
2.343284729724216
 31
0.0
  0
LINE
  5
18C
330
1F
100
AcDbEntity
  8
0
100
AcDbLine
 10
-6.354423756458798
 20
2.495296862546892
 30
0.0
 11
-6.407938713066514
 21
2.443883256573914
 31
0.0
  0
LINE
  5
18D
330
1F
100
AcDbEntity
  8
0
100
AcDbLine
 10
-6.407938713066514
 20
2.443883256573914
 30
0.0
 11
-6.468383032212413
 21
2.400828712761983
 31
0.0
  0
LINE
  5
18E
330
1F
100
AcDbEntity
  8
0
100
AcDbLine
 10
-6.229855269927131
 20
2.760363606351527
 30
0.0
 11
-6.246025630393167
 21
2.687936201992006
 31
0.0
  0
LINE
  5
18F
330
1F
100
AcDbEntity
  8
0
100
AcDbLine
 10
-6.246025630393167
 20
2.687936201992006
 30
0.0
 11
-6.27259134304097
 21
2.618643544578777
 31
0.0
  0
LINE
  5
190
330
1F
100
AcDbEntity
  8
0
100
AcDbLine
 10
-6.27259134304097
 20
2.618643544578777
 30
0.0
 11
-6.308983729395385
 21
2.553968946201298
 31
0.0
  0
LINE
  5
191
330
1F
100
AcDbEntity
  8
0
100
AcDbLine
 10
-6.308983729395385
 20
2.553968946201298
 30
0.0
 11
-6.354423756458798
 21
2.495296862546892
 31
0.0
  0
LINE
  5
192
330
1F
100
AcDbEntity
  8
0
100
AcDbLine
 10
-6.217795140185648
 20
3.245823833719234
 30
0.0
 11
-6.224426412188168
 21
3.12785512997918
 31
0.0
  0
LINE
  5
193
330
1F
100
AcDbEntity
  8
0
100
AcDbLine
 10
-6.224426412188168
 20
2.834375341660931
 30
0.0
 11
-6.229855269927131
 21
2.760363606351527
 31
0.0
  0
LINE
  5
194
330
1F
100
AcDbEntity
  8
0
100
AcDbLine
 10
-6.11998865322251
 20
3.584978719153669
 30
0.0
 11
-6.165245211861578
 21
3.47583462755636
 31
0.0
  0
LINE
  5
195
330
1F
100
AcDbEntity
  8
0
100
AcDbLine
 10
-6.165245211861578
 20
3.47583462755636
 30
0.0
 11
-6.197984874240696
 21
3.362306202314966
 31
0.0
  0
LINE
  5
196
330
1F
100
AcDbEntity
  8
0
100
AcDbLine
 10
-6.197984874240696
 20
3.362306202314966
 30
0.0
 11
-6.217795140185648
 21
3.245823833719234
 31
0.0
  0
LINE
  5
197
330
1F
100
AcDbEntity
  8
0
100
AcDbLine
 10
-5.915563180661207
 20
3.872732731070523
 30
0.0
 11
-5.99435619066021
 21
3.784685866244052
 31
0.0
  0
LINE
  5
198
330
1F
100
AcDbEntity
  8
0
100
AcDbLine
 10
-5.99435619066021
 20
3.784685866244052
 30
0.0
 11
-6.062785403907049
 21
3.68836332680026
 31
0.0
  0
LINE
  5
199
330
1F
100
AcDbEntity
  8
0
100
AcDbLine
 10
-6.062785403907049
 20
3.68836332680026
 30
0.0
 11
-6.11998865322251
 21
3.584978719153669
 31
0.0
  0
LINE
  5
19A
330
1F
100
AcDbEntity
  8
0
100
AcDbLine
 10
-5.627505171041625
 20
4.07672961413521
 30
0.0
 11
-5.730974819349916
 21
4.019680330972195
 31
0.0
  0
LINE
  5
19B
330
1F
100
AcDbEntity
  8
0
100
AcDbLine
 10
-5.730974819349916
 20
4.019680330972195
 30
0.0
 11
-5.827399118732749
 21
3.951394583418179
 31
0.0
  0
LINE
  5
19C
330
1F
100
AcDbEntity
  8
0
100
AcDbLine
 10
-5.827399118732749
 20
3.951394583418179
 30
0.0
 11
-5.915563180661207
 21
3.872732731070523
 31
0.0
  0
LINE
  5
19D
330
1F
100
AcDbEntity
  8
0
100
AcDbLine
 10
-5.518293829521341
 20
4.121823646044134
 30
0.0
 11
-5.627505171041625
 21
4.07672961413521
 31
0.0
  0
LINE
  5
19E
330
1F
100
AcDbEntity
  8
0
100
AcDbLine
 10
-5.404716792404562
 20
4.154394268854467
 30
0.0
 11
-5.518293829521341
 21
4.121823646044134
 31
0.0
  0
LINE
  5
19F
330
1F
100
AcDbEntity
  8
0
100
AcDbLine
 10
-6.224426412188168
 20
3.12785512997918
 30
0.0
 11
-6.224426412188168
 21
2.834375341660931
 31
0.0
  0
LINE
  5
1A0
330
1F
100
AcDbEntity
  8
0
100
AcDbLine
 10
-9.543099740791185
 20
1.78855145773156
 30
0.0
 11
-9.521697749839658
 21
1.772129132478064
 31
0.0
  0
LINE
  5
1A1
330
1F
100
AcDbEntity
  8
0
100
AcDbLine
 10
-9.521697749839658
 20
1.772129132478064
 30
0.0
 11
-9.496774603505258
 21
1.761805627249341
 31
0.0
  0
LINE
  5
1A2
330
1F
100
AcDbEntity
  8
0
100
AcDbLine
 10
-9.443282942540902
 20
1.96143922374967
 30
0.0
 11
-9.470028773023143
 21
1.964960379132702
 31
0.0
  0
LINE
  5
1A3
330
1F
100
AcDbEntity
  8
0
100
AcDbLine
 10
-9.470028773023143
 20
1.964960379132702
 30
0.0
 11
-9.496774603505258
 21
1.96143922374967
 31
0.0
  0
LINE
  5
1A4
330
1F
100
AcDbEntity
  8
0
100
AcDbLine
 10
-6.126808998183767
 20
-3.917585890635982
 30
0.0
 11
-6.030880729490937
 21
-4.114050032761437
 31
0.0
  0
LINE
  5
1A5
330
1F
100
AcDbEntity
  8
0
100
AcDbLine
 10
-9.366690819389891
 20
1.861622425499522
 30
0.0
 11
-9.370211974772955
 21
1.888368255981708
 31
0.0
  0
LINE
  5
1A6
330
1F
100
AcDbEntity
  8
0
100
AcDbLine
 10
-9.370211974772955
 20
1.888368255981708
 30
0.0
 11
-9.380535480001678
 21
1.913291402316076
 31
0.0
  0
LINE
  5
1A7
330
1F
100
AcDbEntity
  8
0
100
AcDbLine
 10
-9.380535480001678
 20
1.913291402316076
 30
0.0
 11
-9.396957805255228
 21
1.934693393267484
 31
0.0
  0
LINE
  5
1A8
330
1F
100
AcDbEntity
  8
0
100
AcDbLine
 10
-9.496774603505258
 20
1.761805627249341
 30
0.0
 11
-9.470028773023143
 21
1.758284471866317
 31
0.0
  0
LINE
  5
1A9
330
1F
100
AcDbEntity
  8
0
100
AcDbLine
 10
-9.470028773023143
 20
1.758284471866317
 30
0.0
 11
-9.443282942540902
 21
1.761805627249341
 31
0.0
  0
LINE
  5
1AA
330
1F
100
AcDbEntity
  8
0
100
AcDbLine
 10
-9.443282942540902
 20
1.761805627249341
 30
0.0
 11
-9.418359796206596
 21
1.772129132478064
 31
0.0
  0
LINE
  5
1AB
330
1F
100
AcDbEntity
  8
0
100
AcDbLine
 10
-5.730756889535393
 20
3.5017364538394
 30
0.0
 11
-5.745509579597147
 21
3.482510373833257
 31
0.0
  0
LINE
  5
1AC
330
1F
100
AcDbEntity
  8
0
100
AcDbLine
 10
-5.711530809529243
 20
3.516489143901155
 30
0.0
 11
-5.730756889535393
 21
3.5017364538394
 31
0.0
  0
LINE
  5
1AD
330
1F
100
AcDbEntity
  8
0
100
AcDbLine
 10
-5.689141565158535
 20
3.525763072570793
 30
0.0
 11
-5.711530809529243
 21
3.516489143901155
 31
0.0
  0
LINE
  5
1AE
330
1F
100
AcDbEntity
  8
0
100
AcDbLine
 10
-5.665114946427142
 20
3.528926236935365
 30
0.0
 11
-5.689141565158535
 21
3.525763072570793
 31
0.0
  0
LINE
  5
1AF
330
1F
100
AcDbEntity
  8
0
100
AcDbLine
 10
-5.641088327695749
 20
3.525763072570793
 30
0.0
 11
-5.665114946427142
 21
3.528926236935365
 31
0.0
  0
LINE
  5
1B0
330
1F
100
AcDbEntity
  8
0
100
AcDbLine
 10
-5.618699083325026
 20
3.516489143901163
 30
0.0
 11
-5.641088327695749
 21
3.525763072570793
 31
0.0
  0
LINE
  5
1B1
330
1F
100
AcDbEntity
  8
0
100
AcDbLine
 10
-5.599473003318876
 20
3.5017364538394
 30
0.0
 11
-5.618699083325026
 21
3.516489143901163
 31
0.0
  0
LINE
  5
1B2
330
1F
100
AcDbEntity
  8
0
100
AcDbLine
 10
-5.584720313257121
 20
3.482510373833249
 30
0.0
 11
-5.599473003318876
 21
3.5017364538394
 31
0.0
  0
LINE
  5
1B3
330
1F
100
AcDbEntity
  8
0
100
AcDbLine
 10
-5.573283492037068
 20
2.567341542414215
 30
0.0
 11
-5.570044029084603
 21
2.591947706457823
 31
0.0
  0
LINE
  5
1B4
330
1F
100
AcDbEntity
  8
0
100
AcDbLine
 10
-5.747448776006936
 20
2.544412247786577
 30
0.0
 11
-5.732340236773704
 21
2.524722416111301
 31
0.0
  0
LINE
  5
1B5
330
1F
100
AcDbEntity
  8
0
100
AcDbLine
 10
-5.584720313257137
 20
3.389678647629041
 30
0.0
 11
-5.575446384587482
 21
3.412067891999756
 31
0.0
  0
LINE
  5
1B6
330
1F
100
AcDbEntity
  8
0
100
AcDbLine
 10
-5.711530809529258
 20
3.355699877561135
 30
0.0
 11
-5.689141565158535
 21
3.346425948891505
 31
0.0
  0
LINE
  5
1B7
330
1F
100
AcDbEntity
  8
0
100
AcDbLine
 10
-9.496774603505258
 20
1.96143922374967
 30
0.0
 11
-9.521697749839658
 21
1.951115718520948
 31
0.0
  0
LINE
  5
1B8
330
1F
100
AcDbEntity
  8
0
100
AcDbLine
 10
-9.521697749839658
 20
1.951115718520948
 30
0.0
 11
-9.543099740791185
 21
1.934693393267484
 31
0.0
  0
LINE
  5
1B9
330
1F
100
AcDbEntity
  8
0
100
AcDbLine
 10
-9.543099740791185
 20
1.934693393267484
 30
0.0
 11
-9.559522066044513
 21
1.913291402316076
 31
0.0
  0
LINE
  5
1BA
330
1F
100
AcDbEntity
  8
0
100
AcDbLine
 10
-9.559522066044513
 20
1.913291402316076
 30
0.0
 11
-9.569845571273204
 21
1.888368255981708
 31
0.0
  0
LINE
  5
1BB
330
1F
100
AcDbEntity
  8
0
100
AcDbLine
 10
-9.569845571273204
 20
1.888368255981708
 30
0.0
 11
-9.573366726656364
 21
1.861622425499522
 31
0.0
  0
LINE
  5
1BC
330
1F
100
AcDbEntity
  8
0
100
AcDbLine
 10
-9.573366726656364
 20
1.861622425499522
 30
0.0
 11
-9.569845571273204
 21
1.834876595017304
 31
0.0
  0
LINE
  5
1BD
330
1F
100
AcDbEntity
  8
0
100
AcDbLine
 10
-9.569845571273204
 20
1.834876595017304
 30
0.0
 11
-9.559522066044513
 21
1.809953448682904
 31
0.0
  0
LINE
  5
1BE
330
1F
100
AcDbEntity
  8
0
100
AcDbLine
 10
-5.785738457508572
 20
-4.475547946047611
 30
0.0
 11
-5.638709652358438
 21
-4.637359324917016
 31
0.0
  0
LINE
  5
1BF
330
1F
100
AcDbEntity
  8
0
100
AcDbLine
 10
-6.030880729490937
 20
-4.114050032761437
 30
0.0
 11
-5.916851731113411
 21
-4.300591661907527
 31
0.0
  0
LINE
  5
1C0
330
1F
100
AcDbEntity
  8
0
100
AcDbLine
 10
-9.884814254482293
 20
2.050279461584517
 30
0.0
 11
-9.909205438656805
 21
1.991908141516404
 31
0.0
  0
LINE
  5
1C1
330
1F
100
AcDbEntity
  8
0
100
AcDbLine
 10
-5.575446384587498
 20
3.460121129462542
 30
0.0
 11
-5.584720313257121
 21
3.482510373833249
 31
0.0
  0
LINE
  5
1C2
330
1F
100
AcDbEntity
  8
0
100
AcDbLine
 10
-9.418359796206596
 20
1.772129132478064
 30
0.0
 11
-9.396957805255228
 21
1.78855145773156
 31
0.0
  0
LINE
  5
1C3
330
1F
100
AcDbEntity
  8
0
100
AcDbLine
 10
-9.396957805255228
 20
1.78855145773156
 30
0.0
 11
-9.380535480001678
 21
1.809953448682904
 31
0.0
  0
LINE
  5
1C4
330
1F
100
AcDbEntity
  8
0
100
AcDbLine
 10
-9.380535480001678
 20
1.809953448682904
 30
0.0
 11
-9.370211974772955
 21
1.834876595017304
 31
0.0
  0
LINE
  5
1C5
330
1F
100
AcDbEntity
  8
0
100
AcDbLine
 10
-9.370211974772955
 20
1.834876595017304
 30
0.0
 11
-9.366690819389891
 21
1.861622425499522
 31
0.0
  0
LINE
  5
1C6
330
1F
100
AcDbEntity
  8
0
100
AcDbLine
 10
-9.396957805255228
 20
1.934693393267484
 30
0.0
 11
-9.418359796206596
 21
1.951115718520948
 31
0.0
  0
LINE
  5
1C7
330
1F
100
AcDbEntity
  8
0
 62
    49
100
AcDbLine
 10
-4.213980332232482
 20
4.154394268854467
 30
0.0
 11
9.418514550621989
 21
4.154394268854472
 31
0.0
  0
LINE
  5
1C8
330
1F
100
AcDbEntity
  8
0
 62
    49
100
AcDbLine
 10
-4.213980332232494
 20
-5.298569704643931
 30
0.0
 11
9.418514550621992
 21
-5.298569704643925
 31
0.0
  0
LINE
  5
1C9
330
1F
100
AcDbEntity
  8
0
 62
    49
100
AcDbLine
 10
9.258471920049958
 20
4.25041984719769
 30
0.0
 11
9.354497498393176
 21
4.15439426885447
 31
0.0
  0
LINE
  5
1CA
330
1F
100
AcDbEntity
  8
0
 62
    49
100
AcDbLine
 10
9.354497498393176
 20
4.15439426885447
 30
0.0
 11
9.450523076736395
 21
4.058368690511251
 31
0.0
  0
LINE
  5
1CB
330
1F
100
AcDbEntity
  8
0
 62
    49
100
AcDbLine
 10
9.354497498393176
 20
4.15439426885447
 30
0.0
 11
9.354497498393176
 21
4.25041984719769
 31
0.0
  0
LINE
  5
1CC
330
1F
100
AcDbEntity
  8
0
 62
    49
100
AcDbLine
 10
9.450523076736395
 20
-5.394595282987146
 30
0.0
 11
9.354497498393176
 21
-5.298569704643927
 31
0.0
  0
LINE
  5
1CD
330
1F
100
AcDbEntity
  8
0
 62
    49
100
AcDbLine
 10
9.354497498393176
 20
-5.298569704643927
 30
0.0
 11
9.258471920049958
 21
-5.202544126300708
 31
0.0
  0
LINE
  5
1CE
330
1F
100
AcDbEntity
  8
0
 62
    49
100
AcDbLine
 10
9.354497498393176
 20
-5.298569704643927
 30
0.0
 11
9.354497498393176
 21
-5.394595282987146
 31
0.0
  0
LINE
  5
1CF
330
1F
100
AcDbEntity
  8
0
 62
    49
100
AcDbLine
 10
9.354497498393176
 20
4.154394268854472
 30
0.0
 11
9.354497498393195
 21
-0.3160195089794656
 31
0.0
  0
LINE
  5
1D0
330
1F
100
AcDbEntity
  8
0
 62
    49
100
AcDbLine
 10
9.354497498393195
 20
-0.8281559268099766
 30
0.0
 11
9.354497498393181
 21
-5.298569704643925
 31
0.0
  0
MTEXT
  5
1D2
330
1F
100
AcDbEntity
  8
0
 62
    49
100
AcDbMText
 10
8.927717150201092
 20
-0.6901953382337523
 30
0.0
 40
0.2374213219420424
 41
0.0
 71
     7
 72
     1
  1
8 7/16"
  7
TAHOMA
  0
ENDSEC
  0
SECTION
  2
OBJECTS
  0
DICTIONARY
  5
C
330
0
100
AcDbDictionary
  3
ACAD_GROUP
350
D
  3
ACAD_LAYOUT
350
1A
  3
ACAD_MATERIAL
350
43
  3
ACAD_MLEADERSTYLE
350
1F5
  3
ACAD_MLINESTYLE
350
17
  3
ACAD_PLOTSETTINGS
350
19
  3
ACAD_SCALELIST
350
47
  3
ACAD_VISUALSTYLE
350
2A
  3
ACDBHEADERROUNDTRIPXREC
350
1D3
  3
ACDBVARIABLEDICTIONARY
350
1F3
  0
DICTIONARY
  5
1FA
330
8
100
AcDbDictionary
280
     1
  3
ACAD_XREC_ROUNDTRIP
360
1FB
  0
DICTIONARY
  5
D
102
{ACAD_REACTORS
330
C
102
}
330
C
100
AcDbDictionary
  0
DICTIONARY
  5
1A
102
{ACAD_REACTORS
330
C
102
}
330
C
100
AcDbDictionary
  0
DICTIONARY
  5
43
102
{ACAD_REACTORS
330
C
102
}
330
C
100
AcDbDictionary
  3
BYBLOCK
350
45
  3
BYLAYER
350
44
  3
GLOBAL
350
46
  0
DICTIONARY
  5
1F5
102
{ACAD_REACTORS
330
C
102
}
330
C
100
AcDbDictionary
  0
DICTIONARY
  5
17
102
{ACAD_REACTORS
330
C
102
}
330
C
100
AcDbDictionary
  3
STANDARD
350
18
  0
DICTIONARY
  5
19
102
{ACAD_REACTORS
330
C
102
}
330
C
100
AcDbDictionary
  0
DICTIONARY
  5
47
102
{ACAD_REACTORS
330
C
102
}
330
C
100
AcDbDictionary
  3
A0
350
48
  3
A1
350
49
  3
A2
350
4A
  3
A3
350
4B
  3
A4
350
4C
  3
A5
350
4D
  3
A6
350
4E
  3
A7
350
4F
  3
A8
350
50
  3
A9
350
51
  3
B0
350
52
  3
B1
350
53
  3
B2
350
54
  3
B3
350
55
  3
B4
350
56
  3
B5
350
57
  3
B6
350
58
  3
B7
350
59
  3
B8
350
5A
  3
B9
350
5B
  3
C0
350
5C
  3
C1
350
5D
  3
C2
350
5E
  3
C3
350
5F
  3
C4
350
60
  3
C5
350
61
  3
C6
350
62
  3
C7
350
63
  3
C8
350
64
  3
C9
350
65
  3
D0
350
66
  3
D1
350
67
  3
D2
350
68
  0
DICTIONARY
  5
2A
102
{ACAD_REACTORS
330
C
102
}
330
C
100
AcDbDictionary
  3
2DWIREFRAME
350
2F
  3
BASIC
350
32
  3
BRIGHTEN
350
36
  3
COLORCHANGE
350
3A
  3
CONCEPTUAL
350
34
  3
DIM
350
35
  3
EDGECOLOROFF
350
3D
  3
FACEPATTERN
350
39
  3
FLAT
350
2B
  3
FLATWITHEDGES
350
2C
  3
GOURAUD
350
2D
  3
GOURAUDWITHEDGES
350
2E
  3
HIDDEN
350
31
  3
JITTEROFF
350
3B
  3
LINEPATTERN
350
38
  3
OVERHANGOFF
350
3C
  3
REALISTIC
350
33
  3
SHADED
350
42
  3
SHADED_WITH_EDGES
350
41
  3
SHADES_OF_GRAY
350
3E
  3
SKETCHY
350
3F
  3
THICKEN
350
37
  3
WIREFRAME
350
30
  3
X-RAY
350
40
  0
DICTIONARY
  5
1D3
102
{ACAD_REACTORS
330
C
102
}
330
C
100
AcDbDictionary
  3
CEPSNTYPE
350
1DC
  3
DIMSTYLEDATA
350
1F2
  3
FINGERPRINTGUID
350
1DD
  3
HYPERLINKBASE
350
1D6
  3
INSUNITS
350
1DB
  3
LAYOUTDICT
350
1D8
  3
LWETCUNION
350
1DA
  3
PLOTSETDICT
350
1D9
  3
PSVPSCALE
350
1DF
  3
PUCSBASE
350
1E2
  3
PUCSORGBACK
350
1E8
  3
PUCSORGBOTTOM
350
1E4
  3
PUCSORGFRONT
350
1E7
  3
PUCSORGLEFT
350
1E5
  3
PUCSORGRIGHT
350
1E6
  3
PUCSORGTOP
350
1E3
  3
PUCSORTHOREF
350
1E0
  3
PUCSORTHOVIEW
350
1E1
  3
STYLESHEET
350
1D7
  3
TSTACKALIGN
350
1D4
  3
TSTACKSIZE
350
1D5
  3
UCSBASE
350
1EB
  3
UCSORGBACK
350
1F1
  3
UCSORGBOTTOM
350
1ED
  3
UCSORGFRONT
350
1F0
  3
UCSORGLEFT
350
1EE
  3
UCSORGRIGHT
350
1EF
  3
UCSORGTOP
350
1EC
  3
UCSORTHOREF
350
1E9
  3
UCSORTHOVIEW
350
1EA
  3
VERSIONGUID
350
1DE
  0
DICTIONARY
  5
1F3
102
{ACAD_REACTORS
330
C
102
}
330
C
100
AcDbDictionary
  3
CANNOSCALE
350
1FC
  3
DIMASSOC
350
1F8
  3
HIDETEXT
350
1F9
  3
MSLTSCALE
350
1FD
  0
XRECORD
  5
1FB
102
{ACAD_REACTORS
330
1FA
102
}
330
1FA
100
AcDbXrecord
102
VTR_0.000_0.000_1.000_1.000_GRIDDISPLAY
 70
     3
102
VTR_0.000_0.000_1.000_1.000_GRIDMAJOR
 70
     5
102
VTR_0.000_0.000_1.000_1.000_DEFAULTLIGHTING
280
     1
102
VTR_0.000_0.000_1.000_1.000_DEFAULTLIGHTINGTYPE
 70
     1
102
VTR_0.000_0.000_1.000_1.000_BRIGHTNESS
141
0.0
102
VTR_0.000_0.000_1.000_1.000_CONTRAST
142
0.0
  0
MATERIAL
  5
45
102
{ACAD_REACTORS
330
43
102
}
102
{ACAD_XDICTIONARY
360
200
102
}
330
43
100
AcDbMaterial
  1
BYBLOCK
  0
MATERIAL
  5
44
102
{ACAD_REACTORS
330
43
102
}
102
{ACAD_XDICTIONARY
360
1FE
102
}
330
43
100
AcDbMaterial
  1
BYLAYER
  0
MATERIAL
  5
46
102
{ACAD_REACTORS
330
43
102
}
102
{ACAD_XDICTIONARY
360
202
102
}
330
43
100
AcDbMaterial
  1
GLOBAL
  0
MLINESTYLE
  5
18
102
{ACAD_REACTORS
330
17
102
}
330
17
100
AcDbMlineStyle
  2
Standard
 70
     0
  3

 62
   256
 51
90.0
 52
90.0
 71
     2
 49
0.5
 62
   256
  6
BYLAYER
 49
-0.5
 62
   256
  6
BYLAYER
  0
ACAD_PROXY_OBJECT
  5
48
102
{ACAD_REACTORS
330
47
102
}
330
47
100
AcDbProxyObject
 90
      499
 91
      503
 93
       41
310
903313A31580
  0
ACAD_PROXY_OBJECT
  5
49
102
{ACAD_REACTORS
330
47
102
}
330
47
100
AcDbProxyObject
 90
      499
 91
      503
 93
      105
310
903313A324000000000000004000
  0
ACAD_PROXY_OBJECT
  5
4A
102
{ACAD_REACTORS
330
47
102
}
330
47
100
AcDbProxyObject
 90
      499
 91
      503
 93
      105
310
903313A344000000000000104000
  0
ACAD_PROXY_OBJECT
  5
4B
102
{ACAD_REACTORS
330
47
102
}
330
47
100
AcDbProxyObject
 90
      499
 91
      503
 93
      105
310
903313A354000000000000144000
  0
ACAD_PROXY_OBJECT
  5
4C
102
{ACAD_REACTORS
330
47
102
}
330
47
100
AcDbProxyObject
 90
      499
 91
      503
 93
      105
310
903313A384000000000000204000
  0
ACAD_PROXY_OBJECT
  5
4D
102
{ACAD_REACTORS
330
47
102
}
330
47
100
AcDbProxyObject
 90
      499
 91
      503
 93
      113
310
904313A31304000000000000244000
  0
ACAD_PROXY_OBJECT
  5
4E
102
{ACAD_REACTORS
330
47
102
}
330
47
100
AcDbProxyObject
 90
      499
 91
      503
 93
      113
310
904313A31364000000000000304000
  0
ACAD_PROXY_OBJECT
  5
4F
102
{ACAD_REACTORS
330
47
102
}
330
47
100
AcDbProxyObject
 90
      499
 91
      503
 93
      113
310
904313A32304000000000000344000
  0
ACAD_PROXY_OBJECT
  5
50
102
{ACAD_REACTORS
330
47
102
}
330
47
100
AcDbProxyObject
 90
      499
 91
      503
 93
      113
310
904313A333040000000000003E4000
  0
ACAD_PROXY_OBJECT
  5
51
102
{ACAD_REACTORS
330
47
102
}
330
47
100
AcDbProxyObject
 90
      499
 91
      503
 93
      113
310
904313A34304000000000000444000
  0
ACAD_PROXY_OBJECT
  5
52
102
{ACAD_REACTORS
330
47
102
}
330
47
100
AcDbProxyObject
 90
      499
 91
      503
 93
      113
310
904313A35304000000000000494000
  0
ACAD_PROXY_OBJECT
  5
53
102
{ACAD_REACTORS
330
47
102
}
330
47
100
AcDbProxyObject
 90
      499
 91
      503
 93
      121
310
905313A3130304000000000000594000
  0
ACAD_PROXY_OBJECT
  5
54
102
{ACAD_REACTORS
330
47
102
}
330
47
100
AcDbProxyObject
 90
      499
 91
      503
 93
      105
310
903323A310000000000000010100
  0
ACAD_PROXY_OBJECT
  5
55
102
{ACAD_REACTORS
330
47
102
}
330
47
100
AcDbProxyObject
 90
      499
 91
      503
 93
      105
310
903343A310000000000000410100
  0
ACAD_PROXY_OBJECT
  5
56
102
{ACAD_REACTORS
330
47
102
}
330
47
100
AcDbProxyObject
 90
      499
 91
      503
 93
      105
310
903383A310000000000000810100
  0
ACAD_PROXY_OBJECT
  5
57
102
{ACAD_REACTORS
330
47
102
}
330
47
100
AcDbProxyObject
 90
      499
 91
      503
 93
      113
310
90431303A310000000000000910100
  0
ACAD_PROXY_OBJECT
  5
58
102
{ACAD_REACTORS
330
47
102
}
330
47
100
AcDbProxyObject
 90
      499
 91
      503
 93
      121
310
9053130303A310000000000001650100
  0
ACAD_PROXY_OBJECT
  5
59
102
{ACAD_REACTORS
330
47
102
}
330
47
100
AcDbProxyObject
 90
      499
 91
      503
 93
      257
310
90E312F31323822203D2031272D3022000000000000200FC000000000000284000
  0
ACAD_PROXY_OBJECT
  5
5A
102
{ACAD_REACTORS
330
47
102
}
330
47
100
AcDbProxyObject
 90
      499
 91
      503
 93
      249
310
90D312F363422203D2031272D3022000000000000240FC000000000000284000
  0
ACAD_PROXY_OBJECT
  5
5B
102
{ACAD_REACTORS
330
47
102
}
330
47
100
AcDbProxyObject
 90
      499
 91
      503
 93
      249
310
90D312F333222203D2031272D3022000000000000280FC000000000000284000
  0
ACAD_PROXY_OBJECT
  5
5C
102
{ACAD_REACTORS
330
47
102
}
330
47
100
AcDbProxyObject
 90
      499
 91
      503
 93
      249
310
90D312F313622203D2031272D30220000000000002C0FC000000000000284000
  0
ACAD_PROXY_OBJECT
  5
5D
102
{ACAD_REACTORS
330
47
102
}
330
47
100
AcDbProxyObject
 90
      499
 91
      503
 93
      249
310
90D332F333222203D2031272D30220000000000002E0FC000000000000284000
  0
ACAD_PROXY_OBJECT
  5
5E
102
{ACAD_REACTORS
330
47
102
}
330
47
100
AcDbProxyObject
 90
      499
 91
      503
 93
      241
310
90C312F3822203D2031272D3022000000000000300FC000000000000284000
  0
ACAD_PROXY_OBJECT
  5
5F
102
{ACAD_REACTORS
330
47
102
}
330
47
100
AcDbProxyObject
 90
      499
 91
      503
 93
      249
310
90D332F313622203D2031272D3022000000000000320FC000000000000284000
  0
ACAD_PROXY_OBJECT
  5
60
102
{ACAD_REACTORS
330
47
102
}
330
47
100
AcDbProxyObject
 90
      499
 91
      503
 93
      241
310
90C312F3422203D2031272D3022000000000000340FC000000000000284000
  0
ACAD_PROXY_OBJECT
  5
61
102
{ACAD_REACTORS
330
47
102
}
330
47
100
AcDbProxyObject
 90
      499
 91
      503
 93
      241
310
90C332F3822203D2031272D3022000000000000360FC000000000000284000
  0
ACAD_PROXY_OBJECT
  5
62
102
{ACAD_REACTORS
330
47
102
}
330
47
100
AcDbProxyObject
 90
      499
 91
      503
 93
      241
310
90C312F3222203D2031272D3022000000000000380FC000000000000284000
  0
ACAD_PROXY_OBJECT
  5
63
102
{ACAD_REACTORS
330
47
102
}
330
47
100
AcDbProxyObject
 90
      499
 91
      503
 93
      241
310
90C332F3422203D2031272D30220000000000003A0FC000000000000284000
  0
ACAD_PROXY_OBJECT
  5
64
102
{ACAD_REACTORS
330
47
102
}
330
47
100
AcDbProxyObject
 90
      499
 91
      503
 93
      161
310
90A3122203D2031272D30224000000000000284000
  0
ACAD_PROXY_OBJECT
  5
65
102
{ACAD_REACTORS
330
47
102
}
330
47
100
AcDbProxyObject
 90
      499
 91
      503
 93
      257
310
90E312D312F3222203D2031272D30220000000000003E0FC000000000000284000
  0
ACAD_PROXY_OBJECT
  5
66
102
{ACAD_REACTORS
330
47
102
}
330
47
100
AcDbProxyObject
 90
      499
 91
      503
 93
      225
310
90A3322203D2031272D302200000000000002100000000000000284000
  0
ACAD_PROXY_OBJECT
  5
67
102
{ACAD_REACTORS
330
47
102
}
330
47
100
AcDbProxyObject
 90
      499
 91
      503
 93
      225
310
90A3622203D2031272D302200000000000006100000000000000284000
  0
ACAD_PROXY_OBJECT
  5
68
102
{ACAD_REACTORS
330
47
102
}
330
47
100
AcDbProxyObject
 90
      499
 91
      503
 93
      249
310
90D31272D3022203D2031272D30220000000000000A100000000000000284000
  0
ACAD_PROXY_OBJECT
  5
2F
102
{ACAD_REACTORS
330
2A
102
}
330
2A
100
AcDbProxyObject
 90
      499
 91
      501
 93
      436
310
42CC9915DA5C99599C985B595049028333333333333E33F0000000000000F90107901411070040501600405405064090741402480A0340
1001
ACAD
1000
AcDbSavedByObjectVersion
1070
     0
  0
ACAD_PROXY_OBJECT
  5
32
102
{ACAD_REACTORS
330
2A
102
}
330
2A
100
AcDbProxyObject
 90
      499
 91
      501
 93
      388
310
4150985CDA58D07406404333333333333E33F0000000000000F90107A41107004050150841D405064090741402480A0350
1001
ACAD
1000
AcDbSavedByObjectVersion
1070
     0
  0
ACAD_PROXY_OBJECT
  5
36
102
{ACAD_REACTORS
330
2A
102
}
330
2A
100
AcDbProxyObject
 90
      499
 91
      501
 93
      428
310
42109C9A59DA1D195B90C409028333333333333E33F0000000000000F9010790141107004050150841D405064090741402480A029950
1001
ACAD
1000
AcDbSavedByObjectVersion
1070
     0
  0
ACAD_PROXY_OBJECT
  5
3A
102
{ACAD_REACTORS
330
2A
102
}
330
2A
100
AcDbProxyObject
 90
      499
 91
      501
 93
      452
310
42D0DBDB1BDC90DA185B99D95104090240C333333333333E33F0000000000000F90108901411070040501508421405064090741402480A0350
1001
ACAD
1000
AcDbSavedByObjectVersion
1070
     0
  0
ACAD_PROXY_OBJECT
  5
34
102
{ACAD_REACTORS
330
2A
102
}
330
2A
100
AcDbProxyObject
 90
      499
 91
      501
 93
      500
310
4290DBDB98D95C1D1D585B10940D028333333333333E33F0000000000000F90107902409070040501000000000018199010841D405064090740C02480A0340
1001
ACAD
1000
AcDbSavedByObjectVersion
1070
     0
  0
ACAD_PROXY_OBJECT
  5
35
102
{ACAD_REACTORS
330
2A
102
}
330
2A
100
AcDbProxyObject
 90
      499
 91
      501
 93
      412
310
40D11A5B50B409028333333333333E33F0000000000000F9010790141107004050150841D405064090741402480A02677FFFFFD0
1001
ACAD
1000
AcDbSavedByObjectVersion
1070
     0
  0
ACAD_PROXY_OBJECT
  5
3D
102
{ACAD_REACTORS
330
2A
102
}
330
2A
100
AcDbProxyObject
 90
      499
 91
      501
 93
      452
310
43115919D950DBDB1BDC93D999916409028333333333333E33F0000000000000F9010790141107004050150841D405064090741402480A0350
1001
ACAD
1000
AcDbSavedByObjectVersion
1070
     0
  0
ACAD_PROXY_OBJECT
  5
39
102
{ACAD_REACTORS
330
2A
102
}
330
2A
100
AcDbProxyObject
 90
      499
 91
      501
 93
      444
310
42D19858D95C185D1D195C9B90F409028333333333333E33F0000000000000F9010790141107004050150841D405064090741402480A0350
1001
ACAD
1000
AcDbSavedByObjectVersion
1070
     0
  0
ACAD_PROXY_OBJECT
  5
2B
102
{ACAD_REACTORS
330
2A
102
}
330
2A
100
AcDbProxyObject
 90
      499
 91
      501
 93
      380
310
41119B185D240901404333333333333E33F0000000000000F9010740A907004050150841D405064090741402480A1B50
1001
ACAD
1000
AcDbSavedByObjectVersion
1070
     0
  0
ACAD_PROXY_OBJECT
  5
2C
102
{ACAD_REACTORS
330
2A
102
}
330
2A
100
AcDbProxyObject
 90
      499
 91
      501
 93
      468
310
43519B185D15DA5D1A115919D95CD0140901404333333333333E33F0000000000000F90107409019070040501600405405064090741402480A1B50
1001
ACAD
1000
AcDbSavedByObjectVersion
1070
     0
  0
ACAD_PROXY_OBJECT
  5
2D
102
{ACAD_REACTORS
330
2A
102
}
330
2A
100
AcDbProxyObject
 90
      499
 91
      501
 93
      404
310
41D1DBDD5C985D5910240902404333333333333E33F0000000000000F9010740A9070040501641D405064090741402480A1B50
1001
ACAD
1000
AcDbSavedByObjectVersion
1070
     0
  0
ACAD_PROXY_OBJECT
  5
2E
102
{ACAD_REACTORS
330
2A
102
}
330
2A
100
AcDbProxyObject
 90
      499
 91
      501
 93
      492
310
4411DBDD5C985D5915DA5D1A115919D95CD0340902404333333333333E33F0000000000000F90107409019070040501600405405064090741402480A1B50
1001
ACAD
1000
AcDbSavedByObjectVersion
1070
     0
  0
ACAD_PROXY_OBJECT
  5
31
102
{ACAD_REACTORS
330
2A
102
}
330
2A
100
AcDbProxyObject
 90
      499
 91
      501
 93
      476
310
41921A5919195B90640502408333333333333E33F0000000000000F901079024090700405020000000000001110200405405064090740C02480A0340
1001
ACAD
1000
AcDbSavedByObjectVersion
1070
     0
  0
ACAD_PROXY_OBJECT
  5
3B
102
{ACAD_REACTORS
330
2A
102
}
330
2A
100
AcDbProxyObject
 90
      499
 91
      501
 93
      428
310
42529A5D1D195C93D999914409028333333333333E33F0000000000000F9010790141107004050150A41D405064090741402480A0350
1001
ACAD
1000
AcDbSavedByObjectVersion
1070
     0
  0
ACAD_PROXY_OBJECT
  5
38
102
{ACAD_REACTORS
330
2A
102
}
330
2A
100
AcDbProxyObject
 90
      499
 91
      501
 93
      444
310
42D31A5B995C185D1D195C9B90E409028333333333333E33F0000000000000F9010790141107004050750841D405064090741402483A0350
1001
ACAD
1000
AcDbSavedByObjectVersion
1070
     0
  0
ACAD_PROXY_OBJECT
  5
3C
102
{ACAD_REACTORS
330
2A
102
}
330
2A
100
AcDbProxyObject
 90
      499
 91
      501
 93
      444
310
42D3DD995C9A185B99D3D999915409028333333333333E33F0000000000000F9010790141107004050150941D405064090741402480A0350
1001
ACAD
1000
AcDbSavedByObjectVersion
1070
     0
  0
ACAD_PROXY_OBJECT
  5
33
102
{ACAD_REACTORS
330
2A
102
}
330
2A
100
AcDbProxyObject
 90
      499
 91
      501
 93
      428
310
425499585B1A5CDD1A58D08409038333333333333E33F0000000000000F9010740A907004050150800405405064090740C02480A1B40
1001
ACAD
1000
AcDbSavedByObjectVersion
1070
     0
  0
ACAD_PROXY_OBJECT
  5
42
102
{ACAD_REACTORS
330
2A
102
}
330
2A
100
AcDbProxyObject
 90
      499
 91
      501
 93
      420
310
4194DA1859195911B40902404333333333333E33F0000000000000F9010740A41107004050150800405405064090840C02480A0B40
1001
ACAD
1000
AcDbSavedByObjectVersion
1070
     0
  0
ACAD_PROXY_OBJECT
  5
41
102
{ACAD_REACTORS
330
2A
102
}
330
2A
100
AcDbProxyObject
 90
      499
 91
      501
 93
      516
310
4454DA18591959081DDA5D1A08195919D95CD1A40902404333333333333E33F0000000000000F901074090142907004050250800405405064090740C02480A0B40
1001
ACAD
1000
AcDbSavedByObjectVersion
1070
     0
  0
ACAD_PROXY_OBJECT
  5
3E
102
{ACAD_REACTORS
330
2A
102
}
330
2A
100
AcDbProxyObject
 90
      499
 91
      501
 93
      532
310
4394DA1859195CC81BD98811DC985E5174090240C333333333333E33F0000000000000F901079024090741D01000000000000111010841D405064090740C02480A0340
1001
ACAD
1000
AcDbSavedByObjectVersion
1070
     0
  0
ACAD_PROXY_OBJECT
  5
3F
102
{ACAD_REACTORS
330
2A
102
}
330
2A
100
AcDbProxyObject
 90
      499
 91
      501
 93
      476
310
41D4DAD95D18DA1E51840502408333333333333E33F0000000000000F901079024090741D01000000000000111010B41D405064090741802480A0340
1001
ACAD
1000
AcDbSavedByObjectVersion
1070
     0
  0
ACAD_PROXY_OBJECT
  5
37
102
{ACAD_REACTORS
330
2A
102
}
330
2A
100
AcDbProxyObject
 90
      499
 91
      501
 93
      412
310
41D51A1A58DAD95B90D409028333333333333E33F0000000000000F9010790141107004050150C41D405064090741402480A0350
1001
ACAD
1000
AcDbSavedByObjectVersion
1070
     0
  0
ACAD_PROXY_OBJECT
  5
30
102
{ACAD_REACTORS
330
2A
102
}
330
2A
100
AcDbProxyObject
 90
      499
 91
      501
 93
      420
310
4255DA5C99599C985B595059028333333333333E33F0000000000000F90107901411070040501600405405064090740C02480A0340
1001
ACAD
1000
AcDbSavedByObjectVersion
1070
     0
  0
ACAD_PROXY_OBJECT
  5
40
102
{ACAD_REACTORS
330
2A
102
}
330
2A
100
AcDbProxyObject
 90
      499
 91
      501
 93
      404
310
41560B54985E51940902404000000000000E03F0000000000000F9010740501907004050150841D405064090740C02480A1B40
1001
ACAD
1000
AcDbSavedByObjectVersion
1070
     0
  0
XRECORD
  5
1DC
102
{ACAD_REACTORS
330
1D3
102
}
330
1D3
100
AcDbXrecord
 90
        0
  0
XRECORD
  5
1F2
102
{ACAD_REACTORS
330
1D3
102
}
330
1D3
100
AcDbXrecord
1000
DSTYLE
1002
{
1070
   340
340
11
1002
}
  0
XRECORD
  5
1DD
102
{ACAD_REACTORS
330
1D3
102
}
330
1D3
100
AcDbXrecord
  1
{944E5940-9624-A472-257E-94305852634C}
  0
XRECORD
  5
1D6
102
{ACAD_REACTORS
330
1D3
102
}
330
1D3
100
AcDbXrecord
  1

  0
XRECORD
  5
1DB
102
{ACAD_REACTORS
330
1D3
102
}
330
1D3
100
AcDbXrecord
 90
        1
  0
XRECORD
  5
1D8
102
{ACAD_REACTORS
330
1D3
102
}
330
1D3
100
AcDbXrecord
340
1A
  0
XRECORD
  5
1DA
102
{ACAD_REACTORS
330
1D3
102
}
330
1D3
100
AcDbXrecord
 90
    10781
  0
XRECORD
  5
1D9
102
{ACAD_REACTORS
330
1D3
102
}
330
1D3
100
AcDbXrecord
340
19
  0
XRECORD
  5
1DF
102
{ACAD_REACTORS
330
1D3
102
}
330
1D3
100
AcDbXrecord
 40
0.0
  0
XRECORD
  5
1E2
102
{ACAD_REACTORS
330
1D3
102
}
330
1D3
100
AcDbXrecord
340
0
  0
XRECORD
  5
1E8
102
{ACAD_REACTORS
330
1D3
102
}
330
1D3
100
AcDbXrecord
 10
0.0
 20
0.0
 30
0.0
  0
XRECORD
  5
1E4
102
{ACAD_REACTORS
330
1D3
102
}
330
1D3
100
AcDbXrecord
 10
0.0
 20
0.0
 30
0.0
  0
XRECORD
  5
1E7
102
{ACAD_REACTORS
330
1D3
102
}
330
1D3
100
AcDbXrecord
 10
0.0
 20
0.0
 30
0.0
  0
XRECORD
  5
1E5
102
{ACAD_REACTORS
330
1D3
102
}
330
1D3
100
AcDbXrecord
 10
0.0
 20
0.0
 30
0.0
  0
XRECORD
  5
1E6
102
{ACAD_REACTORS
330
1D3
102
}
330
1D3
100
AcDbXrecord
 10
0.0
 20
0.0
 30
0.0
  0
XRECORD
  5
1E3
102
{ACAD_REACTORS
330
1D3
102
}
330
1D3
100
AcDbXrecord
 10
0.0
 20
0.0
 30
0.0
  0
XRECORD
  5
1E0
102
{ACAD_REACTORS
330
1D3
102
}
330
1D3
100
AcDbXrecord
340
0
  0
XRECORD
  5
1E1
102
{ACAD_REACTORS
330
1D3
102
}
330
1D3
100
AcDbXrecord
 70
     0
  0
XRECORD
  5
1D7
102
{ACAD_REACTORS
330
1D3
102
}
330
1D3
100
AcDbXrecord
  1

  0
XRECORD
  5
1D4
102
{ACAD_REACTORS
330
1D3
102
}
330
1D3
100
AcDbXrecord
 90
        1
  0
XRECORD
  5
1D5
102
{ACAD_REACTORS
330
1D3
102
}
330
1D3
100
AcDbXrecord
 90
       70
  0
XRECORD
  5
1EB
102
{ACAD_REACTORS
330
1D3
102
}
330
1D3
100
AcDbXrecord
340
0
  0
XRECORD
  5
1F1
102
{ACAD_REACTORS
330
1D3
102
}
330
1D3
100
AcDbXrecord
 10
0.0
 20
0.0
 30
0.0
  0
XRECORD
  5
1ED
102
{ACAD_REACTORS
330
1D3
102
}
330
1D3
100
AcDbXrecord
 10
0.0
 20
0.0
 30
0.0
  0
XRECORD
  5
1F0
102
{ACAD_REACTORS
330
1D3
102
}
330
1D3
100
AcDbXrecord
 10
0.0
 20
0.0
 30
0.0
  0
XRECORD
  5
1EE
102
{ACAD_REACTORS
330
1D3
102
}
330
1D3
100
AcDbXrecord
 10
0.0
 20
0.0
 30
0.0
  0
XRECORD
  5
1EF
102
{ACAD_REACTORS
330
1D3
102
}
330
1D3
100
AcDbXrecord
 10
0.0
 20
0.0
 30
0.0
  0
XRECORD
  5
1EC
102
{ACAD_REACTORS
330
1D3
102
}
330
1D3
100
AcDbXrecord
 10
0.0
 20
0.0
 30
0.0
  0
XRECORD
  5
1E9
102
{ACAD_REACTORS
330
1D3
102
}
330
1D3
100
AcDbXrecord
340
0
  0
XRECORD
  5
1EA
102
{ACAD_REACTORS
330
1D3
102
}
330
1D3
100
AcDbXrecord
 70
     0
  0
XRECORD
  5
1DE
102
{ACAD_REACTORS
330
1D3
102
}
330
1D3
100
AcDbXrecord
  1
{FAEB1C32-E019-11D5-929B-00C0DF256EC4}
  0
DICTIONARYVAR
  5
1FC
102
{ACAD_REACTORS
330
1F3
102
}
330
1F3
100
DictionaryVariables
280
     0
  1
1:1
  0
DICTIONARYVAR
  5
1F8
102
{ACAD_REACTORS
330
1F3
102
}
330
1F3
100
DictionaryVariables
280
     0
  1
2
  0
DICTIONARYVAR
  5
1F9
102
{ACAD_REACTORS
330
1F3
102
}
330
1F3
100
DictionaryVariables
280
     0
  1
1
  0
DICTIONARYVAR
  5
1FD
102
{ACAD_REACTORS
330
1F3
102
}
330
1F3
100
DictionaryVariables
280
     0
  1
1
  0
DICTIONARY
  5
200
330
45
100
AcDbDictionary
280
     1
  3
ACAD_XREC_ROUNDTRIP
360
201
  0
DICTIONARY
  5
1FE
330
44
100
AcDbDictionary
280
     1
  3
ACAD_XREC_ROUNDTRIP
360
1FF
  0
DICTIONARY
  5
202
330
46
100
AcDbDictionary
280
     1
  3
ACAD_XREC_ROUNDTRIP
360
203
  0
XRECORD
  5
201
102
{ACAD_REACTORS
330
200
102
}
330
200
100
AcDbXrecord
102
MATERIAL
148
0.0
149
0.0
149
0.0
 93
        0
 94
      127
282
     0
 72
     1
 77
     1
171
     1
175
     1
179
     1
273
     0
  0
XRECORD
  5
1FF
102
{ACAD_REACTORS
330
1FE
102
}
330
1FE
100
AcDbXrecord
102
MATERIAL
148
0.0
149
0.0
149
0.0
 93
        0
 94
      127
282
     0
 72
     1
 77
     1
171
     1
175
     1
179
     1
273
     0
  0
XRECORD
  5
203
102
{ACAD_REACTORS
330
202
102
}
330
202
100
AcDbXrecord
102
MATERIAL
148
0.0
149
0.0
149
0.0
 93
        0
 94
      127
282
     0
 72
     1
 77
     1
171
     1
175
     1
179
     1
273
     0
  0
ENDSEC
  0
EOF
