  0
SECTION
  2
HEADER
  9
$ACADVER
  1
AC1018
  9
$ACADMAINTVER
 70
     0
  9
$DWGCODEPAGE
  3
ANSI_1252
  9
$INSBASE
 10
0.0
 20
0.0
 30
0.0
  9
$EXTMIN
 10
1.000000000000000E+20
 20
1.000000000000000E+20
 30
1.000000000000000E+20
  9
$EXTMAX
 10
-1.000000000000000E+20
 20
-1.000000000000000E+20
 30
-1.000000000000000E+20
  9
$LIMMIN
 10
0.0
 20
0.0
  9
$LIMMAX
 10
12.0
 20
9.0
  9
$ORTHOMODE
 70
     0
  9
$REGENMODE
 70
     1
  9
$FILLMODE
 70
     1
  9
$QTEXTMODE
 70
     0
  9
$MIRRTEXT
 70
     1
  9
$LTSCALE
 40
1.0
  9
$ATTMODE
 70
     1
  9
$TEXTSIZE
 40
0.2
  9
$TRACEWID
 40
0.05
  9
$TEXTSTYLE
  7
Standard
  9
$CLAYER
  8
0
  9
$CELTYPE
  6
ByLayer
  9
$CECOLOR
 62
   256
  9
$CELTSCALE
 40
1.0
  9
$DISPSILH
 70
     0
  9
$DIMSCALE
 40
1.0
  9
$DIMASZ
 40
0.18
  9
$DIMEXO
 40
0.0625
  9
$DIMDLI
 40
0.38
  9
$DIMRND
 40
0.0
  9
$DIMDLE
 40
0.0
  9
$DIMEXE
 40
0.18
  9
$DIMTP
 40
0.0
  9
$DIMTM
 40
0.0
  9
$DIMTXT
 40
0.18
  9
$DIMCEN
 40
0.09
  9
$DIMTSZ
 40
0.0
  9
$DIMTOL
 70
     0
  9
$DIMLIM
 70
     0
  9
$DIMTIH
 70
     1
  9
$DIMTOH
 70
     1
  9
$DIMSE1
 70
     0
  9
$DIMSE2
 70
     0
  9
$DIMTAD
 70
     0
  9
$DIMZIN
 70
     0
  9
$DIMBLK
  1

  9
$DIMASO
 70
     1
  9
$DIMSHO
 70
     1
  9
$DIMPOST
  1

  9
$DIMAPOST
  1

  9
$DIMALT
 70
     0
  9
$DIMALTD
 70
     2
  9
$DIMALTF
 40
25.4
  9
$DIMLFAC
 40
1.0
  9
$DIMTOFL
 70
     0
  9
$DIMTVP
 40
0.0
  9
$DIMTIX
 70
     0
  9
$DIMSOXD
 70
     0
  9
$DIMSAH
 70
     0
  9
$DIMBLK1
  1

  9
$DIMBLK2
  1

  9
$DIMSTYLE
  2
Standard
  9
$DIMCLRD
 70
     0
  9
$DIMCLRE
 70
     0
  9
$DIMCLRT
 70
     0
  9
$DIMTFAC
 40
1.0
  9
$DIMGAP
 40
0.09
  9
$DIMJUST
 70
     0
  9
$DIMSD1
 70
     0
  9
$DIMSD2
 70
     0
  9
$DIMTOLJ
 70
     1
  9
$DIMTZIN
 70
     0
  9
$DIMALTZ
 70
     0
  9
$DIMALTTZ
 70
     0
  9
$DIMUPT
 70
     0
  9
$DIMDEC
 70
     4
  9
$DIMTDEC
 70
     4
  9
$DIMALTU
 70
     2
  9
$DIMALTTD
 70
     2
  9
$DIMTXSTY
  7
Standard
  9
$DIMAUNIT
 70
     0
  9
$DIMADEC
 70
     0
  9
$DIMALTRND
 40
0.0
  9
$DIMAZIN
 70
     0
  9
$DIMDSEP
 70
    46
  9
$DIMATFIT
 70
     3
  9
$DIMFRAC
 70
     0
  9
$DIMLDRBLK
  1

  9
$DIMLUNIT
 70
     2
  9
$DIMLWD
 70
    -2
  9
$DIMLWE
 70
    -2
  9
$DIMTMOVE
 70
     0
  9
$LUNITS
 70
     2
  9
$LUPREC
 70
     4
  9
$SKETCHINC
 40
0.1
  9
$FILLETRAD
 40
0.5
  9
$AUNITS
 70
     0
  9
$AUPREC
 70
     0
  9
$MENU
  1
.
  9
$ELEVATION
 40
0.0
  9
$PELEVATION
 40
0.0
  9
$THICKNESS
 40
0.0
  9
$LIMCHECK
 70
     0
  9
$CHAMFERA
 40
0.5
  9
$CHAMFERB
 40
0.5
  9
$CHAMFERC
 40
1.0
  9
$CHAMFERD
 40
0.0
  9
$SKPOLY
 70
     0
  9
$TDCREATE
 40
2458854.971045266
  9
$TDUCREATE
 40
2458855.221045266
  9
$TDUPDATE
 40
2458854.971045637
  9
$TDUUPDATE
 40
2458855.221045637
  9
$TDINDWG
 40
0.0000000116
  9
$TDUSRTIMER
 40
0.0000000116
  9
$USRTIMER
 70
     1
  9
$ANGBASE
 50
0.0
  9
$ANGDIR
 70
     0
  9
$PDMODE
 70
     0
  9
$PDSIZE
 40
0.0
  9
$PLINEWID
 40
0.0
  9
$SPLFRAME
 70
     0
  9
$SPLINETYPE
 70
     6
  9
$SPLINESEGS
 70
     8
  9
$HANDSEED
  5
39C
  9
$SURFTAB1
 70
     6
  9
$SURFTAB2
 70
     6
  9
$SURFTYPE
 70
     6
  9
$SURFU
 70
     6
  9
$SURFV
 70
     6
  9
$UCSBASE
  2

  9
$UCSNAME
  2

  9
$UCSORG
 10
0.0
 20
0.0
 30
0.0
  9
$UCSXDIR
 10
1.0
 20
0.0
 30
0.0
  9
$UCSYDIR
 10
0.0
 20
1.0
 30
0.0
  9
$UCSORTHOREF
  2

  9
$UCSORTHOVIEW
 70
     0
  9
$UCSORGTOP
 10
0.0
 20
0.0
 30
0.0
  9
$UCSORGBOTTOM
 10
0.0
 20
0.0
 30
0.0
  9
$UCSORGLEFT
 10
0.0
 20
0.0
 30
0.0
  9
$UCSORGRIGHT
 10
0.0
 20
0.0
 30
0.0
  9
$UCSORGFRONT
 10
0.0
 20
0.0
 30
0.0
  9
$UCSORGBACK
 10
0.0
 20
0.0
 30
0.0
  9
$PUCSBASE
  2

  9
$PUCSNAME
  2

  9
$PUCSORG
 10
0.0
 20
0.0
 30
0.0
  9
$PUCSXDIR
 10
1.0
 20
0.0
 30
0.0
  9
$PUCSYDIR
 10
0.0
 20
1.0
 30
0.0
  9
$PUCSORTHOREF
  2

  9
$PUCSORTHOVIEW
 70
     0
  9
$PUCSORGTOP
 10
0.0
 20
0.0
 30
0.0
  9
$PUCSORGBOTTOM
 10
0.0
 20
0.0
 30
0.0
  9
$PUCSORGLEFT
 10
0.0
 20
0.0
 30
0.0
  9
$PUCSORGRIGHT
 10
0.0
 20
0.0
 30
0.0
  9
$PUCSORGFRONT
 10
0.0
 20
0.0
 30
0.0
  9
$PUCSORGBACK
 10
0.0
 20
0.0
 30
0.0
  9
$USERI1
 70
     0
  9
$USERI2
 70
     0
  9
$USERI3
 70
     0
  9
$USERI4
 70
     0
  9
$USERI5
 70
     0
  9
$USERR1
 40
0.0
  9
$USERR2
 40
0.0
  9
$USERR3
 40
0.0
  9
$USERR4
 40
0.0
  9
$USERR5
 40
0.0
  9
$WORLDVIEW
 70
     1
  9
$SHADEDGE
 70
     3
  9
$SHADEDIF
 70
    70
  9
$TILEMODE
 70
     1
  9
$MAXACTVP
 70
    64
  9
$PINSBASE
 10
0.0
 20
0.0
 30
0.0
  9
$PLIMCHECK
 70
     0
  9
$PEXTMIN
 10
1.000000000000000E+20
 20
1.000000000000000E+20
 30
1.000000000000000E+20
  9
$PEXTMAX
 10
-1.000000000000000E+20
 20
-1.000000000000000E+20
 30
-1.000000000000000E+20
  9
$PLIMMIN
 10
0.0
 20
0.0
  9
$PLIMMAX
 10
12.0
 20
9.0
  9
$UNITMODE
 70
     0
  9
$VISRETAIN
 70
     1
  9
$PLINEGEN
 70
     0
  9
$PSLTSCALE
 70
     1
  9
$TREEDEPTH
 70
  3020
  9
$CMLSTYLE
  2
Standard
  9
$CMLJUST
 70
     0
  9
$CMLSCALE
 40
1.0
  9
$PROXYGRAPHICS
 70
     1
  9
$MEASUREMENT
 70
     0
  9
$CELWEIGHT
370
    -1
  9
$ENDCAPS
280
     0
  9
$JOINSTYLE
280
     0
  9
$LWDISPLAY
290
     1
  9
$INSUNITS
 70
     1
  9
$HYPERLINKBASE
  1

  9
$STYLESHEET
  1

  9
$XEDIT
290
     1
  9
$CEPSNTYPE
380
     0
  9
$PSTYLEMODE
290
     1
  9
$FINGERPRINTGUID
  2
{BAFA8BF8-25A7-4ACC-831A-3AA51E4457C9}
  9
$VERSIONGUID
  2
{FAEB1C32-E019-11D5-929B-00C0DF256EC4}
  9
$EXTNAMES
290
     1
  9
$PSVPSCALE
 40
0.0
  9
$OLESTARTUP
290
     0
  9
$SORTENTS
280
   127
  9
$INDEXCTL
280
     0
  9
$HIDETEXT
280
     1
  9
$XCLIPFRAME
290
     0
  9
$HALOGAP
280
     0
  9
$OBSCOLOR
 70
   257
  9
$OBSLTYPE
280
     0
  9
$INTERSECTIONDISPLAY
280
     0
  9
$INTERSECTIONCOLOR
 70
   257
  9
$DIMASSOC
280
     2
  9
$PROJECTNAME
  1

  0
ENDSEC
  0
SECTION
  2
CLASSES
  0
CLASS
  1
ACDBDICTIONARYWDFLT
  2
AcDbDictionaryWithDefault
  3
ObjectDBX Classes
 90
        0
 91
        4
280
     0
281
     0
  0
CLASS
  1
VISUALSTYLE
  2
AcDbVisualStyle
  3
ObjectDBX Classes
 90
     4095
 91
        4
280
     0
281
     0
  0
CLASS
  1
MATERIAL
  2
AcDbMaterial
  3
ObjectDBX Classes
 90
     1153
 91
        4
280
     0
281
     0
  0
CLASS
  1
SUN
  2
AcDbSun
  3
SCENEOE
 90
     1024
 91
        4
280
     0
281
     0
  0
ENDSEC
  0
SECTION
  2
TABLES
  0
TABLE
  2
VPORT
  5
8
330
0
100
AcDbSymbolTable
 70
     1
  0
VPORT
  5
29
330
8
100
AcDbSymbolTableRecord
100
AcDbViewportTableRecord
  2
*Active
 70
     0
 10
0.0
 20
0.0
 11
1.0
 21
1.0
 12
0.0
 22
0.0
 13
0.0
 23
0.0
 14
0.5
 24
0.5
 15
0.5
 25
0.5
 16
0.0
 26
0.0
 36
1.0
 17
108.5559999728641
 27
-148.49999996287
 37
0.0
 40
399.9999998999999
 41
1.5
 42
50.0
 43
0.0
 44
0.0
 50
0.0
 51
0.0
 71
     0
 72
   100
 73
     1
 74
     3
 75
     0
 76
     0
 77
     0
 78
     0
281
     0
 65
     1
110
0.0
120
0.0
130
0.0
111
1.0
121
0.0
131
0.0
112
0.0
122
1.0
132
0.0
 79
     0
146
0.0
  0
ENDTAB
  0
TABLE
  2
LTYPE
  5
5
330
0
100
AcDbSymbolTable
 70
     1
  0
LTYPE
  5
14
330
5
100
AcDbSymbolTableRecord
100
AcDbLinetypeTableRecord
  2
ByBlock
 70
     0
  3

 72
    65
 73
     0
 40
0.0
  0
LTYPE
  5
15
330
5
100
AcDbSymbolTableRecord
100
AcDbLinetypeTableRecord
  2
ByLayer
 70
     0
  3

 72
    65
 73
     0
 40
0.0
  0
LTYPE
  5
16
330
5
100
AcDbSymbolTableRecord
100
AcDbLinetypeTableRecord
  2
Continuous
 70
     0
  3
Solid line
 72
    65
 73
     0
 40
0.0
  0
ENDTAB
  0
TABLE
  2
LAYER
  5
2
330
0
100
AcDbSymbolTable
 70
     2
  0
LAYER
  5
10
330
2
100
AcDbSymbolTableRecord
100
AcDbLayerTableRecord
  2
0
 70
     0
 62
     7
  6
Continuous
370
    -3
390
F
  0
LAYER
  5
40
330
2
100
AcDbSymbolTableRecord
100
AcDbLayerTableRecord
  2
Capa 1
 70
     0
 62
     7
  6
Continuous
370
    -3
390
F
  0
ENDTAB
  0
TABLE
  2
STYLE
  5
3
330
0
100
AcDbSymbolTable
 70
     1
  0
STYLE
  5
11
330
3
100
AcDbSymbolTableRecord
100
AcDbTextStyleTableRecord
  2
Standard
 70
     0
 40
0.0
 41
1.0
 50
0.0
 71
     0
 42
0.2
  3
txt
  4

  0
ENDTAB
  0
TABLE
  2
VIEW
  5
6
330
0
100
AcDbSymbolTable
 70
     0
  0
ENDTAB
  0
TABLE
  2
UCS
  5
7
330
0
100
AcDbSymbolTable
 70
     0
  0
ENDTAB
  0
TABLE
  2
APPID
  5
9
330
0
100
AcDbSymbolTable
 70
     1
  0
APPID
  5
12
330
9
100
AcDbSymbolTableRecord
100
AcDbRegAppTableRecord
  2
ACAD
 70
     0
  0
ENDTAB
  0
TABLE
  2
DIMSTYLE
  5
A
330
0
100
AcDbSymbolTable
 70
     1
100
AcDbDimStyleTable
  0
DIMSTYLE
105
27
330
A
100
AcDbSymbolTableRecord
100
AcDbDimStyleTableRecord
  2
Standard
 70
     0
178
     0
340
11
  0
ENDTAB
  0
TABLE
  2
BLOCK_RECORD
  5
1
330
0
100
AcDbSymbolTable
 70
    46
  0
BLOCK_RECORD
  5
1F
330
1
100
AcDbSymbolTableRecord
100
AcDbBlockTableRecord
  2
*Model_Space
340
22
  0
BLOCK_RECORD
  5
1B
330
1
100
AcDbSymbolTableRecord
100
AcDbBlockTableRecord
  2
*Paper_Space
340
1E
  0
BLOCK_RECORD
  5
23
330
1
100
AcDbSymbolTableRecord
100
AcDbBlockTableRecord
  2
*Paper_Space0
340
26
  0
BLOCK_RECORD
  5
41
330
1
100
AcDbSymbolTableRecord
100
AcDbBlockTableRecord
  2
block 2
340
0
102
{BLKREFS
331
42
102
}
  0
BLOCK_RECORD
  5
4C
330
1
100
AcDbSymbolTableRecord
100
AcDbBlockTableRecord
  2
block 3
340
0
102
{BLKREFS
331
4D
102
}
  0
BLOCK_RECORD
  5
50
330
1
100
AcDbSymbolTableRecord
100
AcDbBlockTableRecord
  2
block 4
340
0
102
{BLKREFS
331
51
102
}
  0
BLOCK_RECORD
  5
5B
330
1
100
AcDbSymbolTableRecord
100
AcDbBlockTableRecord
  2
block 5
340
0
102
{BLKREFS
331
5C
102
}
  0
BLOCK_RECORD
  5
66
330
1
100
AcDbSymbolTableRecord
100
AcDbBlockTableRecord
  2
block 6
340
0
102
{BLKREFS
331
67
102
}
  0
BLOCK_RECORD
  5
71
330
1
100
AcDbSymbolTableRecord
100
AcDbBlockTableRecord
  2
block 7
340
0
102
{BLKREFS
331
72
102
}
  0
BLOCK_RECORD
  5
7C
330
1
100
AcDbSymbolTableRecord
100
AcDbBlockTableRecord
  2
block 8
340
0
102
{BLKREFS
331
7D
102
}
  0
BLOCK_RECORD
  5
87
330
1
100
AcDbSymbolTableRecord
100
AcDbBlockTableRecord
  2
block 9
340
0
102
{BLKREFS
331
88
102
}
  0
BLOCK_RECORD
  5
92
330
1
100
AcDbSymbolTableRecord
100
AcDbBlockTableRecord
  2
block 10
340
0
102
{BLKREFS
331
93
102
}
  0
BLOCK_RECORD
  5
9D
330
1
100
AcDbSymbolTableRecord
100
AcDbBlockTableRecord
  2
block 11
340
0
102
{BLKREFS
331
9E
102
}
  0
BLOCK_RECORD
  5
A8
330
1
100
AcDbSymbolTableRecord
100
AcDbBlockTableRecord
  2
block 12
340
0
102
{BLKREFS
331
A9
102
}
  0
BLOCK_RECORD
  5
B3
330
1
100
AcDbSymbolTableRecord
100
AcDbBlockTableRecord
  2
block 13
340
0
102
{BLKREFS
331
B4
102
}
  0
BLOCK_RECORD
  5
BE
330
1
100
AcDbSymbolTableRecord
100
AcDbBlockTableRecord
  2
block 14
340
0
102
{BLKREFS
331
BF
102
}
  0
BLOCK_RECORD
  5
C9
330
1
100
AcDbSymbolTableRecord
100
AcDbBlockTableRecord
  2
block 15
340
0
102
{BLKREFS
331
CA
102
}
  0
BLOCK_RECORD
  5
D4
330
1
100
AcDbSymbolTableRecord
100
AcDbBlockTableRecord
  2
block 16
340
0
102
{BLKREFS
331
D5
102
}
  0
BLOCK_RECORD
  5
DF
330
1
100
AcDbSymbolTableRecord
100
AcDbBlockTableRecord
  2
block 17
340
0
102
{BLKREFS
331
E0
102
}
  0
BLOCK_RECORD
  5
EA
330
1
100
AcDbSymbolTableRecord
100
AcDbBlockTableRecord
  2
block 18
340
0
102
{BLKREFS
331
EB
102
}
  0
BLOCK_RECORD
  5
F5
330
1
100
AcDbSymbolTableRecord
100
AcDbBlockTableRecord
  2
block 19
340
0
102
{BLKREFS
331
F6
102
}
  0
BLOCK_RECORD
  5
169
330
1
100
AcDbSymbolTableRecord
100
AcDbBlockTableRecord
  2
block 20
340
0
102
{BLKREFS
331
16A
102
}
  0
BLOCK_RECORD
  5
1FD
330
1
100
AcDbSymbolTableRecord
100
AcDbBlockTableRecord
  2
block 21
340
0
102
{BLKREFS
331
1FE
102
}
  0
BLOCK_RECORD
  5
291
330
1
100
AcDbSymbolTableRecord
100
AcDbBlockTableRecord
  2
block 22
340
0
102
{BLKREFS
331
292
102
}
  0
BLOCK_RECORD
  5
2AC
330
1
100
AcDbSymbolTableRecord
100
AcDbBlockTableRecord
  2
block 23
340
0
102
{BLKREFS
331
2AD
102
}
  0
BLOCK_RECORD
  5
2C7
330
1
100
AcDbSymbolTableRecord
100
AcDbBlockTableRecord
  2
block 24
340
0
102
{BLKREFS
331
2C8
102
}
  0
BLOCK_RECORD
  5
2F0
330
1
100
AcDbSymbolTableRecord
100
AcDbBlockTableRecord
  2
block 25
340
0
102
{BLKREFS
331
2F1
102
}
  0
BLOCK_RECORD
  5
2F4
330
1
100
AcDbSymbolTableRecord
100
AcDbBlockTableRecord
  2
block 26
340
0
102
{BLKREFS
331
2F5
102
}
  0
BLOCK_RECORD
  5
2F9
330
1
100
AcDbSymbolTableRecord
100
AcDbBlockTableRecord
  2
block 27
340
0
102
{BLKREFS
331
2FA
102
}
  0
BLOCK_RECORD
  5
2FE
330
1
100
AcDbSymbolTableRecord
100
AcDbBlockTableRecord
  2
block 28
340
0
102
{BLKREFS
331
2FF
102
}
  0
BLOCK_RECORD
  5
303
330
1
100
AcDbSymbolTableRecord
100
AcDbBlockTableRecord
  2
block 29
340
0
102
{BLKREFS
331
304
102
}
  0
BLOCK_RECORD
  5
307
330
1
100
AcDbSymbolTableRecord
100
AcDbBlockTableRecord
  2
block 30
340
0
102
{BLKREFS
331
308
102
}
  0
BLOCK_RECORD
  5
30C
330
1
100
AcDbSymbolTableRecord
100
AcDbBlockTableRecord
  2
block 31
340
0
102
{BLKREFS
331
30D
102
}
  0
BLOCK_RECORD
  5
311
330
1
100
AcDbSymbolTableRecord
100
AcDbBlockTableRecord
  2
block 32
340
0
102
{BLKREFS
331
312
102
}
  0
BLOCK_RECORD
  5
316
330
1
100
AcDbSymbolTableRecord
100
AcDbBlockTableRecord
  2
block 33
340
0
102
{BLKREFS
331
317
102
}
  0
BLOCK_RECORD
  5
31A
330
1
100
AcDbSymbolTableRecord
100
AcDbBlockTableRecord
  2
block 34
340
0
102
{BLKREFS
331
31B
102
}
  0
BLOCK_RECORD
  5
31F
330
1
100
AcDbSymbolTableRecord
100
AcDbBlockTableRecord
  2
block 35
340
0
102
{BLKREFS
331
320
102
}
  0
BLOCK_RECORD
  5
324
330
1
100
AcDbSymbolTableRecord
100
AcDbBlockTableRecord
  2
block 36
340
0
102
{BLKREFS
331
325
102
}
  0
BLOCK_RECORD
  5
32F
330
1
100
AcDbSymbolTableRecord
100
AcDbBlockTableRecord
  2
block 37
340
0
102
{BLKREFS
331
330
102
}
  0
BLOCK_RECORD
  5
33A
330
1
100
AcDbSymbolTableRecord
100
AcDbBlockTableRecord
  2
block 38
340
0
102
{BLKREFS
331
33B
102
}
  0
BLOCK_RECORD
  5
33F
330
1
100
AcDbSymbolTableRecord
100
AcDbBlockTableRecord
  2
block 39
340
0
102
{BLKREFS
331
340
102
}
  0
BLOCK_RECORD
  5
343
330
1
100
AcDbSymbolTableRecord
100
AcDbBlockTableRecord
  2
block 40
340
0
102
{BLKREFS
331
344
102
}
  0
BLOCK_RECORD
  5
348
330
1
100
AcDbSymbolTableRecord
100
AcDbBlockTableRecord
  2
block 41
340
0
102
{BLKREFS
331
349
102
}
  0
BLOCK_RECORD
  5
34D
330
1
100
AcDbSymbolTableRecord
100
AcDbBlockTableRecord
  2
block 42
340
0
102
{BLKREFS
331
34E
102
}
  0
BLOCK_RECORD
  5
358
330
1
100
AcDbSymbolTableRecord
100
AcDbBlockTableRecord
  2
block 43
340
0
102
{BLKREFS
331
359
102
}
  0
BLOCK_RECORD
  5
363
330
1
100
AcDbSymbolTableRecord
100
AcDbBlockTableRecord
  2
block 44
340
0
102
{BLKREFS
331
364
102
}
  0
BLOCK_RECORD
  5
368
330
1
100
AcDbSymbolTableRecord
100
AcDbBlockTableRecord
  2
block 45
340
0
102
{BLKREFS
331
369
102
}
  0
BLOCK_RECORD
  5
36E
330
1
100
AcDbSymbolTableRecord
100
AcDbBlockTableRecord
  2
block 46
340
0
102
{BLKREFS
331
36F
102
}
  0
ENDTAB
  0
ENDSEC
  0
SECTION
  2
BLOCKS
  0
BLOCK
  5
20
330
1F
100
AcDbEntity
  8
0
100
AcDbBlockBegin
  2
*Model_Space
 70
     0
 10
0.0
 20
0.0
 30
0.0
  3
*Model_Space
  1

  0
ENDBLK
  5
21
330
1F
100
AcDbEntity
  8
0
100
AcDbBlockEnd
  0
BLOCK
  5
1C
330
1B
100
AcDbEntity
 67
     1
  8
0
100
AcDbBlockBegin
  2
*Paper_Space
 70
     0
 10
0.0
 20
0.0
 30
0.0
  3
*Paper_Space
  1

  0
ENDBLK
  5
1D
330
1B
100
AcDbEntity
 67
     1
  8
0
100
AcDbBlockEnd
  0
BLOCK
  5
24
330
23
100
AcDbEntity
  8
0
100
AcDbBlockBegin
  2
*Paper_Space0
 70
     0
 10
0.0
 20
0.0
 30
0.0
  3
*Paper_Space0
  1

  0
ENDBLK
  5
25
330
23
100
AcDbEntity
  8
0
100
AcDbBlockEnd
  0
BLOCK
  5
43
330
41
100
AcDbEntity
  8
0
100
AcDbBlockBegin
  2
block 2
 70
     0
 10
0.0
 20
0.0
 30
0.0
  3
block 2
  1

  0
POLYLINE
  5
45
330
41
100
AcDbEntity
  8
Capa 1
 62
     7
370
    25
100
AcDb2dPolyline
 66
     1
 10
0.0
 20
0.0
 30
0.0
  0
VERTEX
  5
46
330
45
100
AcDbEntity
  8
Capa 1
 62
     7
370
    25
100
AcDbVertex
100
AcDb2dVertex
 10
138.5455725468637
 20
-141.0749999041055
 30
0.0
  0
VERTEX
  5
47
330
45
100
AcDbEntity
  8
Capa 1
 62
     7
370
    25
100
AcDbVertex
100
AcDb2dVertex
 10
138.5455725468637
 20
-291.0749999041061
 30
0.0
  0
VERTEX
  5
48
330
45
100
AcDbEntity
  8
Capa 1
 62
     7
370
    25
100
AcDbVertex
100
AcDb2dVertex
 10
-11.4544274531358
 20
-291.0749999041061
 30
0.0
  0
VERTEX
  5
49
330
45
100
AcDbEntity
  8
Capa 1
 62
     7
370
    25
100
AcDbVertex
100
AcDb2dVertex
 10
-11.4544274531358
 20
-141.0749999041055
 30
0.0
  0
VERTEX
  5
4A
330
45
100
AcDbEntity
  8
Capa 1
 62
     7
370
    25
100
AcDbVertex
100
AcDb2dVertex
 10
138.5455725468637
 20
-141.0749999041055
 30
0.0
  0
SEQEND
  5
4B
330
45
100
AcDbEntity
  8
Capa 1
 62
     7
370
    25
  0
ENDBLK
  5
44
330
41
100
AcDbEntity
  8
0
100
AcDbBlockEnd
  0
BLOCK
  5
4E
330
4C
100
AcDbEntity
  8
0
100
AcDbBlockBegin
  2
block 3
 70
     0
 10
0.0
 20
0.0
 30
0.0
  3
block 3
  1

  0
INSERT
  5
51
330
4C
100
AcDbEntity
  8
Capa 1
100
AcDbBlockReference
  2
block 4
 10
0.0
 20
0.0
 30
0.0
  0
INSERT
  5
5C
330
4C
100
AcDbEntity
  8
Capa 1
100
AcDbBlockReference
  2
block 5
 10
0.0
 20
0.0
 30
0.0
  0
INSERT
  5
67
330
4C
100
AcDbEntity
  8
Capa 1
100
AcDbBlockReference
  2
block 6
 10
0.0
 20
0.0
 30
0.0
  0
INSERT
  5
72
330
4C
100
AcDbEntity
  8
Capa 1
100
AcDbBlockReference
  2
block 7
 10
0.0
 20
0.0
 30
0.0
  0
INSERT
  5
7D
330
4C
100
AcDbEntity
  8
Capa 1
100
AcDbBlockReference
  2
block 8
 10
0.0
 20
0.0
 30
0.0
  0
INSERT
  5
88
330
4C
100
AcDbEntity
  8
Capa 1
100
AcDbBlockReference
  2
block 9
 10
0.0
 20
0.0
 30
0.0
  0
INSERT
  5
93
330
4C
100
AcDbEntity
  8
Capa 1
100
AcDbBlockReference
  2
block 10
 10
0.0
 20
0.0
 30
0.0
  0
INSERT
  5
9E
330
4C
100
AcDbEntity
  8
Capa 1
100
AcDbBlockReference
  2
block 11
 10
0.0
 20
0.0
 30
0.0
  0
INSERT
  5
A9
330
4C
100
AcDbEntity
  8
Capa 1
100
AcDbBlockReference
  2
block 12
 10
0.0
 20
0.0
 30
0.0
  0
INSERT
  5
B4
330
4C
100
AcDbEntity
  8
Capa 1
100
AcDbBlockReference
  2
block 13
 10
0.0
 20
0.0
 30
0.0
  0
INSERT
  5
BF
330
4C
100
AcDbEntity
  8
Capa 1
100
AcDbBlockReference
  2
block 14
 10
0.0
 20
0.0
 30
0.0
  0
INSERT
  5
CA
330
4C
100
AcDbEntity
  8
Capa 1
100
AcDbBlockReference
  2
block 15
 10
0.0
 20
0.0
 30
0.0
  0
INSERT
  5
D5
330
4C
100
AcDbEntity
  8
Capa 1
100
AcDbBlockReference
  2
block 16
 10
0.0
 20
0.0
 30
0.0
  0
INSERT
  5
E0
330
4C
100
AcDbEntity
  8
Capa 1
100
AcDbBlockReference
  2
block 17
 10
0.0
 20
0.0
 30
0.0
  0
INSERT
  5
EB
330
4C
100
AcDbEntity
  8
Capa 1
100
AcDbBlockReference
  2
block 18
 10
0.0
 20
0.0
 30
0.0
  0
ENDBLK
  5
4F
330
4C
100
AcDbEntity
  8
0
100
AcDbBlockEnd
  0
BLOCK
  5
52
330
50
100
AcDbEntity
  8
0
100
AcDbBlockBegin
  2
block 4
 70
     0
 10
0.0
 20
0.0
 30
0.0
  3
block 4
  1

  0
POLYLINE
  5
54
330
50
100
AcDbEntity
  8
Capa 1
 62
     7
370
    25
100
AcDb2dPolyline
 66
     1
 10
0.0
 20
0.0
 30
0.0
  0
VERTEX
  5
55
330
54
100
AcDbEntity
  8
Capa 1
 62
     7
370
    25
100
AcDbVertex
100
AcDb2dVertex
 10
406.3999998984
 20
-346.0749999134813
 30
0.0
  0
VERTEX
  5
56
330
54
100
AcDbEntity
  8
Capa 1
 62
     7
370
    25
100
AcDbVertex
100
AcDb2dVertex
 10
406.3999998984
 20
-86.07499991348075
 30
0.0
  0
VERTEX
  5
57
330
54
100
AcDbEntity
  8
Capa 1
 62
     7
370
    25
100
AcDbVertex
100
AcDb2dVertex
 10
-43.60000010159951
 20
-86.07499991348075
 30
0.0
  0
VERTEX
  5
58
330
54
100
AcDbEntity
  8
Capa 1
 62
     7
370
    25
100
AcDbVertex
100
AcDb2dVertex
 10
-43.60000010159951
 20
-346.0749999134813
 30
0.0
  0
VERTEX
  5
59
330
54
100
AcDbEntity
  8
Capa 1
 62
     7
370
    25
100
AcDbVertex
100
AcDb2dVertex
 10
406.3999998984
 20
-346.0749999134813
 30
0.0
  0
SEQEND
  5
5A
330
54
100
AcDbEntity
  8
Capa 1
 62
     7
370
    25
  0
ENDBLK
  5
53
330
50
100
AcDbEntity
  8
0
100
AcDbBlockEnd
  0
BLOCK
  5
5D
330
5B
100
AcDbEntity
  8
0
100
AcDbBlockBegin
  2
block 5
 70
     0
 10
0.0
 20
0.0
 30
0.0
  3
block 5
  1

  0
POLYLINE
  5
5F
330
5B
100
AcDbEntity
  8
Capa 1
 62
     7
370
    25
100
AcDb2dPolyline
 66
     1
 10
0.0
 20
0.0
 30
0.0
  0
VERTEX
  5
60
330
5F
100
AcDbEntity
  8
Capa 1
 62
     7
370
    25
100
AcDbVertex
100
AcDb2dVertex
 10
384.9024817461016
 20
-306.0749999134811
 30
0.0
  0
VERTEX
  5
61
330
5F
100
AcDbEntity
  8
Capa 1
 62
     7
370
    25
100
AcDbVertex
100
AcDb2dVertex
 10
381.9024817461014
 20
-306.0749999134811
 30
0.0
  0
VERTEX
  5
62
330
5F
100
AcDbEntity
  8
Capa 1
 62
     7
370
    25
100
AcDbVertex
100
AcDb2dVertex
 10
381.9024817461014
 20
-281.0749999134809
 30
0.0
  0
VERTEX
  5
63
330
5F
100
AcDbEntity
  8
Capa 1
 62
     7
370
    25
100
AcDbVertex
100
AcDb2dVertex
 10
384.9024817461016
 20
-281.0749999134809
 30
0.0
  0
VERTEX
  5
64
330
5F
100
AcDbEntity
  8
Capa 1
 62
     7
370
    25
100
AcDbVertex
100
AcDb2dVertex
 10
384.9024817461016
 20
-306.0749999134811
 30
0.0
  0
SEQEND
  5
65
330
5F
100
AcDbEntity
  8
Capa 1
 62
     7
370
    25
  0
ENDBLK
  5
5E
330
5B
100
AcDbEntity
  8
0
100
AcDbBlockEnd
  0
BLOCK
  5
68
330
66
100
AcDbEntity
  8
0
100
AcDbBlockBegin
  2
block 6
 70
     0
 10
0.0
 20
0.0
 30
0.0
  3
block 6
  1

  0
POLYLINE
  5
6A
330
66
100
AcDbEntity
  8
Capa 1
 62
     7
370
    25
100
AcDb2dPolyline
 66
     1
 10
0.0
 20
0.0
 30
0.0
  0
VERTEX
  5
6B
330
6A
100
AcDbEntity
  8
Capa 1
 62
     7
370
    25
100
AcDbVertex
100
AcDb2dVertex
 10
352.4024817461001
 20
-306.0749999134811
 30
0.0
  0
VERTEX
  5
6C
330
6A
100
AcDbEntity
  8
Capa 1
 62
     7
370
    25
100
AcDbVertex
100
AcDb2dVertex
 10
327.4024817461005
 20
-306.0749999134811
 30
0.0
  0
VERTEX
  5
6D
330
6A
100
AcDbEntity
  8
Capa 1
 62
     7
370
    25
100
AcDbVertex
100
AcDb2dVertex
 10
327.4024817461005
 20
-303.0749999134817
 30
0.0
  0
VERTEX
  5
6E
330
6A
100
AcDbEntity
  8
Capa 1
 62
     7
370
    25
100
AcDbVertex
100
AcDb2dVertex
 10
352.4024817461001
 20
-303.0749999134817
 30
0.0
  0
VERTEX
  5
6F
330
6A
100
AcDbEntity
  8
Capa 1
 62
     7
370
    25
100
AcDbVertex
100
AcDb2dVertex
 10
352.4024817461001
 20
-306.0749999134811
 30
0.0
  0
SEQEND
  5
70
330
6A
100
AcDbEntity
  8
Capa 1
 62
     7
370
    25
  0
ENDBLK
  5
69
330
66
100
AcDbEntity
  8
0
100
AcDbBlockEnd
  0
BLOCK
  5
73
330
71
100
AcDbEntity
  8
0
100
AcDbBlockBegin
  2
block 7
 70
     0
 10
0.0
 20
0.0
 30
0.0
  3
block 7
  1

  0
POLYLINE
  5
75
330
71
100
AcDbEntity
  8
Capa 1
 62
     7
370
    25
100
AcDb2dPolyline
 66
     1
 10
0.0
 20
0.0
 30
0.0
  0
VERTEX
  5
76
330
75
100
AcDbEntity
  8
Capa 1
 62
     7
370
    25
100
AcDbVertex
100
AcDb2dVertex
 10
352.4024817461001
 20
-129.0749999134807
 30
0.0
  0
VERTEX
  5
77
330
75
100
AcDbEntity
  8
Capa 1
 62
     7
370
    25
100
AcDbVertex
100
AcDb2dVertex
 10
327.4024817461005
 20
-129.0749999134807
 30
0.0
  0
VERTEX
  5
78
330
75
100
AcDbEntity
  8
Capa 1
 62
     7
370
    25
100
AcDbVertex
100
AcDb2dVertex
 10
327.4024817461005
 20
-126.0749999134809
 30
0.0
  0
VERTEX
  5
79
330
75
100
AcDbEntity
  8
Capa 1
 62
     7
370
    25
100
AcDbVertex
100
AcDb2dVertex
 10
352.4024817461001
 20
-126.0749999134809
 30
0.0
  0
VERTEX
  5
7A
330
75
100
AcDbEntity
  8
Capa 1
 62
     7
370
    25
100
AcDbVertex
100
AcDb2dVertex
 10
352.4024817461001
 20
-129.0749999134807
 30
0.0
  0
SEQEND
  5
7B
330
75
100
AcDbEntity
  8
Capa 1
 62
     7
370
    25
  0
ENDBLK
  5
74
330
71
100
AcDbEntity
  8
0
100
AcDbBlockEnd
  0
BLOCK
  5
7E
330
7C
100
AcDbEntity
  8
0
100
AcDbBlockBegin
  2
block 8
 70
     0
 10
0.0
 20
0.0
 30
0.0
  3
block 8
  1

  0
POLYLINE
  5
80
330
7C
100
AcDbEntity
  8
Capa 1
 62
     7
370
    25
100
AcDb2dPolyline
 66
     1
 10
0.0
 20
0.0
 30
0.0
  0
VERTEX
  5
81
330
80
100
AcDbEntity
  8
Capa 1
 62
     7
370
    25
100
AcDbVertex
100
AcDb2dVertex
 10
307.4024817461004
 20
-129.0749999134807
 30
0.0
  0
VERTEX
  5
82
330
80
100
AcDbEntity
  8
Capa 1
 62
     7
370
    25
100
AcDbVertex
100
AcDb2dVertex
 10
282.4024817461002
 20
-129.0749999134807
 30
0.0
  0
VERTEX
  5
83
330
80
100
AcDbEntity
  8
Capa 1
 62
     7
370
    25
100
AcDbVertex
100
AcDb2dVertex
 10
282.4024817461002
 20
-126.0749999134809
 30
0.0
  0
VERTEX
  5
84
330
80
100
AcDbEntity
  8
Capa 1
 62
     7
370
    25
100
AcDbVertex
100
AcDb2dVertex
 10
307.4024817461004
 20
-126.0749999134809
 30
0.0
  0
VERTEX
  5
85
330
80
100
AcDbEntity
  8
Capa 1
 62
     7
370
    25
100
AcDbVertex
100
AcDb2dVertex
 10
307.4024817461004
 20
-129.0749999134807
 30
0.0
  0
SEQEND
  5
86
330
80
100
AcDbEntity
  8
Capa 1
 62
     7
370
    25
  0
ENDBLK
  5
7F
330
7C
100
AcDbEntity
  8
0
100
AcDbBlockEnd
  0
BLOCK
  5
89
330
87
100
AcDbEntity
  8
0
100
AcDbBlockBegin
  2
block 9
 70
     0
 10
0.0
 20
0.0
 30
0.0
  3
block 9
  1

  0
POLYLINE
  5
8B
330
87
100
AcDbEntity
  8
Capa 1
 62
     7
370
    25
100
AcDb2dPolyline
 66
     1
 10
0.0
 20
0.0
 30
0.0
  0
VERTEX
  5
8C
330
8B
100
AcDbEntity
  8
Capa 1
 62
     7
370
    25
100
AcDbVertex
100
AcDb2dVertex
 10
237.4024817460999
 20
-303.0749999134817
 30
0.0
  0
VERTEX
  5
8D
330
8B
100
AcDbEntity
  8
Capa 1
 62
     7
370
    25
100
AcDbVertex
100
AcDb2dVertex
 10
262.4024817461001
 20
-303.0749999134817
 30
0.0
  0
VERTEX
  5
8E
330
8B
100
AcDbEntity
  8
Capa 1
 62
     7
370
    25
100
AcDbVertex
100
AcDb2dVertex
 10
262.4024817461001
 20
-306.0749999134811
 30
0.0
  0
VERTEX
  5
8F
330
8B
100
AcDbEntity
  8
Capa 1
 62
     7
370
    25
100
AcDbVertex
100
AcDb2dVertex
 10
237.4024817460999
 20
-306.0749999134811
 30
0.0
  0
VERTEX
  5
90
330
8B
100
AcDbEntity
  8
Capa 1
 62
     7
370
    25
100
AcDbVertex
100
AcDb2dVertex
 10
237.4024817460999
 20
-303.0749999134817
 30
0.0
  0
SEQEND
  5
91
330
8B
100
AcDbEntity
  8
Capa 1
 62
     7
370
    25
  0
ENDBLK
  5
8A
330
87
100
AcDbEntity
  8
0
100
AcDbBlockEnd
  0
BLOCK
  5
94
330
92
100
AcDbEntity
  8
0
100
AcDbBlockBegin
  2
block 10
 70
     0
 10
0.0
 20
0.0
 30
0.0
  3
block 10
  1

  0
POLYLINE
  5
96
330
92
100
AcDbEntity
  8
Capa 1
 62
     7
370
    25
100
AcDb2dPolyline
 66
     1
 10
0.0
 20
0.0
 30
0.0
  0
VERTEX
  5
97
330
96
100
AcDbEntity
  8
Capa 1
 62
     7
370
    25
100
AcDbVertex
100
AcDb2dVertex
 10
237.4024817460999
 20
-126.0749999134809
 30
0.0
  0
VERTEX
  5
98
330
96
100
AcDbEntity
  8
Capa 1
 62
     7
370
    25
100
AcDbVertex
100
AcDb2dVertex
 10
262.4024817461001
 20
-126.0749999134809
 30
0.0
  0
VERTEX
  5
99
330
96
100
AcDbEntity
  8
Capa 1
 62
     7
370
    25
100
AcDbVertex
100
AcDb2dVertex
 10
262.4024817461001
 20
-129.0749999134807
 30
0.0
  0
VERTEX
  5
9A
330
96
100
AcDbEntity
  8
Capa 1
 62
     7
370
    25
100
AcDbVertex
100
AcDb2dVertex
 10
237.4024817460999
 20
-129.0749999134807
 30
0.0
  0
VERTEX
  5
9B
330
96
100
AcDbEntity
  8
Capa 1
 62
     7
370
    25
100
AcDbVertex
100
AcDb2dVertex
 10
237.4024817460999
 20
-126.0749999134809
 30
0.0
  0
SEQEND
  5
9C
330
96
100
AcDbEntity
  8
Capa 1
 62
     7
370
    25
  0
ENDBLK
  5
95
330
92
100
AcDbEntity
  8
0
100
AcDbBlockEnd
  0
BLOCK
  5
9F
330
9D
100
AcDbEntity
  8
0
100
AcDbBlockBegin
  2
block 11
 70
     0
 10
0.0
 20
0.0
 30
0.0
  3
block 11
  1

  0
POLYLINE
  5
A1
330
9D
100
AcDbEntity
  8
Capa 1
 62
     7
370
    25
100
AcDb2dPolyline
 66
     1
 10
0.0
 20
0.0
 30
0.0
  0
VERTEX
  5
A2
330
A1
100
AcDbEntity
  8
Capa 1
 62
     7
370
    25
100
AcDbVertex
100
AcDb2dVertex
 10
204.9024817461003
 20
-226.0749999134809
 30
0.0
  0
VERTEX
  5
A3
330
A1
100
AcDbEntity
  8
Capa 1
 62
     7
370
    25
100
AcDbVertex
100
AcDb2dVertex
 10
207.9024817461004
 20
-226.0749999134809
 30
0.0
  0
VERTEX
  5
A4
330
A1
100
AcDbEntity
  8
Capa 1
 62
     7
370
    25
100
AcDbVertex
100
AcDb2dVertex
 10
207.9024817461004
 20
-251.0749999134811
 30
0.0
  0
VERTEX
  5
A5
330
A1
100
AcDbEntity
  8
Capa 1
 62
     7
370
    25
100
AcDbVertex
100
AcDb2dVertex
 10
204.9024817461003
 20
-251.0749999134811
 30
0.0
  0
VERTEX
  5
A6
330
A1
100
AcDbEntity
  8
Capa 1
 62
     7
370
    25
100
AcDbVertex
100
AcDb2dVertex
 10
204.9024817461003
 20
-226.0749999134809
 30
0.0
  0
SEQEND
  5
A7
330
A1
100
AcDbEntity
  8
Capa 1
 62
     7
370
    25
  0
ENDBLK
  5
A0
330
9D
100
AcDbEntity
  8
0
100
AcDbBlockEnd
  0
BLOCK
  5
AA
330
A8
100
AcDbEntity
  8
0
100
AcDbBlockBegin
  2
block 12
 70
     0
 10
0.0
 20
0.0
 30
0.0
  3
block 12
  1

  0
POLYLINE
  5
AC
330
A8
100
AcDbEntity
  8
Capa 1
 62
     7
370
    25
100
AcDb2dPolyline
 66
     1
 10
0.0
 20
0.0
 30
0.0
  0
VERTEX
  5
AD
330
AC
100
AcDbEntity
  8
Capa 1
 62
     7
370
    25
100
AcDbVertex
100
AcDb2dVertex
 10
384.9024817461016
 20
-151.0749999134808
 30
0.0
  0
VERTEX
  5
AE
330
AC
100
AcDbEntity
  8
Capa 1
 62
     7
370
    25
100
AcDbVertex
100
AcDb2dVertex
 10
381.9024817461014
 20
-151.0749999134808
 30
0.0
  0
VERTEX
  5
AF
330
AC
100
AcDbEntity
  8
Capa 1
 62
     7
370
    25
100
AcDbVertex
100
AcDb2dVertex
 10
381.9024817461014
 20
-126.0749999134809
 30
0.0
  0
VERTEX
  5
B0
330
AC
100
AcDbEntity
  8
Capa 1
 62
     7
370
    25
100
AcDbVertex
100
AcDb2dVertex
 10
384.9024817461016
 20
-126.0749999134809
 30
0.0
  0
VERTEX
  5
B1
330
AC
100
AcDbEntity
  8
Capa 1
 62
     7
370
    25
100
AcDbVertex
100
AcDb2dVertex
 10
384.9024817461016
 20
-151.0749999134808
 30
0.0
  0
SEQEND
  5
B2
330
AC
100
AcDbEntity
  8
Capa 1
 62
     7
370
    25
  0
ENDBLK
  5
AB
330
A8
100
AcDbEntity
  8
0
100
AcDbBlockEnd
  0
BLOCK
  5
B5
330
B3
100
AcDbEntity
  8
0
100
AcDbBlockBegin
  2
block 13
 70
     0
 10
0.0
 20
0.0
 30
0.0
  3
block 13
  1

  0
POLYLINE
  5
B7
330
B3
100
AcDbEntity
  8
Capa 1
 62
     7
370
    25
100
AcDb2dPolyline
 66
     1
 10
0.0
 20
0.0
 30
0.0
  0
VERTEX
  5
B8
330
B7
100
AcDbEntity
  8
Capa 1
 62
     7
370
    25
100
AcDbVertex
100
AcDb2dVertex
 10
204.9024817461003
 20
-126.0749999134809
 30
0.0
  0
VERTEX
  5
B9
330
B7
100
AcDbEntity
  8
Capa 1
 62
     7
370
    25
100
AcDbVertex
100
AcDb2dVertex
 10
207.9024817461004
 20
-126.0749999134809
 30
0.0
  0
VERTEX
  5
BA
330
B7
100
AcDbEntity
  8
Capa 1
 62
     7
370
    25
100
AcDbVertex
100
AcDb2dVertex
 10
207.9024817461004
 20
-151.0749999134808
 30
0.0
  0
VERTEX
  5
BB
330
B7
100
AcDbEntity
  8
Capa 1
 62
     7
370
    25
100
AcDbVertex
100
AcDb2dVertex
 10
204.9024817461003
 20
-151.0749999134808
 30
0.0
  0
VERTEX
  5
BC
330
B7
100
AcDbEntity
  8
Capa 1
 62
     7
370
    25
100
AcDbVertex
100
AcDb2dVertex
 10
204.9024817461003
 20
-126.0749999134809
 30
0.0
  0
SEQEND
  5
BD
330
B7
100
AcDbEntity
  8
Capa 1
 62
     7
370
    25
  0
ENDBLK
  5
B6
330
B3
100
AcDbEntity
  8
0
100
AcDbBlockEnd
  0
BLOCK
  5
C0
330
BE
100
AcDbEntity
  8
0
100
AcDbBlockBegin
  2
block 14
 70
     0
 10
0.0
 20
0.0
 30
0.0
  3
block 14
  1

  0
POLYLINE
  5
C2
330
BE
100
AcDbEntity
  8
Capa 1
 62
     7
370
    25
100
AcDb2dPolyline
 66
     1
 10
0.0
 20
0.0
 30
0.0
  0
VERTEX
  5
C3
330
C2
100
AcDbEntity
  8
Capa 1
 62
     7
370
    25
100
AcDbVertex
100
AcDb2dVertex
 10
204.9024817461003
 20
-281.0749999134809
 30
0.0
  0
VERTEX
  5
C4
330
C2
100
AcDbEntity
  8
Capa 1
 62
     7
370
    25
100
AcDbVertex
100
AcDb2dVertex
 10
207.9024817461004
 20
-281.0749999134809
 30
0.0
  0
VERTEX
  5
C5
330
C2
100
AcDbEntity
  8
Capa 1
 62
     7
370
    25
100
AcDbVertex
100
AcDb2dVertex
 10
207.9024817461004
 20
-306.0749999134811
 30
0.0
  0
VERTEX
  5
C6
330
C2
100
AcDbEntity
  8
Capa 1
 62
     7
370
    25
100
AcDbVertex
100
AcDb2dVertex
 10
204.9024817461003
 20
-306.0749999134811
 30
0.0
  0
VERTEX
  5
C7
330
C2
100
AcDbEntity
  8
Capa 1
 62
     7
370
    25
100
AcDbVertex
100
AcDb2dVertex
 10
204.9024817461003
 20
-281.0749999134809
 30
0.0
  0
SEQEND
  5
C8
330
C2
100
AcDbEntity
  8
Capa 1
 62
     7
370
    25
  0
ENDBLK
  5
C1
330
BE
100
AcDbEntity
  8
0
100
AcDbBlockEnd
  0
BLOCK
  5
CB
330
C9
100
AcDbEntity
  8
0
100
AcDbBlockBegin
  2
block 15
 70
     0
 10
0.0
 20
0.0
 30
0.0
  3
block 15
  1

  0
POLYLINE
  5
CD
330
C9
100
AcDbEntity
  8
Capa 1
 62
     7
370
    25
100
AcDb2dPolyline
 66
     1
 10
0.0
 20
0.0
 30
0.0
  0
VERTEX
  5
CE
330
CD
100
AcDbEntity
  8
Capa 1
 62
     7
370
    25
100
AcDbVertex
100
AcDb2dVertex
 10
204.9024817461003
 20
-181.0749999134812
 30
0.0
  0
VERTEX
  5
CF
330
CD
100
AcDbEntity
  8
Capa 1
 62
     7
370
    25
100
AcDbVertex
100
AcDb2dVertex
 10
207.9024817461004
 20
-181.0749999134812
 30
0.0
  0
VERTEX
  5
D0
330
CD
100
AcDbEntity
  8
Capa 1
 62
     7
370
    25
100
AcDbVertex
100
AcDb2dVertex
 10
207.9024817461004
 20
-206.0749999134808
 30
0.0
  0
VERTEX
  5
D1
330
CD
100
AcDbEntity
  8
Capa 1
 62
     7
370
    25
100
AcDbVertex
100
AcDb2dVertex
 10
204.9024817461003
 20
-206.0749999134808
 30
0.0
  0
VERTEX
  5
D2
330
CD
100
AcDbEntity
  8
Capa 1
 62
     7
370
    25
100
AcDbVertex
100
AcDb2dVertex
 10
204.9024817461003
 20
-181.0749999134812
 30
0.0
  0
SEQEND
  5
D3
330
CD
100
AcDbEntity
  8
Capa 1
 62
     7
370
    25
  0
ENDBLK
  5
CC
330
C9
100
AcDbEntity
  8
0
100
AcDbBlockEnd
  0
BLOCK
  5
D6
330
D4
100
AcDbEntity
  8
0
100
AcDbBlockBegin
  2
block 16
 70
     0
 10
0.0
 20
0.0
 30
0.0
  3
block 16
  1

  0
POLYLINE
  5
D8
330
D4
100
AcDbEntity
  8
Capa 1
 62
     7
370
    25
100
AcDb2dPolyline
 66
     1
 10
0.0
 20
0.0
 30
0.0
  0
VERTEX
  5
D9
330
D8
100
AcDbEntity
  8
Capa 1
 62
     7
370
    25
100
AcDbVertex
100
AcDb2dVertex
 10
384.9024817461016
 20
-206.0749999134808
 30
0.0
  0
VERTEX
  5
DA
330
D8
100
AcDbEntity
  8
Capa 1
 62
     7
370
    25
100
AcDbVertex
100
AcDb2dVertex
 10
381.9024817461014
 20
-206.0749999134808
 30
0.0
  0
VERTEX
  5
DB
330
D8
100
AcDbEntity
  8
Capa 1
 62
     7
370
    25
100
AcDbVertex
100
AcDb2dVertex
 10
381.9024817461014
 20
-181.0749999134812
 30
0.0
  0
VERTEX
  5
DC
330
D8
100
AcDbEntity
  8
Capa 1
 62
     7
370
    25
100
AcDbVertex
100
AcDb2dVertex
 10
384.9024817461016
 20
-181.0749999134812
 30
0.0
  0
VERTEX
  5
DD
330
D8
100
AcDbEntity
  8
Capa 1
 62
     7
370
    25
100
AcDbVertex
100
AcDb2dVertex
 10
384.9024817461016
 20
-206.0749999134808
 30
0.0
  0
SEQEND
  5
DE
330
D8
100
AcDbEntity
  8
Capa 1
 62
     7
370
    25
  0
ENDBLK
  5
D7
330
D4
100
AcDbEntity
  8
0
100
AcDbBlockEnd
  0
BLOCK
  5
E1
330
DF
100
AcDbEntity
  8
0
100
AcDbBlockBegin
  2
block 17
 70
     0
 10
0.0
 20
0.0
 30
0.0
  3
block 17
  1

  0
POLYLINE
  5
E3
330
DF
100
AcDbEntity
  8
Capa 1
 62
     7
370
    25
100
AcDb2dPolyline
 66
     1
 10
0.0
 20
0.0
 30
0.0
  0
VERTEX
  5
E4
330
E3
100
AcDbEntity
  8
Capa 1
 62
     7
370
    25
100
AcDbVertex
100
AcDb2dVertex
 10
384.9024817461016
 20
-251.0749999134811
 30
0.0
  0
VERTEX
  5
E5
330
E3
100
AcDbEntity
  8
Capa 1
 62
     7
370
    25
100
AcDbVertex
100
AcDb2dVertex
 10
381.9024817461014
 20
-251.0749999134811
 30
0.0
  0
VERTEX
  5
E6
330
E3
100
AcDbEntity
  8
Capa 1
 62
     7
370
    25
100
AcDbVertex
100
AcDb2dVertex
 10
381.9024817461014
 20
-226.0749999134809
 30
0.0
  0
VERTEX
  5
E7
330
E3
100
AcDbEntity
  8
Capa 1
 62
     7
370
    25
100
AcDbVertex
100
AcDb2dVertex
 10
384.9024817461016
 20
-226.0749999134809
 30
0.0
  0
VERTEX
  5
E8
330
E3
100
AcDbEntity
  8
Capa 1
 62
     7
370
    25
100
AcDbVertex
100
AcDb2dVertex
 10
384.9024817461016
 20
-251.0749999134811
 30
0.0
  0
SEQEND
  5
E9
330
E3
100
AcDbEntity
  8
Capa 1
 62
     7
370
    25
  0
ENDBLK
  5
E2
330
DF
100
AcDbEntity
  8
0
100
AcDbBlockEnd
  0
BLOCK
  5
EC
330
EA
100
AcDbEntity
  8
0
100
AcDbBlockBegin
  2
block 18
 70
     0
 10
0.0
 20
0.0
 30
0.0
  3
block 18
  1

  0
POLYLINE
  5
EE
330
EA
100
AcDbEntity
  8
Capa 1
 62
     7
370
    25
100
AcDb2dPolyline
 66
     1
 10
0.0
 20
0.0
 30
0.0
  0
VERTEX
  5
EF
330
EE
100
AcDbEntity
  8
Capa 1
 62
     7
370
    25
100
AcDbVertex
100
AcDb2dVertex
 10
307.4024817461004
 20
-306.0749999134811
 30
0.0
  0
VERTEX
  5
F0
330
EE
100
AcDbEntity
  8
Capa 1
 62
     7
370
    25
100
AcDbVertex
100
AcDb2dVertex
 10
282.4024817461002
 20
-306.0749999134811
 30
0.0
  0
VERTEX
  5
F1
330
EE
100
AcDbEntity
  8
Capa 1
 62
     7
370
    25
100
AcDbVertex
100
AcDb2dVertex
 10
282.4024817461002
 20
-303.0749999134817
 30
0.0
  0
VERTEX
  5
F2
330
EE
100
AcDbEntity
  8
Capa 1
 62
     7
370
    25
100
AcDbVertex
100
AcDb2dVertex
 10
307.4024817461004
 20
-303.0749999134817
 30
0.0
  0
VERTEX
  5
F3
330
EE
100
AcDbEntity
  8
Capa 1
 62
     7
370
    25
100
AcDbVertex
100
AcDb2dVertex
 10
307.4024817461004
 20
-306.0749999134811
 30
0.0
  0
SEQEND
  5
F4
330
EE
100
AcDbEntity
  8
Capa 1
 62
     7
370
    25
  0
ENDBLK
  5
ED
330
EA
100
AcDbEntity
  8
0
100
AcDbBlockEnd
  0
BLOCK
  5
F7
330
F5
100
AcDbEntity
  8
0
100
AcDbBlockBegin
  2
block 19
 70
     0
 10
0.0
 20
0.0
 30
0.0
  3
block 19
  1

  0
POLYLINE
  5
F9
330
F5
100
AcDbEntity
  8
Capa 1
 62
     7
370
    25
100
AcDb2dPolyline
 66
     1
 10
0.0
 20
0.0
 30
0.0
  0
VERTEX
  5
FA
330
F9
100
AcDbEntity
  8
Capa 1
 62
     7
370
    25
100
AcDbVertex
100
AcDb2dVertex
 10
-11.45442743438567
 20
-281.0749998878655
 30
0.0
  0
VERTEX
  5
FB
330
F9
100
AcDbEntity
  8
Capa 1
 62
     7
370
    25
100
AcDbVertex
100
AcDb2dVertex
 10
138.5455725281145
 20
-281.0749998878655
 30
0.0
  0
SEQEND
  5
FC
330
F9
100
AcDbEntity
  8
Capa 1
 62
     7
370
    25
  0
POLYLINE
  5
FD
330
F5
100
AcDbEntity
  8
Capa 1
 62
     7
370
    25
100
AcDb2dPolyline
 66
     1
 10
0.0
 20
0.0
 30
0.0
  0
VERTEX
  5
FE
330
FD
100
AcDbEntity
  8
Capa 1
 62
     7
370
    25
100
AcDbVertex
100
AcDb2dVertex
 10
-11.45442743438567
 20
-271.0749998903743
 30
0.0
  0
VERTEX
  5
FF
330
FD
100
AcDbEntity
  8
Capa 1
 62
     7
370
    25
100
AcDbVertex
100
AcDb2dVertex
 10
138.5455725281145
 20
-271.0749998903743
 30
0.0
  0
SEQEND
  5
100
330
FD
100
AcDbEntity
  8
Capa 1
 62
     7
370
    25
  0
POLYLINE
  5
101
330
F5
100
AcDbEntity
  8
Capa 1
 62
     7
370
    25
100
AcDb2dPolyline
 66
     1
 10
0.0
 20
0.0
 30
0.0
  0
VERTEX
  5
102
330
101
100
AcDbEntity
  8
Capa 1
 62
     7
370
    25
100
AcDbVertex
100
AcDb2dVertex
 10
-11.45442743438567
 20
-261.0749998928829
 30
0.0
  0
VERTEX
  5
103
330
101
100
AcDbEntity
  8
Capa 1
 62
     7
370
    25
100
AcDbVertex
100
AcDb2dVertex
 10
138.5455725281145
 20
-261.0749998928829
 30
0.0
  0
SEQEND
  5
104
330
101
100
AcDbEntity
  8
Capa 1
 62
     7
370
    25
  0
POLYLINE
  5
105
330
F5
100
AcDbEntity
  8
Capa 1
 62
     7
370
    25
100
AcDb2dPolyline
 66
     1
 10
0.0
 20
0.0
 30
0.0
  0
VERTEX
  5
106
330
105
100
AcDbEntity
  8
Capa 1
 62
     7
370
    25
100
AcDbVertex
100
AcDb2dVertex
 10
-11.45442743438567
 20
-251.0749998953236
 30
0.0
  0
VERTEX
  5
107
330
105
100
AcDbEntity
  8
Capa 1
 62
     7
370
    25
100
AcDbVertex
100
AcDb2dVertex
 10
138.5455725281145
 20
-251.0749998953236
 30
0.0
  0
SEQEND
  5
108
330
105
100
AcDbEntity
  8
Capa 1
 62
     7
370
    25
  0
POLYLINE
  5
109
330
F5
100
AcDbEntity
  8
Capa 1
 62
     7
370
    25
100
AcDb2dPolyline
 66
     1
 10
0.0
 20
0.0
 30
0.0
  0
VERTEX
  5
10A
330
109
100
AcDbEntity
  8
Capa 1
 62
     7
370
    25
100
AcDbVertex
100
AcDb2dVertex
 10
-11.45442743438567
 20
-241.0749998978336
 30
0.0
  0
VERTEX
  5
10B
330
109
100
AcDbEntity
  8
Capa 1
 62
     7
370
    25
100
AcDbVertex
100
AcDb2dVertex
 10
138.5455725281145
 20
-241.0749998978336
 30
0.0
  0
SEQEND
  5
10C
330
109
100
AcDbEntity
  8
Capa 1
 62
     7
370
    25
  0
POLYLINE
  5
10D
330
F5
100
AcDbEntity
  8
Capa 1
 62
     7
370
    25
100
AcDb2dPolyline
 66
     1
 10
0.0
 20
0.0
 30
0.0
  0
VERTEX
  5
10E
330
10D
100
AcDbEntity
  8
Capa 1
 62
     7
370
    25
100
AcDbVertex
100
AcDb2dVertex
 10
-11.45442743438567
 20
-231.0749999003423
 30
0.0
  0
VERTEX
  5
10F
330
10D
100
AcDbEntity
  8
Capa 1
 62
     7
370
    25
100
AcDbVertex
100
AcDb2dVertex
 10
138.5455725281145
 20
-231.0749999003423
 30
0.0
  0
SEQEND
  5
110
330
10D
100
AcDbEntity
  8
Capa 1
 62
     7
370
    25
  0
POLYLINE
  5
111
330
F5
100
AcDbEntity
  8
Capa 1
 62
     7
370
    25
100
AcDb2dPolyline
 66
     1
 10
0.0
 20
0.0
 30
0.0
  0
VERTEX
  5
112
330
111
100
AcDbEntity
  8
Capa 1
 62
     7
370
    25
100
AcDbVertex
100
AcDb2dVertex
 10
-11.45442743438567
 20
-221.0749999028509
 30
0.0
  0
VERTEX
  5
113
330
111
100
AcDbEntity
  8
Capa 1
 62
     7
370
    25
100
AcDbVertex
100
AcDb2dVertex
 10
138.5455725281145
 20
-221.0749999028509
 30
0.0
  0
SEQEND
  5
114
330
111
100
AcDbEntity
  8
Capa 1
 62
     7
370
    25
  0
POLYLINE
  5
115
330
F5
100
AcDbEntity
  8
Capa 1
 62
     7
370
    25
100
AcDb2dPolyline
 66
     1
 10
0.0
 20
0.0
 30
0.0
  0
VERTEX
  5
116
330
115
100
AcDbEntity
  8
Capa 1
 62
     7
370
    25
100
AcDbVertex
100
AcDb2dVertex
 10
-11.45442743438567
 20
-211.0749999053609
 30
0.0
  0
VERTEX
  5
117
330
115
100
AcDbEntity
  8
Capa 1
 62
     7
370
    25
100
AcDbVertex
100
AcDb2dVertex
 10
138.5455725281145
 20
-211.0749999053609
 30
0.0
  0
SEQEND
  5
118
330
115
100
AcDbEntity
  8
Capa 1
 62
     7
370
    25
  0
POLYLINE
  5
119
330
F5
100
AcDbEntity
  8
Capa 1
 62
     7
370
    25
100
AcDb2dPolyline
 66
     1
 10
0.0
 20
0.0
 30
0.0
  0
VERTEX
  5
11A
330
119
100
AcDbEntity
  8
Capa 1
 62
     7
370
    25
100
AcDbVertex
100
AcDb2dVertex
 10
-11.45442743438567
 20
-201.0749999078696
 30
0.0
  0
VERTEX
  5
11B
330
119
100
AcDbEntity
  8
Capa 1
 62
     7
370
    25
100
AcDbVertex
100
AcDb2dVertex
 10
138.5455725281145
 20
-201.0749999078696
 30
0.0
  0
SEQEND
  5
11C
330
119
100
AcDbEntity
  8
Capa 1
 62
     7
370
    25
  0
POLYLINE
  5
11D
330
F5
100
AcDbEntity
  8
Capa 1
 62
     7
370
    25
100
AcDb2dPolyline
 66
     1
 10
0.0
 20
0.0
 30
0.0
  0
VERTEX
  5
11E
330
11D
100
AcDbEntity
  8
Capa 1
 62
     7
370
    25
100
AcDbVertex
100
AcDb2dVertex
 10
-11.45442743438567
 20
-191.0749999103783
 30
0.0
  0
VERTEX
  5
11F
330
11D
100
AcDbEntity
  8
Capa 1
 62
     7
370
    25
100
AcDbVertex
100
AcDb2dVertex
 10
138.5455725281145
 20
-191.0749999103783
 30
0.0
  0
SEQEND
  5
120
330
11D
100
AcDbEntity
  8
Capa 1
 62
     7
370
    25
  0
POLYLINE
  5
121
330
F5
100
AcDbEntity
  8
Capa 1
 62
     7
370
    25
100
AcDb2dPolyline
 66
     1
 10
0.0
 20
0.0
 30
0.0
  0
VERTEX
  5
122
330
121
100
AcDbEntity
  8
Capa 1
 62
     7
370
    25
100
AcDbVertex
100
AcDb2dVertex
 10
-11.45442743438567
 20
-181.0749999128883
 30
0.0
  0
VERTEX
  5
123
330
121
100
AcDbEntity
  8
Capa 1
 62
     7
370
    25
100
AcDbVertex
100
AcDb2dVertex
 10
138.5455725281145
 20
-181.0749999128883
 30
0.0
  0
SEQEND
  5
124
330
121
100
AcDbEntity
  8
Capa 1
 62
     7
370
    25
  0
POLYLINE
  5
125
330
F5
100
AcDbEntity
  8
Capa 1
 62
     7
370
    25
100
AcDb2dPolyline
 66
     1
 10
0.0
 20
0.0
 30
0.0
  0
VERTEX
  5
126
330
125
100
AcDbEntity
  8
Capa 1
 62
     7
370
    25
100
AcDbVertex
100
AcDb2dVertex
 10
-11.45442743438567
 20
-171.074999915329
 30
0.0
  0
VERTEX
  5
127
330
125
100
AcDbEntity
  8
Capa 1
 62
     7
370
    25
100
AcDbVertex
100
AcDb2dVertex
 10
138.5455725281145
 20
-171.074999915329
 30
0.0
  0
SEQEND
  5
128
330
125
100
AcDbEntity
  8
Capa 1
 62
     7
370
    25
  0
POLYLINE
  5
129
330
F5
100
AcDbEntity
  8
Capa 1
 62
     7
370
    25
100
AcDb2dPolyline
 66
     1
 10
0.0
 20
0.0
 30
0.0
  0
VERTEX
  5
12A
330
129
100
AcDbEntity
  8
Capa 1
 62
     7
370
    25
100
AcDbVertex
100
AcDb2dVertex
 10
-11.45442743438567
 20
-161.0749999178377
 30
0.0
  0
VERTEX
  5
12B
330
129
100
AcDbEntity
  8
Capa 1
 62
     7
370
    25
100
AcDbVertex
100
AcDb2dVertex
 10
138.5455725281145
 20
-161.0749999178377
 30
0.0
  0
SEQEND
  5
12C
330
129
100
AcDbEntity
  8
Capa 1
 62
     7
370
    25
  0
POLYLINE
  5
12D
330
F5
100
AcDbEntity
  8
Capa 1
 62
     7
370
    25
100
AcDb2dPolyline
 66
     1
 10
0.0
 20
0.0
 30
0.0
  0
VERTEX
  5
12E
330
12D
100
AcDbEntity
  8
Capa 1
 62
     7
370
    25
100
AcDbVertex
100
AcDb2dVertex
 10
-11.45442743438567
 20
-151.0749999203463
 30
0.0
  0
VERTEX
  5
12F
330
12D
100
AcDbEntity
  8
Capa 1
 62
     7
370
    25
100
AcDbVertex
100
AcDb2dVertex
 10
138.5455725281145
 20
-151.0749999203463
 30
0.0
  0
SEQEND
  5
130
330
12D
100
AcDbEntity
  8
Capa 1
 62
     7
370
    25
  0
POLYLINE
  5
131
330
F5
100
AcDbEntity
  8
Capa 1
 62
     7
370
    25
100
AcDb2dPolyline
 66
     1
 10
0.0
 20
0.0
 30
0.0
  0
VERTEX
  5
132
330
131
100
AcDbEntity
  8
Capa 1
 62
     7
370
    25
100
AcDbVertex
100
AcDb2dVertex
 10
128.5455725306232
 20
-141.074999922856
 30
0.0
  0
VERTEX
  5
133
330
131
100
AcDbEntity
  8
Capa 1
 62
     7
370
    25
100
AcDbVertex
100
AcDb2dVertex
 10
128.5455725306232
 20
-291.0749998853556
 30
0.0
  0
SEQEND
  5
134
330
131
100
AcDbEntity
  8
Capa 1
 62
     7
370
    25
  0
POLYLINE
  5
135
330
F5
100
AcDbEntity
  8
Capa 1
 62
     7
370
    25
100
AcDb2dPolyline
 66
     1
 10
0.0
 20
0.0
 30
0.0
  0
VERTEX
  5
136
330
135
100
AcDbEntity
  8
Capa 1
 62
     7
370
    25
100
AcDbVertex
100
AcDb2dVertex
 10
118.5455725331326
 20
-141.074999922856
 30
0.0
  0
VERTEX
  5
137
330
135
100
AcDbEntity
  8
Capa 1
 62
     7
370
    25
100
AcDbVertex
100
AcDb2dVertex
 10
118.5455725331326
 20
-291.0749998853556
 30
0.0
  0
SEQEND
  5
138
330
135
100
AcDbEntity
  8
Capa 1
 62
     7
370
    25
  0
POLYLINE
  5
139
330
F5
100
AcDbEntity
  8
Capa 1
 62
     7
370
    25
100
AcDb2dPolyline
 66
     1
 10
0.0
 20
0.0
 30
0.0
  0
VERTEX
  5
13A
330
139
100
AcDbEntity
  8
Capa 1
 62
     7
370
    25
100
AcDbVertex
100
AcDb2dVertex
 10
108.5455725356413
 20
-141.074999922856
 30
0.0
  0
VERTEX
  5
13B
330
139
100
AcDbEntity
  8
Capa 1
 62
     7
370
    25
100
AcDbVertex
100
AcDb2dVertex
 10
108.5455725356413
 20
-291.0749998853556
 30
0.0
  0
SEQEND
  5
13C
330
139
100
AcDbEntity
  8
Capa 1
 62
     7
370
    25
  0
POLYLINE
  5
13D
330
F5
100
AcDbEntity
  8
Capa 1
 62
     7
370
    25
100
AcDb2dPolyline
 66
     1
 10
0.0
 20
0.0
 30
0.0
  0
VERTEX
  5
13E
330
13D
100
AcDbEntity
  8
Capa 1
 62
     7
370
    25
100
AcDbVertex
100
AcDb2dVertex
 10
98.54557253808258
 20
-141.074999922856
 30
0.0
  0
VERTEX
  5
13F
330
13D
100
AcDbEntity
  8
Capa 1
 62
     7
370
    25
100
AcDbVertex
100
AcDb2dVertex
 10
98.54557253808258
 20
-291.0749998853556
 30
0.0
  0
SEQEND
  5
140
330
13D
100
AcDbEntity
  8
Capa 1
 62
     7
370
    25
  0
POLYLINE
  5
141
330
F5
100
AcDbEntity
  8
Capa 1
 62
     7
370
    25
100
AcDb2dPolyline
 66
     1
 10
0.0
 20
0.0
 30
0.0
  0
VERTEX
  5
142
330
141
100
AcDbEntity
  8
Capa 1
 62
     7
370
    25
100
AcDbVertex
100
AcDb2dVertex
 10
88.54557254059159
 20
-141.074999922856
 30
0.0
  0
VERTEX
  5
143
330
141
100
AcDbEntity
  8
Capa 1
 62
     7
370
    25
100
AcDbVertex
100
AcDb2dVertex
 10
88.54557254059159
 20
-291.0749998853556
 30
0.0
  0
SEQEND
  5
144
330
141
100
AcDbEntity
  8
Capa 1
 62
     7
370
    25
  0
POLYLINE
  5
145
330
F5
100
AcDbEntity
  8
Capa 1
 62
     7
370
    25
100
AcDb2dPolyline
 66
     1
 10
0.0
 20
0.0
 30
0.0
  0
VERTEX
  5
146
330
145
100
AcDbEntity
  8
Capa 1
 62
     7
370
    25
100
AcDbVertex
100
AcDb2dVertex
 10
78.5455725431006
 20
-141.074999922856
 30
0.0
  0
VERTEX
  5
147
330
145
100
AcDbEntity
  8
Capa 1
 62
     7
370
    25
100
AcDbVertex
100
AcDb2dVertex
 10
78.5455725431006
 20
-291.0749998853556
 30
0.0
  0
SEQEND
  5
148
330
145
100
AcDbEntity
  8
Capa 1
 62
     7
370
    25
  0
POLYLINE
  5
149
330
F5
100
AcDbEntity
  8
Capa 1
 62
     7
370
    25
100
AcDb2dPolyline
 66
     1
 10
0.0
 20
0.0
 30
0.0
  0
VERTEX
  5
14A
330
149
100
AcDbEntity
  8
Capa 1
 62
     7
370
    25
100
AcDbVertex
100
AcDb2dVertex
 10
68.54557254560962
 20
-141.074999922856
 30
0.0
  0
VERTEX
  5
14B
330
149
100
AcDbEntity
  8
Capa 1
 62
     7
370
    25
100
AcDbVertex
100
AcDb2dVertex
 10
68.54557254560962
 20
-291.0749998853556
 30
0.0
  0
SEQEND
  5
14C
330
149
100
AcDbEntity
  8
Capa 1
 62
     7
370
    25
  0
POLYLINE
  5
14D
330
F5
100
AcDbEntity
  8
Capa 1
 62
     7
370
    25
100
AcDb2dPolyline
 66
     1
 10
0.0
 20
0.0
 30
0.0
  0
VERTEX
  5
14E
330
14D
100
AcDbEntity
  8
Capa 1
 62
     7
370
    25
100
AcDbVertex
100
AcDb2dVertex
 10
58.54557254811895
 20
-141.074999922856
 30
0.0
  0
VERTEX
  5
14F
330
14D
100
AcDbEntity
  8
Capa 1
 62
     7
370
    25
100
AcDbVertex
100
AcDb2dVertex
 10
58.54557254811895
 20
-291.0749998853556
 30
0.0
  0
SEQEND
  5
150
330
14D
100
AcDbEntity
  8
Capa 1
 62
     7
370
    25
  0
POLYLINE
  5
151
330
F5
100
AcDbEntity
  8
Capa 1
 62
     7
370
    25
100
AcDb2dPolyline
 66
     1
 10
0.0
 20
0.0
 30
0.0
  0
VERTEX
  5
152
330
151
100
AcDbEntity
  8
Capa 1
 62
     7
370
    25
100
AcDbVertex
100
AcDb2dVertex
 10
48.54557255062796
 20
-141.074999922856
 30
0.0
  0
VERTEX
  5
153
330
151
100
AcDbEntity
  8
Capa 1
 62
     7
370
    25
100
AcDbVertex
100
AcDb2dVertex
 10
48.54557255062796
 20
-291.0749998853556
 30
0.0
  0
SEQEND
  5
154
330
151
100
AcDbEntity
  8
Capa 1
 62
     7
370
    25
  0
POLYLINE
  5
155
330
F5
100
AcDbEntity
  8
Capa 1
 62
     7
370
    25
100
AcDb2dPolyline
 66
     1
 10
0.0
 20
0.0
 30
0.0
  0
VERTEX
  5
156
330
155
100
AcDbEntity
  8
Capa 1
 62
     7
370
    25
100
AcDbVertex
100
AcDb2dVertex
 10
38.54557255313697
 20
-141.074999922856
 30
0.0
  0
VERTEX
  5
157
330
155
100
AcDbEntity
  8
Capa 1
 62
     7
370
    25
100
AcDbVertex
100
AcDb2dVertex
 10
38.54557255313697
 20
-291.0749998853556
 30
0.0
  0
SEQEND
  5
158
330
155
100
AcDbEntity
  8
Capa 1
 62
     7
370
    25
  0
POLYLINE
  5
159
330
F5
100
AcDbEntity
  8
Capa 1
 62
     7
370
    25
100
AcDb2dPolyline
 66
     1
 10
0.0
 20
0.0
 30
0.0
  0
VERTEX
  5
15A
330
159
100
AcDbEntity
  8
Capa 1
 62
     7
370
    25
100
AcDbVertex
100
AcDb2dVertex
 10
28.5455725556463
 20
-141.074999922856
 30
0.0
  0
VERTEX
  5
15B
330
159
100
AcDbEntity
  8
Capa 1
 62
     7
370
    25
100
AcDbVertex
100
AcDb2dVertex
 10
28.5455725556463
 20
-291.0749998853556
 30
0.0
  0
SEQEND
  5
15C
330
159
100
AcDbEntity
  8
Capa 1
 62
     7
370
    25
  0
POLYLINE
  5
15D
330
F5
100
AcDbEntity
  8
Capa 1
 62
     7
370
    25
100
AcDb2dPolyline
 66
     1
 10
0.0
 20
0.0
 30
0.0
  0
VERTEX
  5
15E
330
15D
100
AcDbEntity
  8
Capa 1
 62
     7
370
    25
100
AcDbVertex
100
AcDb2dVertex
 10
18.54557255808697
 20
-141.074999922856
 30
0.0
  0
VERTEX
  5
15F
330
15D
100
AcDbEntity
  8
Capa 1
 62
     7
370
    25
100
AcDbVertex
100
AcDb2dVertex
 10
18.54557255808697
 20
-291.0749998853556
 30
0.0
  0
SEQEND
  5
160
330
15D
100
AcDbEntity
  8
Capa 1
 62
     7
370
    25
  0
POLYLINE
  5
161
330
F5
100
AcDbEntity
  8
Capa 1
 62
     7
370
    25
100
AcDb2dPolyline
 66
     1
 10
0.0
 20
0.0
 30
0.0
  0
VERTEX
  5
162
330
161
100
AcDbEntity
  8
Capa 1
 62
     7
370
    25
100
AcDbVertex
100
AcDb2dVertex
 10
8.545572560596305
 20
-141.074999922856
 30
0.0
  0
VERTEX
  5
163
330
161
100
AcDbEntity
  8
Capa 1
 62
     7
370
    25
100
AcDbVertex
100
AcDb2dVertex
 10
8.545572560596305
 20
-291.0749998853556
 30
0.0
  0
SEQEND
  5
164
330
161
100
AcDbEntity
  8
Capa 1
 62
     7
370
    25
  0
POLYLINE
  5
165
330
F5
100
AcDbEntity
  8
Capa 1
 62
     7
370
    25
100
AcDb2dPolyline
 66
     1
 10
0.0
 20
0.0
 30
0.0
  0
VERTEX
  5
166
330
165
100
AcDbEntity
  8
Capa 1
 62
     7
370
    25
100
AcDbVertex
100
AcDb2dVertex
 10
-1.454427436894683
 20
-141.074999922856
 30
0.0
  0
VERTEX
  5
167
330
165
100
AcDbEntity
  8
Capa 1
 62
     7
370
    25
100
AcDbVertex
100
AcDb2dVertex
 10
-1.454427436894683
 20
-291.0749998853556
 30
0.0
  0
SEQEND
  5
168
330
165
100
AcDbEntity
  8
Capa 1
 62
     7
370
    25
  0
ENDBLK
  5
F8
330
F5
100
AcDbEntity
  8
0
100
AcDbBlockEnd
  0
BLOCK
  5
16B
330
169
100
AcDbEntity
  8
0
100
AcDbBlockBegin
  2
block 20
 70
     0
 10
0.0
 20
0.0
 30
0.0
  3
block 20
  1

  0
POLYLINE
  5
16D
330
169
100
AcDbEntity
  8
Capa 1
 62
   250
370
    35
100
AcDb2dPolyline
 66
     1
 10
0.0
 20
0.0
 30
0.0
  0
VERTEX
  5
16E
330
16D
100
AcDbEntity
  8
Capa 1
 62
   250
370
    35
100
AcDbVertex
100
AcDb2dVertex
 10
142.4827413132831
 20
-144.1869422393752
 30
0.0
  0
VERTEX
  5
16F
330
16D
100
AcDbEntity
  8
Capa 1
 62
   250
370
    35
100
AcDbVertex
100
AcDb2dVertex
 10
142.4646545619856
 20
-144.1869422393752
 30
0.0
  0
VERTEX
  5
170
330
16D
100
AcDbEntity
  8
Capa 1
 62
   250
370
    35
100
AcDbVertex
100
AcDb2dVertex
 10
141.4409444385436
 20
-144.6768348173777
 30
0.0
  0
VERTEX
  5
171
330
16D
100
AcDbEntity
  8
Capa 1
 62
   250
370
    35
100
AcDbVertex
100
AcDb2dVertex
 10
141.2869486703529
 20
-144.1387109025817
 30
0.0
  0
VERTEX
  5
172
330
16D
100
AcDbEntity
  8
Capa 1
 62
   250
370
    35
100
AcDbVertex
100
AcDb2dVertex
 10
142.5733473245452
 20
-143.5284122373697
 30
0.0
  0
VERTEX
  5
173
330
16D
100
AcDbEntity
  8
Capa 1
 62
   250
370
    35
100
AcDbVertex
100
AcDb2dVertex
 10
143.2528924090107
 20
-143.5284122373697
 30
0.0
  0
VERTEX
  5
174
330
16D
100
AcDbEntity
  8
Capa 1
 62
   250
370
    35
100
AcDbVertex
100
AcDb2dVertex
 10
143.2528924090107
 20
-148.7487654261688
 30
0.0
  0
VERTEX
  5
175
330
16D
100
AcDbEntity
  8
Capa 1
 62
   250
370
    35
100
AcDbVertex
100
AcDb2dVertex
 10
142.4827413132831
 20
-148.7487654261688
 30
0.0
  0
VERTEX
  5
176
330
16D
100
AcDbEntity
  8
Capa 1
 62
   250
370
    35
100
AcDbVertex
100
AcDb2dVertex
 10
142.4827413132831
 20
-144.1869422393752
 30
0.0
  0
SEQEND
  5
177
330
16D
100
AcDbEntity
  8
Capa 1
 62
   250
370
    35
  0
SPLINE
  5
178
330
169
100
AcDbEntity
  8
Capa 1
 62
   250
370
    35
100
AcDbSpline
210
0.0
220
0.0
230
1.0
 70
    11
 71
     3
 72
    47
 73
    43
 74
     0
 42
0.0000000001
 43
0.0000000001
 12
1.0
 22
0.0
 32
0.0
 13
1.0
 23
0.0
 33
0.0
 40
0.0
 40
0.0
 40
0.0
 40
0.0
 40
1.0
 40
1.0
 40
1.0
 40
2.0
 40
2.0
 40
2.0
 40
3.0
 40
3.0
 40
3.0
 40
4.0
 40
4.0
 40
4.0
 40
5.0
 40
5.0
 40
5.0
 40
6.0
 40
6.0
 40
6.0
 40
7.0
 40
7.0
 40
7.0
 40
8.0
 40
8.0
 40
8.0
 40
9.0
 40
9.0
 40
9.0
 40
10.0
 40
10.0
 40
10.0
 40
11.0
 40
11.0
 40
11.0
 40
12.0
 40
12.0
 40
12.0
 40
13.0
 40
13.0
 40
13.0
 40
14.0
 40
14.0
 40
14.0
 40
14.0
 10
141.2869486703529
 20
-158.3621321229842
 30
0.0
 10
141.2869486703529
 20
-158.3621321229842
 30
0.0
 10
141.2869486703529
 20
-157.9283946013912
 30
0.0
 10
141.2869486703529
 20
-157.9283946013912
 30
0.0
 10
141.2869486703529
 20
-157.9283946013912
 30
0.0
 10
141.9120612461515
 20
-157.3902706865952
 30
0.0
 10
141.9120612461515
 20
-157.3902706865952
 30
0.0
 10
143.4158454254631
 20
-156.1214420193777
 30
0.0
 10
144.0953905099286
 20
-155.4467200685915
 30
0.0
 10
144.1043477581902
 20
-154.6596880049862
 30
0.0
 10
144.1043477581902
 20
-154.1296600645805
 30
0.0
 10
143.8144429731065
 20
-153.639767486578
 30
0.0
 10
142.9357713695935
 20
-153.639767486578
 30
0.0
 10
142.401264805057
 20
-153.639767486578
 30
0.0
 10
141.9573642517825
 20
-153.8805796609969
 30
0.0
 10
141.6855462179963
 20
-154.081428727787
 30
0.0
 10
141.6855462179963
 20
-154.081428727787
 30
0.0
 10
141.4318149355077
 20
-153.5834401753941
 30
0.0
 10
141.4318149355077
 20
-153.5834401753941
 30
0.0
 10
141.839541986187
 20
-153.278204715401
 30
0.0
 10
142.4193515563545
 20
-153.0534122349884
 30
0.0
 10
143.0987243860458
 20
-153.0534122349884
 30
0.0
 10
144.3672085437148
 20
-153.0534122349884
 30
0.0
 10
144.9017151082513
 20
-153.8244246045874
 30
0.0
 10
144.9017151082513
 20
-154.5713213057895
 30
0.0
 10
144.9017151082513
 20
-155.5350867677882
 30
0.0
 10
144.1134772612262
 20
-156.3141951117774
 30
0.0
 10
142.8723816126649
 20
-157.3742509925888
 30
0.0
 10
142.8723816126649
 20
-157.3742509925888
 30
0.0
 10
142.401264805057
 20
-157.7597571773883
 30
0.0
 10
142.401264805057
 20
-157.7597571773883
 30
0.0
 10
142.401264805057
 20
-157.7597571773883
 30
0.0
 10
142.401264805057
 20
-157.7757768713947
 30
0.0
 10
142.401264805057
 20
-157.7757768713947
 30
0.0
 10
142.401264805057
 20
-157.7757768713947
 30
0.0
 10
145.0465813734061
 20
-157.7757768713947
 30
0.0
 10
145.0465813734061
 20
-157.7757768713947
 30
0.0
 10
145.0465813734061
 20
-157.7757768713947
 30
0.0
 10
145.0465813734061
 20
-158.3621321229842
 30
0.0
 10
145.0465813734061
 20
-158.3621321229842
 30
0.0
 10
145.0465813734061
 20
-158.3621321229842
 30
0.0
 10
141.2869486703529
 20
-158.3621321229842
 30
0.0
 10
141.2869486703529
 20
-158.3621321229842
 30
0.0
  0
SPLINE
  5
179
330
169
100
AcDbEntity
  8
Capa 1
 62
   250
370
    35
100
AcDbSpline
210
0.0
220
0.0
230
1.0
 70
    11
 71
     3
 72
    59
 73
    55
 74
     0
 42
0.0000000001
 43
0.0000000001
 12
1.0
 22
0.0
 32
0.0
 13
1.0
 23
0.0
 33
0.0
 40
0.0
 40
0.0
 40
0.0
 40
0.0
 40
1.0
 40
1.0
 40
1.0
 40
2.0
 40
2.0
 40
2.0
 40
3.0
 40
3.0
 40
3.0
 40
4.0
 40
4.0
 40
4.0
 40
5.0
 40
5.0
 40
5.0
 40
6.0
 40
6.0
 40
6.0
 40
7.0
 40
7.0
 40
7.0
 40
8.0
 40
8.0
 40
8.0
 40
9.0
 40
9.0
 40
9.0
 40
10.0
 40
10.0
 40
10.0
 40
11.0
 40
11.0
 40
11.0
 40
12.0
 40
12.0
 40
12.0
 40
13.0
 40
13.0
 40
13.0
 40
14.0
 40
14.0
 40
14.0
 40
15.0
 40
15.0
 40
15.0
 40
16.0
 40
16.0
 40
16.0
 40
17.0
 40
17.0
 40
17.0
 40
18.0
 40
18.0
 40
18.0
 40
18.0
 10
141.5043341954722
 20
-168.028897799821
 30
0.0
 10
141.7308492236274
 20
-168.1573998614208
 30
0.0
 10
142.256226285128
 20
-168.3582489282109
 30
0.0
 10
142.8089918557363
 20
-168.3582489282109
 30
0.0
 10
143.8327019791783
 20
-168.3582489282109
 30
0.0
 10
144.1498230185955
 20
-167.7798173962374
 30
0.0
 10
144.1406935155596
 20
-167.3462521294187
 30
0.0
 10
144.1315640125237
 20
-166.615375122223
 30
0.0
 10
143.3888014259038
 20
-166.3022159426137
 30
0.0
 10
142.6186503301763
 20
-166.3022159426137
 30
0.0
 10
142.6186503301763
 20
-166.3022159426137
 30
0.0
 10
142.1747497769018
 20
-166.3022159426137
 30
0.0
 10
142.1747497769018
 20
-166.3022159426137
 30
0.0
 10
142.1747497769018
 20
-166.3022159426137
 30
0.0
 10
142.1747497769018
 20
-165.7720157474338
 30
0.0
 10
142.1747497769018
 20
-165.7720157474338
 30
0.0
 10
142.1747497769018
 20
-165.7720157474338
 30
0.0
 10
142.6186503301763
 20
-165.7720157474338
 30
0.0
 10
142.6186503301763
 20
-165.7720157474338
 30
0.0
 10
143.1984599003438
 20
-165.7720157474338
 30
0.0
 10
143.932265238702
 20
-165.5070879046181
 30
0.0
 10
143.932265238702
 20
-164.8886932650157
 30
0.0
 10
143.932265238702
 20
-164.4709754374292
 30
0.0
 10
143.6334032053566
 20
-164.1014889466362
 30
0.0
 10
142.8995978669984
 20
-164.1014889466362
 30
0.0
 10
142.4284810593905
 20
-164.1014889466362
 30
0.0
 10
141.9754510030801
 20
-164.2863183194198
 30
0.0
 10
141.7217197205915
 20
-164.4468597690324
 30
0.0
 10
141.7217197205915
 20
-164.4468597690324
 30
0.0
 10
141.5134636985081
 20
-163.9328515226332
 30
0.0
 10
141.5134636985081
 20
-163.9328515226332
 30
0.0
 10
141.8214552348894
 20
-163.7321747106174
 30
0.0
 10
142.4193515563545
 20
-163.5313256438273
 30
0.0
 10
143.053593635189
 20
-163.5313256438273
 30
0.0
 10
144.2132127755241
 20
-163.5313256438273
 30
0.0
 10
144.7385898370247
 20
-164.1416243090393
 30
0.0
 10
144.7385898370247
 20
-164.7762108974223
 30
0.0
 10
144.7385898370247
 20
-165.3143348122184
 30
0.0
 10
144.3761657919765
 20
-165.7720157474338
 30
0.0
 10
143.6514899566542
 20
-166.0049042022367
 30
0.0
 10
143.6514899566542
 20
-166.0049042022367
 30
0.0
 10
143.6514899566542
 20
-166.0210961510174
 30
0.0
 10
143.6514899566542
 20
-166.0210961510174
 30
0.0
 10
144.3761657919765
 20
-166.1495982126172
 30
0.0
 10
144.9651048651799
 20
-166.6313948162294
 30
0.0
 10
144.9651048651799
 20
-167.3622718234251
 30
0.0
 10
144.9651048651799
 20
-168.1975352238239
 30
0.0
 10
144.2312995268217
 20
-168.9284122310197
 30
0.0
 10
142.817949103998
 20
-168.9284122310197
 30
0.0
 10
142.1566630256042
 20
-168.9284122310197
 30
0.0
 10
141.5768534554367
 20
-168.7437551130103
 30
0.0
 10
141.2869486703529
 20
-168.5749454342331
 30
0.0
 10
141.2869486703529
 20
-168.5749454342331
 30
0.0
 10
141.5043341954722
 20
-168.028897799821
 30
0.0
 10
141.5043341954722
 20
-168.028897799821
 30
0.0
  0
POLYLINE
  5
17A
330
169
100
AcDbEntity
  8
Capa 1
 62
   250
370
    35
100
AcDb2dPolyline
 66
     1
 10
0.0
 20
0.0
 30
0.0
  0
VERTEX
  5
17B
330
17A
100
AcDbEntity
  8
Capa 1
 62
   250
370
    35
100
AcDbVertex
100
AcDb2dVertex
 10
144.0228712499641
 20
-178.4534122286385
 30
0.0
  0
VERTEX
  5
17C
330
17A
100
AcDbEntity
  8
Capa 1
 62
   250
370
    35
100
AcDbVertex
100
AcDb2dVertex
 10
144.0228712499641
 20
-177.0317935766501
 30
0.0
  0
VERTEX
  5
17D
330
17A
100
AcDbEntity
  8
Capa 1
 62
   250
370
    35
100
AcDbVertex
100
AcDb2dVertex
 10
141.2869486703529
 20
-177.0317935766501
 30
0.0
  0
VERTEX
  5
17E
330
17A
100
AcDbEntity
  8
Capa 1
 62
   250
370
    35
100
AcDbVertex
100
AcDb2dVertex
 10
141.2869486703529
 20
-176.5660166670443
 30
0.0
  0
VERTEX
  5
17F
330
17A
100
AcDbEntity
  8
Capa 1
 62
   250
370
    35
100
AcDbVertex
100
AcDb2dVertex
 10
143.9141784874045
 20
-173.2330590398394
 30
0.0
  0
VERTEX
  5
180
330
17A
100
AcDbEntity
  8
Capa 1
 62
   250
370
    35
100
AcDbVertex
100
AcDb2dVertex
 10
144.7747633396199
 20
-173.2330590398394
 30
0.0
  0
VERTEX
  5
181
330
17A
100
AcDbEntity
  8
Capa 1
 62
   250
370
    35
100
AcDbVertex
100
AcDb2dVertex
 10
144.7747633396199
 20
-176.4776499678477
 30
0.0
  0
VERTEX
  5
182
330
17A
100
AcDbEntity
  8
Capa 1
 62
   250
370
    35
100
AcDbVertex
100
AcDb2dVertex
 10
145.5993469440144
 20
-176.4776499678477
 30
0.0
  0
VERTEX
  5
183
330
17A
100
AcDbEntity
  8
Capa 1
 62
   250
370
    35
100
AcDbVertex
100
AcDb2dVertex
 10
145.5993469440144
 20
-177.0317935766501
 30
0.0
  0
VERTEX
  5
184
330
17A
100
AcDbEntity
  8
Capa 1
 62
   250
370
    35
100
AcDbVertex
100
AcDb2dVertex
 10
144.7747633396199
 20
-177.0317935766501
 30
0.0
  0
VERTEX
  5
185
330
17A
100
AcDbEntity
  8
Capa 1
 62
   250
370
    35
100
AcDbVertex
100
AcDb2dVertex
 10
144.7747633396199
 20
-178.4534122286385
 30
0.0
  0
VERTEX
  5
186
330
17A
100
AcDbEntity
  8
Capa 1
 62
   250
370
    35
100
AcDbVertex
100
AcDb2dVertex
 10
144.0228712499641
 20
-178.4534122286385
 30
0.0
  0
SEQEND
  5
187
330
17A
100
AcDbEntity
  8
Capa 1
 62
   250
370
    35
  0
SPLINE
  5
188
330
169
100
AcDbEntity
  8
Capa 1
 62
   250
370
    35
100
AcDbSpline
210
0.0
220
0.0
230
1.0
 70
    11
 71
     3
 72
    26
 73
    22
 74
     0
 42
0.0000000001
 43
0.0000000001
 12
1.0
 22
0.0
 32
0.0
 13
1.0
 23
0.0
 33
0.0
 40
0.0
 40
0.0
 40
0.0
 40
0.0
 40
1.0
 40
1.0
 40
1.0
 40
2.0
 40
2.0
 40
2.0
 40
3.0
 40
3.0
 40
3.0
 40
4.0
 40
4.0
 40
4.0
 40
5.0
 40
5.0
 40
5.0
 40
6.0
 40
6.0
 40
6.0
 40
7.0
 40
7.0
 40
7.0
 40
7.0
 10
144.0228712499641
 20
-176.4776499678477
 30
0.0
 10
144.0228712499641
 20
-176.4776499678477
 30
0.0
 10
144.0228712499641
 20
-174.734948416634
 30
0.0
 10
144.0228712499641
 20
-174.734948416634
 30
0.0
 10
144.0228712499641
 20
-174.4617523446537
 30
0.0
 10
144.032000753
 20
-174.1887285274477
 30
0.0
 10
144.0500875042976
 20
-173.9157047102416
 30
0.0
 10
144.0500875042976
 20
-173.9157047102416
 30
0.0
 10
144.0228712499641
 20
-173.9157047102416
 30
0.0
 10
144.0228712499641
 20
-173.9157047102416
 30
0.0
 10
143.8416592274399
 20
-174.2209401702347
 30
0.0
 10
143.6967929622852
 20
-174.4457326506473
 30
0.0
 10
143.5336676910586
 20
-174.6867170798405
 30
0.0
 10
143.5336676910586
 20
-174.6867170798405
 30
0.0
 10
142.0932732686757
 20
-176.4616302738413
 30
0.0
 10
142.0932732686757
 20
-176.4616302738413
 30
0.0
 10
142.0932732686757
 20
-176.4616302738413
 30
0.0
 10
142.0932732686757
 20
-176.4776499678477
 30
0.0
 10
142.0932732686757
 20
-176.4776499678477
 30
0.0
 10
142.0932732686757
 20
-176.4776499678477
 30
0.0
 10
144.0228712499641
 20
-176.4776499678477
 30
0.0
 10
144.0228712499641
 20
-176.4776499678477
 30
0.0
  0
SPLINE
  5
189
330
169
100
AcDbEntity
  8
Capa 1
 62
   250
370
    35
100
AcDbSpline
210
0.0
220
0.0
230
1.0
 70
    11
 71
     3
 72
    50
 73
    46
 74
     0
 42
0.0000000001
 43
0.0000000001
 12
1.0
 22
0.0
 32
0.0
 13
1.0
 23
0.0
 33
0.0
 40
0.0
 40
0.0
 40
0.0
 40
0.0
 40
1.0
 40
1.0
 40
1.0
 40
2.0
 40
2.0
 40
2.0
 40
3.0
 40
3.0
 40
3.0
 40
4.0
 40
4.0
 40
4.0
 40
5.0
 40
5.0
 40
5.0
 40
6.0
 40
6.0
 40
6.0
 40
7.0
 40
7.0
 40
7.0
 40
8.0
 40
8.0
 40
8.0
 40
9.0
 40
9.0
 40
9.0
 40
10.0
 40
10.0
 40
10.0
 40
11.0
 40
11.0
 40
11.0
 40
12.0
 40
12.0
 40
12.0
 40
13.0
 40
13.0
 40
13.0
 40
14.0
 40
14.0
 40
14.0
 40
15.0
 40
15.0
 40
15.0
 40
15.0
 10
144.8291958482868
 20
-183.2639713094671
 30
0.0
 10
144.8291958482868
 20
-183.2639713094671
 30
0.0
 10
142.5824768275811
 20
-183.2639713094671
 30
0.0
 10
142.5824768275811
 20
-183.2639713094671
 30
0.0
 10
142.5824768275811
 20
-183.2639713094671
 30
0.0
 10
142.355961799426
 20
-184.6051469818748
 30
0.0
 10
142.355961799426
 20
-184.6051469818748
 30
0.0
 10
142.4918708163191
 20
-184.5891272878684
 30
0.0
 10
142.6186503301763
 20
-184.573107593862
 30
0.0
 10
142.8360358552955
 20
-184.573107593862
 30
0.0
 10
143.2890659116059
 20
-184.573107593862
 30
0.0
 10
143.7420959679162
 20
-184.6614742930587
 30
0.0
 10
144.1045200129645
 20
-184.8542273854584
 30
0.0
 10
144.5665073175365
 20
-185.0871158402613
 30
0.0
 10
144.9470181138824
 20
-185.5368730558606
 30
0.0
 10
144.9470181138824
 20
-186.1954030578661
 30
0.0
 10
144.9470181138824
 20
-187.2153235762744
 30
0.0
 10
144.032000753
 20
-187.9784122262572
 30
0.0
 10
142.7545593470693
 20
-187.9784122262572
 30
0.0
 10
142.1113600199732
 20
-187.9784122262572
 30
0.0
 10
141.5677239524008
 20
-187.8176985218703
 30
0.0
 10
141.2869486703529
 20
-187.6571570722576
 30
0.0
 10
141.2869486703529
 20
-187.6571570722576
 30
0.0
 10
141.4862474441746
 20
-187.1190331574616
 30
0.0
 10
141.4862474441746
 20
-187.1190331574616
 30
0.0
 10
141.7308492236274
 20
-187.2475352190614
 30
0.0
 10
142.2109232794969
 20
-187.4082489234484
 30
0.0
 10
142.7456020988077
 20
-187.4082489234484
 30
0.0
 10
143.4974941884635
 20
-187.4082489234484
 30
0.0
 10
144.1406935155596
 20
-186.9745114018554
 30
0.0
 10
144.1406935155596
 20
-186.2756737826725
 30
0.0
 10
144.1315640125237
 20
-185.6011240866605
 30
0.0
 10
143.6242737023207
 20
-185.1191552282741
 30
0.0
 10
142.446567810688
 20
-185.1191552282741
 30
0.0
 10
142.1113600199732
 20
-185.1191552282741
 30
0.0
 10
141.8486714892229
 20
-185.1513668710612
 30
0.0
 10
141.6311137093294
 20
-185.1754825394579
 30
0.0
 10
141.6311137093294
 20
-185.1754825394579
 30
0.0
 10
142.0116245056752
 20
-182.6696923382615
 30
0.0
 10
142.0116245056752
 20
-182.6696923382615
 30
0.0
 10
142.0116245056752
 20
-182.6696923382615
 30
0.0
 10
144.8291958482868
 20
-182.6696923382615
 30
0.0
 10
144.8291958482868
 20
-182.6696923382615
 30
0.0
 10
144.8291958482868
 20
-182.6696923382615
 30
0.0
 10
144.8291958482868
 20
-183.2639713094671
 30
0.0
 10
144.8291958482868
 20
-183.2639713094671
 30
0.0
  0
SPLINE
  5
18A
330
169
100
AcDbEntity
  8
Capa 1
 62
   250
370
    35
100
AcDbSpline
210
0.0
220
0.0
230
1.0
 70
    11
 71
     3
 72
    38
 73
    34
 74
     0
 42
0.0000000001
 43
0.0000000001
 12
1.0
 22
0.0
 32
0.0
 13
1.0
 23
0.0
 33
0.0
 40
0.0
 40
0.0
 40
0.0
 40
0.0
 40
1.0
 40
1.0
 40
1.0
 40
2.0
 40
2.0
 40
2.0
 40
3.0
 40
3.0
 40
3.0
 40
4.0
 40
4.0
 40
4.0
 40
5.0
 40
5.0
 40
5.0
 40
6.0
 40
6.0
 40
6.0
 40
7.0
 40
7.0
 40
7.0
 40
8.0
 40
8.0
 40
8.0
 40
9.0
 40
9.0
 40
9.0
 40
10.0
 40
10.0
 40
10.0
 40
11.0
 40
11.0
 40
11.0
 40
11.0
 10
144.7477193400607
 20
-194.9064992470946
 30
0.0
 10
144.5845940688341
 20
-194.8985755274785
 30
0.0
 10
144.3763380467507
 20
-194.9064992470946
 30
0.0
 10
144.1498230185955
 20
-194.9387108898817
 30
0.0
 10
142.8995978669984
 20
-195.1233680078911
 30
0.0
 10
142.2383117886047
 20
-195.9345157398932
 30
0.0
 10
142.1024027717116
 20
-196.7938948086887
 30
0.0
 10
142.1024027717116
 20
-196.7938948086887
 30
0.0
 10
142.1294467712708
 20
-196.7938948086887
 30
0.0
 10
142.1294467712708
 20
-196.7938948086887
 30
0.0
 10
142.4103943080929
 20
-196.4647159350731
 30
0.0
 10
142.8995978669984
 20
-196.1915198630928
 30
0.0
 10
143.5519266971304
 20
-196.1915198630928
 30
0.0
 10
144.59372357187
 20
-196.1915198630928
 30
0.0
 10
145.3275289102282
 20
-196.8581458394887
 30
0.0
 10
145.3275289102282
 20
-197.8782386126711
 30
0.0
 10
145.3275289102282
 20
-198.8339081002794
 30
0.0
 10
144.59372357187
 20
-199.7174028374718
 30
0.0
 10
143.3707146746063
 20
-199.7174028374718
 30
0.0
 10
142.1113600199732
 20
-199.7174028374718
 30
0.0
 10
141.2869486703529
 20
-198.8499277942858
 30
0.0
 10
141.2869486703529
 20
-197.4927324278717
 30
0.0
 10
141.2869486703529
 20
-196.4647159350731
 30
0.0
 10
141.7036329692939
 20
-195.653568203071
 30
0.0
 10
142.2834425394614
 20
-195.1395599566718
 30
0.0
 10
142.7728183531412
 20
-194.7139184094692
 30
0.0
 10
143.424974928499
 20
-194.4488183118792
 30
0.0
 10
144.1679097698931
 20
-194.3685475870728
 30
0.0
 10
144.4033820463099
 20
-194.3363359442858
 30
0.0
 10
144.6026808201316
 20
-194.3284122246697
 30
0.0
 10
144.7477193400607
 20
-194.3284122246697
 30
0.0
 10
144.7477193400607
 20
-194.3284122246697
 30
0.0
 10
144.7477193400607
 20
-194.9064992470946
 30
0.0
 10
144.7477193400607
 20
-194.9064992470946
 30
0.0
  0
SPLINE
  5
18B
330
169
100
AcDbEntity
  8
Capa 1
 62
   250
370
    35
100
AcDbSpline
210
0.0
220
0.0
230
1.0
 70
    11
 71
     3
 72
    20
 73
    16
 74
     0
 42
0.0000000001
 43
0.0000000001
 12
1.0
 22
0.0
 32
0.0
 13
1.0
 23
0.0
 33
0.0
 40
0.0
 40
0.0
 40
0.0
 40
0.0
 40
1.0
 40
1.0
 40
1.0
 40
2.0
 40
2.0
 40
2.0
 40
3.0
 40
3.0
 40
3.0
 40
4.0
 40
4.0
 40
4.0
 40
5.0
 40
5.0
 40
5.0
 40
5.0
 10
144.5212043119055
 20
-197.9183739750743
 30
0.0
 10
144.5212043119055
 20
-197.1714772738721
 30
0.0
 10
144.0411302560359
 20
-196.7217200582728
 30
0.0
 10
143.3073249176777
 20
-196.7217200582728
 30
0.0
 10
142.8270786070339
 20
-196.7217200582728
 30
0.0
 10
142.3831780537594
 20
-196.9866479010885
 30
0.0
 10
142.1657925286402
 20
-197.3642303662718
 30
0.0
 10
142.1113600199732
 20
-197.4445010910782
 30
0.0
 10
142.0751865173781
 20
-197.5488874842812
 30
0.0
 10
142.0751865173781
 20
-197.6773895458811
 30
0.0
 10
142.0932732686757
 20
-198.5367686146766
 30
0.0
 10
142.5371738219501
 20
-199.1711829482854
 30
0.0
 10
143.3707146746063
 20
-199.1711829482854
 30
0.0
 10
144.0592170073335
 20
-199.1711829482854
 30
0.0
 10
144.5212043119055
 20
-198.6652706762765
 30
0.0
 10
144.5212043119055
 20
-197.9183739750743
 30
0.0
  0
POLYLINE
  5
18C
330
169
100
AcDbEntity
  8
Capa 1
 62
   250
370
    35
100
AcDb2dPolyline
 66
     1
 10
0.0
 20
0.0
 30
0.0
  0
VERTEX
  5
18D
330
18C
100
AcDbEntity
  8
Capa 1
 62
   250
370
    35
100
AcDbVertex
100
AcDb2dVertex
 10
145.001278367775
 20
-203.8534122222885
 30
0.0
  0
VERTEX
  5
18E
330
18C
100
AcDbEntity
  8
Capa 1
 62
   250
370
    35
100
AcDbVertex
100
AcDb2dVertex
 10
145.001278367775
 20
-204.3191891318942
 30
0.0
  0
VERTEX
  5
18F
330
18C
100
AcDbEntity
  8
Capa 1
 62
   250
370
    35
100
AcDbVertex
100
AcDb2dVertex
 10
142.4374383076521
 20
-209.0737654110875
 30
0.0
  0
VERTEX
  5
190
330
18C
100
AcDbEntity
  8
Capa 1
 62
   250
370
    35
100
AcDbVertex
100
AcDb2dVertex
 10
141.6130269580318
 20
-209.0737654110875
 30
0.0
  0
VERTEX
  5
191
330
18C
100
AcDbEntity
  8
Capa 1
 62
   250
370
    35
100
AcDbVertex
100
AcDb2dVertex
 10
144.1679097698931
 20
-204.4557871678844
 30
0.0
  0
VERTEX
  5
192
330
18C
100
AcDbEntity
  8
Capa 1
 62
   250
370
    35
100
AcDbVertex
100
AcDb2dVertex
 10
144.1679097698931
 20
-204.4395952191037
 30
0.0
  0
VERTEX
  5
193
330
18C
100
AcDbEntity
  8
Capa 1
 62
   250
370
    35
100
AcDbVertex
100
AcDb2dVertex
 10
141.2869486703529
 20
-204.4395952191037
 30
0.0
  0
VERTEX
  5
194
330
18C
100
AcDbEntity
  8
Capa 1
 62
   250
370
    35
100
AcDbVertex
100
AcDb2dVertex
 10
141.2869486703529
 20
-203.8534122222885
 30
0.0
  0
VERTEX
  5
195
330
18C
100
AcDbEntity
  8
Capa 1
 62
   250
370
    35
100
AcDbVertex
100
AcDb2dVertex
 10
145.001278367775
 20
-203.8534122222885
 30
0.0
  0
SEQEND
  5
196
330
18C
100
AcDbEntity
  8
Capa 1
 62
   250
370
    35
  0
SPLINE
  5
197
330
169
100
AcDbEntity
  8
Capa 1
 62
   250
370
    35
100
AcDbSpline
210
0.0
220
0.0
230
1.0
 70
    11
 71
     3
 72
    35
 73
    31
 74
     0
 42
0.0000000001
 43
0.0000000001
 12
1.0
 22
0.0
 32
0.0
 13
1.0
 23
0.0
 33
0.0
 40
0.0
 40
0.0
 40
0.0
 40
0.0
 40
1.0
 40
1.0
 40
1.0
 40
2.0
 40
2.0
 40
2.0
 40
3.0
 40
3.0
 40
3.0
 40
4.0
 40
4.0
 40
4.0
 40
5.0
 40
5.0
 40
5.0
 40
6.0
 40
6.0
 40
6.0
 40
7.0
 40
7.0
 40
7.0
 40
8.0
 40
8.0
 40
8.0
 40
9.0
 40
9.0
 40
9.0
 40
10.0
 40
10.0
 40
10.0
 40
10.0
 10
141.2869486703529
 20
-217.3618038747273
 30
0.0
 10
141.2869486703529
 20
-216.7034461274961
 30
0.0
 10
141.7308492236274
 20
-216.2373247083418
 30
0.0
 10
142.4556973137239
 20
-215.96447314591
 30
0.0
 10
142.4556973137239
 20
-215.96447314591
 30
0.0
 10
142.446567810688
 20
-215.9403574775132
 30
0.0
 10
142.446567810688
 20
-215.9403574775132
 30
0.0
 10
141.794238980556
 20
-215.6675059150814
 30
0.0
 10
141.5134636985081
 20
-215.2175764447078
 30
0.0
 10
141.5134636985081
 20
-214.7676469743342
 30
0.0
 10
141.5134636985081
 20
-213.9406518031
 30
0.0
 10
142.301529290759
 20
-213.3784122199072
 30
0.0
 10
143.3343689172369
 20
-213.3784122199072
 30
0.0
 10
144.4759013062744
 20
-213.3784122199072
 30
0.0
 10
145.0465813734061
 20
-214.012826553516
 30
0.0
 10
145.0465813734061
 20
-214.6636050906797
 30
0.0
 10
145.0465813734061
 20
-215.1052663318887
 30
0.0
 10
144.8019795939533
 20
-215.5789669611105
 30
0.0
 10
144.077303758631
 20
-215.8842024211037
 30
0.0
 10
144.077303758631
 20
-215.8842024211037
 30
0.0
 10
144.077303758631
 20
-215.9083180895004
 30
0.0
 10
144.077303758631
 20
-215.9083180895004
 30
0.0
 10
144.8111090969892
 20
-216.1653222127001
 30
0.0
 10
145.2641391532996
 20
-216.6231754026898
 30
0.0
 10
145.2641391532996
 20
-217.2577619910728
 30
0.0
 10
145.2641391532996
 20
-218.1652001418876
 30
0.0
 10
144.3852952950124
 20
-218.7756710618739
 30
0.0
 10
143.2618496572724
 20
-218.7756710618739
 30
0.0
 10
142.029883511747
 20
-218.7756710618739
 30
0.0
 10
141.2869486703529
 20
-218.1248925247102
 30
0.0
 10
141.2869486703529
 20
-217.3618038747273
 30
0.0
  0
SPLINE
  5
198
330
169
100
AcDbEntity
  8
Capa 1
 62
   250
370
    35
100
AcDbSpline
210
0.0
220
0.0
230
1.0
 70
    11
 71
     3
 72
    17
 73
    13
 74
     0
 42
0.0000000001
 43
0.0000000001
 12
1.0
 22
0.0
 32
0.0
 13
1.0
 23
0.0
 33
0.0
 40
0.0
 40
0.0
 40
0.0
 40
0.0
 40
1.0
 40
1.0
 40
1.0
 40
2.0
 40
2.0
 40
2.0
 40
3.0
 40
3.0
 40
3.0
 40
4.0
 40
4.0
 40
4.0
 40
4.0
 10
144.4578145549769
 20
-217.3297644867145
 30
0.0
 10
144.4578145549769
 20
-216.69552240788
 30
0.0
 10
143.9594814930355
 20
-216.3902869478869
 30
0.0
 10
143.1622863977487
 20
-216.1894378810968
 30
0.0
 10
142.4737840650215
 20
-216.3661712794901
 30
0.0
 10
142.1022305169373
 20
-216.7678694130703
 30
0.0
 10
142.1022305169373
 20
-217.2653412011403
 30
0.0
 10
142.0751865173781
 20
-217.7958859058688
 30
0.0
 10
142.5280443189142
 20
-218.2616628154746
 30
0.0
 10
143.2801086633442
 20
-218.2616628154746
 30
0.0
 10
143.9956549956306
 20
-218.2616628154746
 30
0.0
 10
144.4578145549769
 20
-217.8678884015105
 30
0.0
 10
144.4578145549769
 20
-217.3297644867145
 30
0.0
  0
SPLINE
  5
199
330
169
100
AcDbEntity
  8
Capa 1
 62
   250
370
    35
100
AcDbSpline
210
0.0
220
0.0
230
1.0
 70
    11
 71
     3
 72
    17
 73
    13
 74
     0
 42
0.0000000001
 43
0.0000000001
 12
1.0
 22
0.0
 32
0.0
 13
1.0
 23
0.0
 33
0.0
 40
0.0
 40
0.0
 40
0.0
 40
0.0
 40
1.0
 40
1.0
 40
1.0
 40
2.0
 40
2.0
 40
2.0
 40
3.0
 40
3.0
 40
3.0
 40
4.0
 40
4.0
 40
4.0
 40
4.0
 10
142.2653557881639
 20
-214.7194156375407
 30
0.0
 10
142.2653557881639
 20
-215.2416921131046
 30
0.0
 10
142.7092563414383
 20
-215.5228119047009
 30
0.0
 10
143.3888014259038
 20
-215.6833533543136
 30
0.0
 10
143.8960917361069
 20
-215.530735624317
 30
0.0
 10
144.2857320354886
 20
-215.2093082155432
 30
0.0
 10
144.2857320354886
 20
-214.7356075863214
 30
0.0
 10
144.2857320354886
 20
-214.3180620135091
 30
0.0
 10
144.0047844986665
 20
-213.8843244919161
 30
0.0
 10
143.2890659116059
 20
-213.8843244919161
 30
0.0
 10
142.6277798332122
 20
-213.8843244919161
 30
0.0
 10
142.2653557881639
 20
-214.2698306767156
 30
0.0
 10
142.2653557881639
 20
-214.7194156375407
 30
0.0
  0
SPLINE
  5
19A
330
169
100
AcDbEntity
  8
Capa 1
 62
   250
370
    35
100
AcDbSpline
210
0.0
220
0.0
230
1.0
 70
    11
 71
     3
 72
    41
 73
    37
 74
     0
 42
0.0000000001
 43
0.0000000001
 12
1.0
 22
0.0
 32
0.0
 13
1.0
 23
0.0
 33
0.0
 40
0.0
 40
0.0
 40
0.0
 40
0.0
 40
1.0
 40
1.0
 40
1.0
 40
2.0
 40
2.0
 40
2.0
 40
3.0
 40
3.0
 40
3.0
 40
4.0
 40
4.0
 40
4.0
 40
5.0
 40
5.0
 40
5.0
 40
6.0
 40
6.0
 40
6.0
 40
7.0
 40
7.0
 40
7.0
 40
8.0
 40
8.0
 40
8.0
 40
9.0
 40
9.0
 40
9.0
 40
10.0
 40
10.0
 40
10.0
 40
11.0
 40
11.0
 40
11.0
 40
12.0
 40
12.0
 40
12.0
 40
12.0
 10
141.7852817322943
 20
-227.7144880626773
 30
0.0
 10
141.9573642517825
 20
-227.7303355019095
 30
0.0
 10
142.1566630256042
 20
-227.7144880626773
 30
0.0
 10
142.4284810593905
 20
-227.6903723942806
 30
0.0
 10
142.8904683639625
 20
-227.634217337871
 30
0.0
 10
143.3254116689752
 20
-227.4654076590938
 30
0.0
 10
143.6606194596901
 20
-227.1842878674974
 30
0.0
 10
144.0500875042976
 20
-226.8711286878882
 30
0.0
 10
144.3310350411197
 20
-226.4132754978985
 30
0.0
 10
144.4397278036793
 20
-225.7948808582961
 30
0.0
 10
144.4397278036793
 20
-225.7948808582961
 30
0.0
 10
144.4125115493459
 20
-225.7948808582961
 30
0.0
 10
144.4125115493459
 20
-225.7948808582961
 30
0.0
 10
144.0864332616669
 20
-226.1483476550828
 30
0.0
 10
143.615316454059
 20
-226.3571204414889
 30
0.0
 10
143.0263773808556
 20
-226.3571204414889
 30
0.0
 10
141.9664937548185
 20
-226.3571204414889
 30
0.0
 10
141.2869486703529
 20
-225.6501868479156
 30
0.0
 10
141.2869486703529
 20
-224.7589406458815
 30
0.0
 10
141.2869486703529
 20
-223.7708872607118
 30
0.0
 10
142.0932732686757
 20
-222.903412217526
 30
0.0
 10
143.2981954146418
 20
-222.903412217526
 30
0.0
 10
144.5031175606079
 20
-222.903412217526
 30
0.0
 10
145.2460524020021
 20
-223.7708872607118
 30
0.0
 10
145.2460524020021
 20
-225.1041392135035
 30
0.0
 10
145.2460524020021
 20
-226.2527340482858
 30
0.0
 10
144.8111090969892
 20
-227.0557858058976
 30
0.0
 10
144.2312995268217
 20
-227.5536021035162
 30
0.0
 10
143.7784417252856
 20
-227.9473765174802
 30
0.0
 10
143.153329149487
 20
-228.1881886918992
 30
0.0
 10
142.5190870706525
 20
-228.2526119774734
 30
0.0
 10
142.2291822855688
 20
-228.2925750851023
 30
0.0
 10
141.9754510030801
 20
-228.3004988047183
 30
0.0
 10
141.7852817322943
 20
-228.2925750851023
 30
0.0
 10
141.7852817322943
 20
-228.2925750851023
 30
0.0
 10
141.7852817322943
 20
-227.7144880626773
 30
0.0
 10
141.7852817322943
 20
-227.7144880626773
 30
0.0
  0
SPLINE
  5
19B
330
169
100
AcDbEntity
  8
Capa 1
 62
   250
370
    35
100
AcDbSpline
210
0.0
220
0.0
230
1.0
 70
    11
 71
     3
 72
    20
 73
    16
 74
     0
 42
0.0000000001
 43
0.0000000001
 12
1.0
 22
0.0
 32
0.0
 13
1.0
 23
0.0
 33
0.0
 40
0.0
 40
0.0
 40
0.0
 40
0.0
 40
1.0
 40
1.0
 40
1.0
 40
2.0
 40
2.0
 40
2.0
 40
3.0
 40
3.0
 40
3.0
 40
4.0
 40
4.0
 40
4.0
 40
5.0
 40
5.0
 40
5.0
 40
5.0
 10
142.0751865173781
 20
-224.710709309088
 30
0.0
 10
142.0751865173781
 20
-225.3611433367032
 30
0.0
 10
142.5190870706525
 20
-225.8189965266929
 30
0.0
 10
143.2075894033797
 20
-225.8189965266929
 30
0.0
 10
143.7420959679162
 20
-225.8189965266929
 30
0.0
 10
144.1589525216314
 20
-225.58610807189
 30
0.0
 10
144.3672085437148
 20
-225.2729488922808
 30
0.0
 10
144.4125115493459
 20
-225.2085256067066
 30
0.0
 10
144.4397278036793
 20
-225.1282548819003
 30
0.0
 10
144.4397278036793
 20
-225.0159447690811
 30
0.0
 10
144.4397278036793
 20
-224.1243540574985
 30
0.0
 10
144.0683465103694
 20
-223.441536132322
 30
0.0
 10
143.2348056577132
 20
-223.441536132322
 30
0.0
 10
142.5552605732477
 20
-223.441536132322
 30
0.0
 10
142.0751865173781
 20
-223.9717363275019
 30
0.0
 10
142.0751865173781
 20
-224.710709309088
 30
0.0
  0
POLYLINE
  5
19C
330
169
100
AcDbEntity
  8
Capa 1
 62
   250
370
    35
100
AcDb2dPolyline
 66
     1
 10
0.0
 20
0.0
 30
0.0
  0
VERTEX
  5
19D
330
19C
100
AcDbEntity
  8
Capa 1
 62
   250
370
    35
100
AcDbVertex
100
AcDb2dVertex
 10
142.4827413132831
 20
-234.128222327567
 30
0.0
  0
VERTEX
  5
19E
330
19C
100
AcDbEntity
  8
Capa 1
 62
   250
370
    35
100
AcDbVertex
100
AcDb2dVertex
 10
142.4646545619856
 20
-234.128222327567
 30
0.0
  0
VERTEX
  5
19F
330
19C
100
AcDbEntity
  8
Capa 1
 62
   250
370
    35
100
AcDbVertex
100
AcDb2dVertex
 10
141.4409444385436
 20
-234.618459415118
 30
0.0
  0
VERTEX
  5
1A0
330
19C
100
AcDbEntity
  8
Capa 1
 62
   250
370
    35
100
AcDbVertex
100
AcDb2dVertex
 10
141.2869486703529
 20
-234.080335500322
 30
0.0
  0
VERTEX
  5
1A1
330
19C
100
AcDbEntity
  8
Capa 1
 62
   250
370
    35
100
AcDbVertex
100
AcDb2dVertex
 10
142.5733473245452
 20
-233.4698645803357
 30
0.0
  0
VERTEX
  5
1A2
330
19C
100
AcDbEntity
  8
Capa 1
 62
   250
370
    35
100
AcDbVertex
100
AcDb2dVertex
 10
143.2528924090107
 20
-233.4698645803357
 30
0.0
  0
VERTEX
  5
1A3
330
19C
100
AcDbEntity
  8
Capa 1
 62
   250
370
    35
100
AcDbVertex
100
AcDb2dVertex
 10
143.2528924090107
 20
-238.6902177691348
 30
0.0
  0
VERTEX
  5
1A4
330
19C
100
AcDbEntity
  8
Capa 1
 62
   250
370
    35
100
AcDbVertex
100
AcDb2dVertex
 10
142.4827413132831
 20
-238.6902177691348
 30
0.0
  0
VERTEX
  5
1A5
330
19C
100
AcDbEntity
  8
Capa 1
 62
   250
370
    35
100
AcDbVertex
100
AcDb2dVertex
 10
142.4827413132831
 20
-234.128222327567
 30
0.0
  0
SEQEND
  5
1A6
330
19C
100
AcDbEntity
  8
Capa 1
 62
   250
370
    35
  0
SPLINE
  5
1A7
330
169
100
AcDbEntity
  8
Capa 1
 62
   250
370
    35
100
AcDbSpline
210
0.0
220
0.0
230
1.0
 70
    11
 71
     3
 72
    17
 73
    13
 74
     0
 42
0.0000000001
 43
0.0000000001
 12
1.0
 22
0.0
 32
0.0
 13
1.0
 23
0.0
 33
0.0
 40
0.0
 40
0.0
 40
0.0
 40
0.0
 40
1.0
 40
1.0
 40
1.0
 40
2.0
 40
2.0
 40
2.0
 40
3.0
 40
3.0
 40
3.0
 40
4.0
 40
4.0
 40
4.0
 40
4.0
 10
149.3141934057593
 20
-236.0237138635514
 30
0.0
 10
149.3141934057593
 20
-237.7986270575522
 30
0.0
 10
148.5714308191394
 20
-238.7784122135572
 30
0.0
 10
147.2667731588753
 20
-238.7784122135572
 30
0.0
 10
146.1162835215762
 20
-238.7784122135572
 30
0.0
 10
145.3371751775869
 20
-237.8227427259489
 30
0.0
 10
145.3189161715151
 20
-236.0960608687417
 30
0.0
 10
145.3189161715151
 20
-234.3452633431377
 30
0.0
 10
146.1705437754688
 20
-233.3813256263648
 30
0.0
 10
147.3665086731733
 20
-233.3813256263648
 30
0.0
 10
148.6076043217346
 20
-233.3813256263648
 30
0.0
 10
149.3141934057593
 20
-234.3614552919184
 30
0.0
 10
149.3141934057593
 20
-236.0237138635514
 30
0.0
  0
SPLINE
  5
1A8
330
169
100
AcDbEntity
  8
Capa 1
 62
   250
370
    35
100
AcDbSpline
210
0.0
220
0.0
230
1.0
 70
    11
 71
     3
 72
    17
 73
    13
 74
     0
 42
0.0000000001
 43
0.0000000001
 12
1.0
 22
0.0
 32
0.0
 13
1.0
 23
0.0
 33
0.0
 40
0.0
 40
0.0
 40
0.0
 40
0.0
 40
1.0
 40
1.0
 40
1.0
 40
2.0
 40
2.0
 40
2.0
 40
3.0
 40
3.0
 40
3.0
 40
4.0
 40
4.0
 40
4.0
 40
4.0
 10
146.1162835215762
 20
-236.1039845883577
 30
0.0
 10
146.1162835215762
 20
-237.4613522095462
 30
0.0
 10
146.587400329184
 20
-238.2323645791451
 30
0.0
 10
147.3120761645064
 20
-238.2323645791451
 30
0.0
 10
148.1273580110907
 20
-238.2323645791451
 30
0.0
 10
148.5169983104725
 20
-237.3890052043559
 30
0.0
 10
148.5169983104725
 20
-236.0560977611128
 30
0.0
 10
148.5169983104725
 20
-234.7710771451146
 30
0.0
 10
148.1456170171626
 20
-233.9277177703254
 30
0.0
 10
147.3212056675423
 20
-233.9277177703254
 30
0.0
 10
146.6235738317792
 20
-233.9277177703254
 30
0.0
 10
146.1162835215762
 20
-234.6825381911437
 30
0.0
 10
146.1162835215762
 20
-236.1039845883577
 30
0.0
  0
POLYLINE
  5
1A9
330
169
100
AcDbEntity
  8
Capa 1
 62
   250
370
    35
100
AcDb2dPolyline
 66
     1
 10
0.0
 20
0.0
 30
0.0
  0
VERTEX
  5
1AA
330
1A9
100
AcDbEntity
  8
Capa 1
 62
   250
370
    35
100
AcDbVertex
100
AcDb2dVertex
 10
142.4827413132831
 20
-243.7417612791566
 30
0.0
  0
VERTEX
  5
1AB
330
1A9
100
AcDbEntity
  8
Capa 1
 62
   250
370
    35
100
AcDbVertex
100
AcDb2dVertex
 10
142.4646545619856
 20
-243.7417612791566
 30
0.0
  0
VERTEX
  5
1AC
330
1A9
100
AcDbEntity
  8
Capa 1
 62
   250
370
    35
100
AcDbVertex
100
AcDb2dVertex
 10
141.4409444385436
 20
-244.2316538571592
 30
0.0
  0
VERTEX
  5
1AD
330
1A9
100
AcDbEntity
  8
Capa 1
 62
   250
370
    35
100
AcDbVertex
100
AcDb2dVertex
 10
141.2869486703529
 20
-243.6935299423631
 30
0.0
  0
VERTEX
  5
1AE
330
1A9
100
AcDbEntity
  8
Capa 1
 62
   250
370
    35
100
AcDbVertex
100
AcDb2dVertex
 10
142.5733473245452
 20
-243.0830590223769
 30
0.0
  0
VERTEX
  5
1AF
330
1A9
100
AcDbEntity
  8
Capa 1
 62
   250
370
    35
100
AcDbVertex
100
AcDb2dVertex
 10
143.2528924090107
 20
-243.0830590223769
 30
0.0
  0
VERTEX
  5
1B0
330
1A9
100
AcDbEntity
  8
Capa 1
 62
   250
370
    35
100
AcDbVertex
100
AcDb2dVertex
 10
143.2528924090107
 20
-248.303412211176
 30
0.0
  0
VERTEX
  5
1B1
330
1A9
100
AcDbEntity
  8
Capa 1
 62
   250
370
    35
100
AcDbVertex
100
AcDb2dVertex
 10
142.4827413132831
 20
-248.303412211176
 30
0.0
  0
VERTEX
  5
1B2
330
1A9
100
AcDbEntity
  8
Capa 1
 62
   250
370
    35
100
AcDbVertex
100
AcDb2dVertex
 10
142.4827413132831
 20
-243.7417612791566
 30
0.0
  0
SEQEND
  5
1B3
330
1A9
100
AcDbEntity
  8
Capa 1
 62
   250
370
    35
  0
POLYLINE
  5
1B4
330
169
100
AcDbEntity
  8
Capa 1
 62
   250
370
    35
100
AcDb2dPolyline
 66
     1
 10
0.0
 20
0.0
 30
0.0
  0
VERTEX
  5
1B5
330
1B4
100
AcDbEntity
  8
Capa 1
 62
   250
370
    35
100
AcDbVertex
100
AcDb2dVertex
 10
147.1308641419822
 20
-243.7417612791566
 30
0.0
  0
VERTEX
  5
1B6
330
1B4
100
AcDbEntity
  8
Capa 1
 62
   250
370
    35
100
AcDbVertex
100
AcDb2dVertex
 10
147.1127773906847
 20
-243.7417612791566
 30
0.0
  0
VERTEX
  5
1B7
330
1B4
100
AcDbEntity
  8
Capa 1
 62
   250
370
    35
100
AcDbVertex
100
AcDb2dVertex
 10
146.0890672672427
 20
-244.2316538571592
 30
0.0
  0
VERTEX
  5
1B8
330
1B4
100
AcDbEntity
  8
Capa 1
 62
   250
370
    35
100
AcDbVertex
100
AcDb2dVertex
 10
145.935071499052
 20
-243.6935299423631
 30
0.0
  0
VERTEX
  5
1B9
330
1B4
100
AcDbEntity
  8
Capa 1
 62
   250
370
    35
100
AcDbVertex
100
AcDb2dVertex
 10
147.2214701532443
 20
-243.0830590223769
 30
0.0
  0
VERTEX
  5
1BA
330
1B4
100
AcDbEntity
  8
Capa 1
 62
   250
370
    35
100
AcDbVertex
100
AcDb2dVertex
 10
147.9010152377098
 20
-243.0830590223769
 30
0.0
  0
VERTEX
  5
1BB
330
1B4
100
AcDbEntity
  8
Capa 1
 62
   250
370
    35
100
AcDbVertex
100
AcDb2dVertex
 10
147.9010152377098
 20
-248.303412211176
 30
0.0
  0
VERTEX
  5
1BC
330
1B4
100
AcDbEntity
  8
Capa 1
 62
   250
370
    35
100
AcDbVertex
100
AcDb2dVertex
 10
147.1308641419822
 20
-248.303412211176
 30
0.0
  0
VERTEX
  5
1BD
330
1B4
100
AcDbEntity
  8
Capa 1
 62
   250
370
    35
100
AcDbVertex
100
AcDb2dVertex
 10
147.1308641419822
 20
-243.7417612791566
 30
0.0
  0
SEQEND
  5
1BE
330
1B4
100
AcDbEntity
  8
Capa 1
 62
   250
370
    35
  0
POLYLINE
  5
1BF
330
169
100
AcDbEntity
  8
Capa 1
 62
   250
370
    35
100
AcDb2dPolyline
 66
     1
 10
0.0
 20
0.0
 30
0.0
  0
VERTEX
  5
1C0
330
1BF
100
AcDbEntity
  8
Capa 1
 62
   250
370
    35
100
AcDbVertex
100
AcDb2dVertex
 10
142.4827413132831
 20
-253.2667612767754
 30
0.0
  0
VERTEX
  5
1C1
330
1BF
100
AcDbEntity
  8
Capa 1
 62
   250
370
    35
100
AcDbVertex
100
AcDb2dVertex
 10
142.4646545619856
 20
-253.2667612767754
 30
0.0
  0
VERTEX
  5
1C2
330
1BF
100
AcDbEntity
  8
Capa 1
 62
   250
370
    35
100
AcDbVertex
100
AcDb2dVertex
 10
141.4409444385436
 20
-253.7566538547779
 30
0.0
  0
VERTEX
  5
1C3
330
1BF
100
AcDbEntity
  8
Capa 1
 62
   250
370
    35
100
AcDbVertex
100
AcDb2dVertex
 10
141.2869486703529
 20
-253.2185299399819
 30
0.0
  0
VERTEX
  5
1C4
330
1BF
100
AcDbEntity
  8
Capa 1
 62
   250
370
    35
100
AcDbVertex
100
AcDb2dVertex
 10
142.5733473245452
 20
-252.6080590199956
 30
0.0
  0
VERTEX
  5
1C5
330
1BF
100
AcDbEntity
  8
Capa 1
 62
   250
370
    35
100
AcDbVertex
100
AcDb2dVertex
 10
143.2528924090107
 20
-252.6080590199956
 30
0.0
  0
VERTEX
  5
1C6
330
1BF
100
AcDbEntity
  8
Capa 1
 62
   250
370
    35
100
AcDbVertex
100
AcDb2dVertex
 10
143.2528924090107
 20
-257.8284122087947
 30
0.0
  0
VERTEX
  5
1C7
330
1BF
100
AcDbEntity
  8
Capa 1
 62
   250
370
    35
100
AcDbVertex
100
AcDb2dVertex
 10
142.4827413132831
 20
-257.8284122087947
 30
0.0
  0
VERTEX
  5
1C8
330
1BF
100
AcDbEntity
  8
Capa 1
 62
   250
370
    35
100
AcDbVertex
100
AcDb2dVertex
 10
142.4827413132831
 20
-253.2667612767754
 30
0.0
  0
SEQEND
  5
1C9
330
1BF
100
AcDbEntity
  8
Capa 1
 62
   250
370
    35
  0
SPLINE
  5
1CA
330
169
100
AcDbEntity
  8
Capa 1
 62
   250
370
    35
100
AcDbSpline
210
0.0
220
0.0
230
1.0
 70
    11
 71
     3
 72
    47
 73
    43
 74
     0
 42
0.0000000001
 43
0.0000000001
 12
1.0
 22
0.0
 32
0.0
 13
1.0
 23
0.0
 33
0.0
 40
0.0
 40
0.0
 40
0.0
 40
0.0
 40
1.0
 40
1.0
 40
1.0
 40
2.0
 40
2.0
 40
2.0
 40
3.0
 40
3.0
 40
3.0
 40
4.0
 40
4.0
 40
4.0
 40
5.0
 40
5.0
 40
5.0
 40
6.0
 40
6.0
 40
6.0
 40
7.0
 40
7.0
 40
7.0
 40
8.0
 40
8.0
 40
8.0
 40
9.0
 40
9.0
 40
9.0
 40
10.0
 40
10.0
 40
10.0
 40
11.0
 40
11.0
 40
11.0
 40
12.0
 40
12.0
 40
12.0
 40
13.0
 40
13.0
 40
13.0
 40
14.0
 40
14.0
 40
14.0
 40
14.0
 10
145.4005649345155
 20
-257.8284122087947
 30
0.0
 10
145.4005649345155
 20
-257.8284122087947
 30
0.0
 10
145.4005649345155
 20
-257.3946746872018
 30
0.0
 10
145.4005649345155
 20
-257.3946746872018
 30
0.0
 10
145.4005649345155
 20
-257.3946746872018
 30
0.0
 10
146.0256775103141
 20
-256.8565507724057
 30
0.0
 10
146.0256775103141
 20
-256.8565507724057
 30
0.0
 10
147.5294616896256
 20
-255.5877221051882
 30
0.0
 10
148.2090067740912
 20
-254.9131724091763
 30
0.0
 10
148.2179640223528
 20
-254.1259680907967
 30
0.0
 10
148.2179640223528
 20
-253.5957678956167
 30
0.0
 10
147.928059237269
 20
-253.1058753176142
 30
0.0
 10
147.0493876337561
 20
-253.1058753176142
 30
0.0
 10
146.5148810692195
 20
-253.1058753176142
 30
0.0
 10
146.0709805159451
 20
-253.3470320015817
 30
0.0
 10
145.7991624821589
 20
-253.5475365588233
 30
0.0
 10
145.7991624821589
 20
-253.5475365588233
 30
0.0
 10
145.5454311996702
 20
-253.0497202612046
 30
0.0
 10
145.5454311996702
 20
-253.0497202612046
 30
0.0
 10
145.9531582503496
 20
-252.7444848012115
 30
0.0
 10
146.5329678205171
 20
-252.5195200660247
 30
0.0
 10
147.2123406502084
 20
-252.5195200660247
 30
0.0
 10
148.4808248078774
 20
-252.5195200660247
 30
0.0
 10
149.0153313724139
 20
-253.2905324356236
 30
0.0
 10
149.0153313724139
 20
-254.0377736463743
 30
0.0
 10
149.0153313724139
 20
-255.0013668535987
 30
0.0
 10
148.2270935253887
 20
-255.7803029428137
 30
0.0
 10
146.9859978768275
 20
-256.8407033331736
 30
0.0
 10
146.9859978768275
 20
-256.8407033331736
 30
0.0
 10
146.5148810692195
 20
-257.226209517973
 30
0.0
 10
146.5148810692195
 20
-257.226209517973
 30
0.0
 10
146.5148810692195
 20
-257.226209517973
 30
0.0
 10
146.5148810692195
 20
-257.2420569572052
 30
0.0
 10
146.5148810692195
 20
-257.2420569572052
 30
0.0
 10
146.5148810692195
 20
-257.2420569572052
 30
0.0
 10
149.1601976375686
 20
-257.2420569572052
 30
0.0
 10
149.1601976375686
 20
-257.2420569572052
 30
0.0
 10
149.1601976375686
 20
-257.2420569572052
 30
0.0
 10
149.1601976375686
 20
-257.8284122087947
 30
0.0
 10
149.1601976375686
 20
-257.8284122087947
 30
0.0
 10
149.1601976375686
 20
-257.8284122087947
 30
0.0
 10
145.4005649345155
 20
-257.8284122087947
 30
0.0
 10
145.4005649345155
 20
-257.8284122087947
 30
0.0
  0
POLYLINE
  5
1CB
330
169
100
AcDbEntity
  8
Capa 1
 62
   250
370
    35
100
AcDb2dPolyline
 66
     1
 10
0.0
 20
0.0
 30
0.0
  0
VERTEX
  5
1CC
330
1CB
100
AcDbEntity
  8
Capa 1
 62
   250
370
    35
100
AcDbVertex
100
AcDb2dVertex
 10
142.4810446002816
 20
-262.7098873979015
 30
0.0
  0
VERTEX
  5
1CD
330
1CB
100
AcDbEntity
  8
Capa 1
 62
   250
370
    35
100
AcDbVertex
100
AcDb2dVertex
 10
142.4629641926308
 20
-262.7094084076444
 30
0.0
  0
VERTEX
  5
1CE
330
1CB
100
AcDbEntity
  8
Capa 1
 62
   250
370
    35
100
AcDbVertex
100
AcDb2dVertex
 10
141.4266393263178
 20
-263.1720183148898
 30
0.0
  0
VERTEX
  5
1CF
330
1CB
100
AcDbEntity
  8
Capa 1
 62
   250
370
    35
100
AcDbVertex
100
AcDb2dVertex
 10
141.2869486703529
 20
-262.6300048787721
 30
0.0
  0
VERTEX
  5
1D0
330
1CB
100
AcDbEntity
  8
Capa 1
 62
   250
370
    35
100
AcDbVertex
100
AcDb2dVertex
 10
142.5890632018863
 20
-262.05381568378
 30
0.0
  0
VERTEX
  5
1D1
330
1CB
100
AcDbEntity
  8
Capa 1
 62
   250
370
    35
100
AcDbVertex
100
AcDb2dVertex
 10
143.2683699464959
 20
-262.071812032019
 30
0.0
  0
VERTEX
  5
1D2
330
1CB
100
AcDbEntity
  8
Capa 1
 62
   250
370
    35
100
AcDbVertex
100
AcDb2dVertex
 10
143.1301196727977
 20
-267.2903342632288
 30
0.0
  0
VERTEX
  5
1D3
330
1CB
100
AcDbEntity
  8
Capa 1
 62
   250
370
    35
100
AcDbVertex
100
AcDb2dVertex
 10
142.3602386955739
 20
-267.2699384018904
 30
0.0
  0
VERTEX
  5
1D4
330
1CB
100
AcDbEntity
  8
Capa 1
 62
   250
370
    35
100
AcDbVertex
100
AcDb2dVertex
 10
142.4810446002816
 20
-262.7098873979015
 30
0.0
  0
SEQEND
  5
1D5
330
1CB
100
AcDbEntity
  8
Capa 1
 62
   250
370
    35
  0
SPLINE
  5
1D6
330
169
100
AcDbEntity
  8
Capa 1
 62
   250
370
    35
100
AcDbSpline
210
0.0
220
0.0
230
1.0
 70
    11
 71
     3
 72
    59
 73
    55
 74
     0
 42
0.0000000001
 43
0.0000000001
 12
1.0
 22
0.0
 32
0.0
 13
1.0
 23
0.0
 33
0.0
 40
0.0
 40
0.0
 40
0.0
 40
0.0
 40
1.0
 40
1.0
 40
1.0
 40
2.0
 40
2.0
 40
2.0
 40
3.0
 40
3.0
 40
3.0
 40
4.0
 40
4.0
 40
4.0
 40
5.0
 40
5.0
 40
5.0
 40
6.0
 40
6.0
 40
6.0
 40
7.0
 40
7.0
 40
7.0
 40
8.0
 40
8.0
 40
8.0
 40
9.0
 40
9.0
 40
9.0
 40
10.0
 40
10.0
 40
10.0
 40
11.0
 40
11.0
 40
11.0
 40
12.0
 40
12.0
 40
12.0
 40
13.0
 40
13.0
 40
13.0
 40
14.0
 40
14.0
 40
14.0
 40
15.0
 40
15.0
 40
15.0
 40
16.0
 40
16.0
 40
16.0
 40
17.0
 40
17.0
 40
17.0
 40
18.0
 40
18.0
 40
18.0
 40
18.0
 10
145.5374313680137
 20
-266.4538977752147
 30
0.0
 10
145.7639463961688
 20
-266.5823998368145
 30
0.0
 10
146.2893234576694
 20
-266.7832489036046
 30
0.0
 10
146.8420890282778
 20
-266.7832489036046
 30
0.0
 10
147.8657991517198
 20
-266.7832489036046
 30
0.0
 10
148.182920191137
 20
-266.2051618811797
 30
0.0
 10
148.1737906881011
 20
-265.7714243595867
 30
0.0
 10
148.1646611850652
 20
-265.0403750976167
 30
0.0
 10
147.4218985984453
 20
-264.7272159180075
 30
0.0
 10
146.6517475027177
 20
-264.7272159180075
 30
0.0
 10
146.6517475027177
 20
-264.7272159180075
 30
0.0
 10
146.2078469494433
 20
-264.7272159180075
 30
0.0
 10
146.2078469494433
 20
-264.7272159180075
 30
0.0
 10
146.2078469494433
 20
-264.7272159180075
 30
0.0
 10
146.2078469494433
 20
-264.1973602323761
 30
0.0
 10
146.2078469494433
 20
-264.1973602323761
 30
0.0
 10
146.2078469494433
 20
-264.1973602323761
 30
0.0
 10
146.6517475027177
 20
-264.1973602323761
 30
0.0
 10
146.6517475027177
 20
-264.1973602323761
 30
0.0
 10
147.2315570728853
 20
-264.1973602323761
 30
0.0
 10
147.9653624112435
 20
-263.9320878800118
 30
0.0
 10
147.9653624112435
 20
-263.3136932404095
 30
0.0
 10
147.9653624112435
 20
-262.8961476675972
 30
0.0
 10
147.6665003778981
 20
-262.5268334315784
 30
0.0
 10
146.9326950395399
 20
-262.5268334315784
 30
0.0
 10
146.461578231932
 20
-262.5268334315784
 30
0.0
 10
146.0085481756216
 20
-262.7114905495878
 30
0.0
 10
145.754816893133
 20
-262.8720319992004
 30
0.0
 10
145.754816893133
 20
-262.8720319992004
 30
0.0
 10
145.5465608710496
 20
-262.3580237528012
 30
0.0
 10
145.5465608710496
 20
-262.3580237528012
 30
0.0
 10
145.8545524074309
 20
-262.1571746860111
 30
0.0
 10
146.452448728896
 20
-261.956325619221
 30
0.0
 10
147.0866908077305
 20
-261.956325619221
 30
0.0
 10
148.2463099480656
 20
-261.956325619221
 30
0.0
 10
148.7716870095662
 20
-262.5667965392073
 30
0.0
 10
148.7716870095662
 20
-263.2013831275904
 30
0.0
 10
148.7716870095662
 20
-263.7395070423864
 30
0.0
 10
148.4092629645179
 20
-264.1973602323761
 30
0.0
 10
147.6845871291956
 20
-264.430248687179
 30
0.0
 10
147.6845871291956
 20
-264.430248687179
 30
0.0
 10
147.6845871291956
 20
-264.4460961264111
 30
0.0
 10
147.6845871291956
 20
-264.4460961264111
 30
0.0
 10
148.4092629645179
 20
-264.574598188011
 30
0.0
 10
148.9982020377214
 20
-265.0565670463974
 30
0.0
 10
148.9982020377214
 20
-265.7876163083674
 30
0.0
 10
148.9982020377214
 20
-266.6227074539919
 30
0.0
 10
148.2643966993632
 20
-267.3534122064135
 30
0.0
 10
146.8510462765394
 20
-267.3534122064135
 30
0.0
 10
146.1897601981457
 20
-267.3534122064135
 30
0.0
 10
145.6099506279782
 20
-267.1687550884041
 30
0.0
 10
145.3200458428944
 20
-267.0002899191753
 30
0.0
 10
145.3200458428944
 20
-267.0002899191753
 30
0.0
 10
145.5374313680137
 20
-266.4538977752147
 30
0.0
 10
145.5374313680137
 20
-266.4538977752147
 30
0.0
  0
POLYLINE
  5
1D7
330
169
100
AcDbEntity
  8
Capa 1
 62
   250
370
    35
100
AcDb2dPolyline
 66
     1
 10
0.0
 20
0.0
 30
0.0
  0
VERTEX
  5
1D8
330
1D7
100
AcDbEntity
  8
Capa 1
 62
   250
370
    35
100
AcDbVertex
100
AcDb2dVertex
 10
142.4827413132831
 20
-274.3621144616057
 30
0.0
  0
VERTEX
  5
1D9
330
1D7
100
AcDbEntity
  8
Capa 1
 62
   250
370
    35
100
AcDbVertex
100
AcDb2dVertex
 10
142.4646545619856
 20
-274.3621144616057
 30
0.0
  0
VERTEX
  5
1DA
330
1D7
100
AcDbEntity
  8
Capa 1
 62
   250
370
    35
100
AcDbVertex
100
AcDb2dVertex
 10
141.4409444385436
 20
-274.8520070396082
 30
0.0
  0
VERTEX
  5
1DB
330
1D7
100
AcDbEntity
  8
Capa 1
 62
   250
370
    35
100
AcDbVertex
100
AcDb2dVertex
 10
141.2869486703529
 20
-274.3138831248122
 30
0.0
  0
VERTEX
  5
1DC
330
1D7
100
AcDbEntity
  8
Capa 1
 62
   250
370
    35
100
AcDbVertex
100
AcDb2dVertex
 10
142.5733473245452
 20
-273.703412204826
 30
0.0
  0
VERTEX
  5
1DD
330
1D7
100
AcDbEntity
  8
Capa 1
 62
   250
370
    35
100
AcDbVertex
100
AcDb2dVertex
 10
143.2528924090107
 20
-273.703412204826
 30
0.0
  0
VERTEX
  5
1DE
330
1D7
100
AcDbEntity
  8
Capa 1
 62
   250
370
    35
100
AcDbVertex
100
AcDb2dVertex
 10
143.2528924090107
 20
-278.923765393625
 30
0.0
  0
VERTEX
  5
1DF
330
1D7
100
AcDbEntity
  8
Capa 1
 62
   250
370
    35
100
AcDbVertex
100
AcDb2dVertex
 10
142.4827413132831
 20
-278.923765393625
 30
0.0
  0
VERTEX
  5
1E0
330
1D7
100
AcDbEntity
  8
Capa 1
 62
   250
370
    35
100
AcDbVertex
100
AcDb2dVertex
 10
142.4827413132831
 20
-274.3621144616057
 30
0.0
  0
SEQEND
  5
1E1
330
1D7
100
AcDbEntity
  8
Capa 1
 62
   250
370
    35
  0
POLYLINE
  5
1E2
330
169
100
AcDbEntity
  8
Capa 1
 62
   250
370
    35
100
AcDb2dPolyline
 66
     1
 10
0.0
 20
0.0
 30
0.0
  0
VERTEX
  5
1E3
330
1E2
100
AcDbEntity
  8
Capa 1
 62
   250
370
    35
100
AcDbVertex
100
AcDb2dVertex
 10
147.8646694803404
 20
-278.923765393625
 30
0.0
  0
VERTEX
  5
1E4
330
1E2
100
AcDbEntity
  8
Capa 1
 62
   250
370
    35
100
AcDbVertex
100
AcDb2dVertex
 10
147.8646694803404
 20
-277.502318996411
 30
0.0
  0
VERTEX
  5
1E5
330
1E2
100
AcDbEntity
  8
Capa 1
 62
   250
370
    35
100
AcDbVertex
100
AcDb2dVertex
 10
145.1287469007293
 20
-277.502318996411
 30
0.0
  0
VERTEX
  5
1E6
330
1E2
100
AcDbEntity
  8
Capa 1
 62
   250
370
    35
100
AcDbVertex
100
AcDb2dVertex
 10
145.1287469007293
 20
-277.0365420868052
 30
0.0
  0
VERTEX
  5
1E7
330
1E2
100
AcDbEntity
  8
Capa 1
 62
   250
370
    35
100
AcDbVertex
100
AcDb2dVertex
 10
147.7559767177808
 20
-273.703412204826
 30
0.0
  0
VERTEX
  5
1E8
330
1E2
100
AcDbEntity
  8
Capa 1
 62
   250
370
    35
100
AcDbVertex
100
AcDb2dVertex
 10
148.6165615699962
 20
-273.703412204826
 30
0.0
  0
VERTEX
  5
1E9
330
1E2
100
AcDbEntity
  8
Capa 1
 62
   250
370
    35
100
AcDbVertex
100
AcDb2dVertex
 10
148.6165615699962
 20
-276.9480031328342
 30
0.0
  0
VERTEX
  5
1EA
330
1E2
100
AcDbEntity
  8
Capa 1
 62
   250
370
    35
100
AcDbVertex
100
AcDb2dVertex
 10
149.4411451743908
 20
-276.9480031328342
 30
0.0
  0
VERTEX
  5
1EB
330
1E2
100
AcDbEntity
  8
Capa 1
 62
   250
370
    35
100
AcDbVertex
100
AcDb2dVertex
 10
149.4411451743908
 20
-277.502318996411
 30
0.0
  0
VERTEX
  5
1EC
330
1E2
100
AcDbEntity
  8
Capa 1
 62
   250
370
    35
100
AcDbVertex
100
AcDb2dVertex
 10
148.6165615699962
 20
-277.502318996411
 30
0.0
  0
VERTEX
  5
1ED
330
1E2
100
AcDbEntity
  8
Capa 1
 62
   250
370
    35
100
AcDbVertex
100
AcDb2dVertex
 10
148.6165615699962
 20
-278.923765393625
 30
0.0
  0
VERTEX
  5
1EE
330
1E2
100
AcDbEntity
  8
Capa 1
 62
   250
370
    35
100
AcDbVertex
100
AcDb2dVertex
 10
147.8646694803404
 20
-278.923765393625
 30
0.0
  0
SEQEND
  5
1EF
330
1E2
100
AcDbEntity
  8
Capa 1
 62
   250
370
    35
  0
SPLINE
  5
1F0
330
169
100
AcDbEntity
  8
Capa 1
 62
   250
370
    35
100
AcDbSpline
210
0.0
220
0.0
230
1.0
 70
    11
 71
     3
 72
    26
 73
    22
 74
     0
 42
0.0000000001
 43
0.0000000001
 12
1.0
 22
0.0
 32
0.0
 13
1.0
 23
0.0
 33
0.0
 40
0.0
 40
0.0
 40
0.0
 40
0.0
 40
1.0
 40
1.0
 40
1.0
 40
2.0
 40
2.0
 40
2.0
 40
3.0
 40
3.0
 40
3.0
 40
4.0
 40
4.0
 40
4.0
 40
5.0
 40
5.0
 40
5.0
 40
6.0
 40
6.0
 40
6.0
 40
7.0
 40
7.0
 40
7.0
 40
7.0
 10
147.8646694803404
 20
-276.9480031328342
 30
0.0
 10
147.8646694803404
 20
-276.9480031328342
 30
0.0
 10
147.8646694803404
 20
-275.2051293268464
 30
0.0
 10
147.8646694803404
 20
-275.2051293268464
 30
0.0
 10
147.8646694803404
 20
-274.9322777644146
 30
0.0
 10
147.8737989833764
 20
-274.6590816924343
 30
0.0
 10
147.8918857346739
 20
-274.385885620454
 30
0.0
 10
147.8918857346739
 20
-274.385885620454
 30
0.0
 10
147.8646694803404
 20
-274.385885620454
 30
0.0
 10
147.8646694803404
 20
-274.385885620454
 30
0.0
 10
147.6834574578163
 20
-274.6911210804471
 30
0.0
 10
147.5385911926615
 20
-274.9160858156339
 30
0.0
 10
147.375465921435
 20
-275.1568979900529
 30
0.0
 10
147.375465921435
 20
-275.1568979900529
 30
0.0
 10
145.935071499052
 20
-276.9321556936021
 30
0.0
 10
145.935071499052
 20
-276.9321556936021
 30
0.0
 10
145.935071499052
 20
-276.9321556936021
 30
0.0
 10
145.935071499052
 20
-276.9480031328342
 30
0.0
 10
145.935071499052
 20
-276.9480031328342
 30
0.0
 10
145.935071499052
 20
-276.9480031328342
 30
0.0
 10
147.8646694803404
 20
-276.9480031328342
 30
0.0
 10
147.8646694803404
 20
-276.9480031328342
 30
0.0
  0
POLYLINE
  5
1F1
330
169
100
AcDbEntity
  8
Capa 1
 62
   250
370
    35
100
AcDb2dPolyline
 66
     1
 10
0.0
 20
0.0
 30
0.0
  0
VERTEX
  5
1F2
330
1F1
100
AcDbEntity
  8
Capa 1
 62
   250
370
    35
100
AcDbVertex
100
AcDb2dVertex
 10
142.4827413132831
 20
-283.8871144592244
 30
0.0
  0
VERTEX
  5
1F3
330
1F1
100
AcDbEntity
  8
Capa 1
 62
   250
370
    35
100
AcDbVertex
100
AcDb2dVertex
 10
142.4646545619856
 20
-283.8871144592244
 30
0.0
  0
VERTEX
  5
1F4
330
1F1
100
AcDbEntity
  8
Capa 1
 62
   250
370
    35
100
AcDbVertex
100
AcDb2dVertex
 10
141.4409444385436
 20
-284.377007037227
 30
0.0
  0
VERTEX
  5
1F5
330
1F1
100
AcDbEntity
  8
Capa 1
 62
   250
370
    35
100
AcDbVertex
100
AcDb2dVertex
 10
141.2869486703529
 20
-283.838883122431
 30
0.0
  0
VERTEX
  5
1F6
330
1F1
100
AcDbEntity
  8
Capa 1
 62
   250
370
    35
100
AcDbVertex
100
AcDb2dVertex
 10
142.5733473245452
 20
-283.2284122024447
 30
0.0
  0
VERTEX
  5
1F7
330
1F1
100
AcDbEntity
  8
Capa 1
 62
   250
370
    35
100
AcDbVertex
100
AcDb2dVertex
 10
143.2528924090107
 20
-283.2284122024447
 30
0.0
  0
VERTEX
  5
1F8
330
1F1
100
AcDbEntity
  8
Capa 1
 62
   250
370
    35
100
AcDbVertex
100
AcDb2dVertex
 10
143.2528924090107
 20
-288.4487653912438
 30
0.0
  0
VERTEX
  5
1F9
330
1F1
100
AcDbEntity
  8
Capa 1
 62
   250
370
    35
100
AcDbVertex
100
AcDb2dVertex
 10
142.4827413132831
 20
-288.4487653912438
 30
0.0
  0
VERTEX
  5
1FA
330
1F1
100
AcDbEntity
  8
Capa 1
 62
   250
370
    35
100
AcDbVertex
100
AcDb2dVertex
 10
142.4827413132831
 20
-283.8871144592244
 30
0.0
  0
SEQEND
  5
1FB
330
1F1
100
AcDbEntity
  8
Capa 1
 62
   250
370
    35
  0
SPLINE
  5
1FC
330
169
100
AcDbEntity
  8
Capa 1
 62
   250
370
    35
100
AcDbSpline
210
0.0
220
0.0
230
1.0
 70
    11
 71
     3
 72
    50
 73
    46
 74
     0
 42
0.0000000001
 43
0.0000000001
 12
1.0
 22
0.0
 32
0.0
 13
1.0
 23
0.0
 33
0.0
 40
0.0
 40
0.0
 40
0.0
 40
0.0
 40
1.0
 40
1.0
 40
1.0
 40
2.0
 40
2.0
 40
2.0
 40
3.0
 40
3.0
 40
3.0
 40
4.0
 40
4.0
 40
4.0
 40
5.0
 40
5.0
 40
5.0
 40
6.0
 40
6.0
 40
6.0
 40
7.0
 40
7.0
 40
7.0
 40
8.0
 40
8.0
 40
8.0
 40
9.0
 40
9.0
 40
9.0
 40
10.0
 40
10.0
 40
10.0
 40
11.0
 40
11.0
 40
11.0
 40
12.0
 40
12.0
 40
12.0
 40
13.0
 40
13.0
 40
13.0
 40
14.0
 40
14.0
 40
14.0
 40
15.0
 40
15.0
 40
15.0
 40
15.0
 10
148.9155958581159
 20
-283.8226911736503
 30
0.0
 10
148.9155958581159
 20
-283.8226911736503
 30
0.0
 10
146.6688768374102
 20
-283.8226911736503
 30
0.0
 10
146.6688768374102
 20
-283.8226911736503
 30
0.0
 10
146.6688768374102
 20
-283.8226911736503
 30
0.0
 10
146.442361809255
 20
-285.1638668460581
 30
0.0
 10
146.442361809255
 20
-285.1638668460581
 30
0.0
 10
146.5782708261482
 20
-285.1480194068259
 30
0.0
 10
146.7050503400053
 20
-285.1318274580452
 30
0.0
 10
146.9224358651246
 20
-285.1318274580452
 30
0.0
 10
147.375465921435
 20
-285.1318274580452
 30
0.0
 10
147.8284959777453
 20
-285.2200219024676
 30
0.0
 10
148.1909200227936
 20
-285.4129472496416
 30
0.0
 10
148.6529073273656
 20
-285.6458357044445
 30
0.0
 10
149.0334181237114
 20
-286.0954206652696
 30
0.0
 10
149.0334181237114
 20
-286.7541229220494
 30
0.0
 10
149.0334181237114
 20
-287.7742156952319
 30
0.0
 10
148.1184007628291
 20
-288.5369598356662
 30
0.0
 10
146.8409593568985
 20
-288.5369598356662
 30
0.0
 10
146.1977600298023
 20
-288.5369598356662
 30
0.0
 10
145.6541239622299
 20
-288.3764183860535
 30
0.0
 10
145.373348680182
 20
-288.2158769364409
 30
0.0
 10
145.373348680182
 20
-288.2158769364409
 30
0.0
 10
145.5726474540037
 20
-287.6777530216449
 30
0.0
 10
145.5726474540037
 20
-287.6777530216449
 30
0.0
 10
145.8172492334565
 20
-287.8062550832447
 30
0.0
 10
146.297323289326
 20
-287.9667965328573
 30
0.0
 10
146.8320021086368
 20
-287.9667965328573
 30
0.0
 10
147.5838941982926
 20
-287.9667965328573
 30
0.0
 10
148.2270935253887
 20
-287.5330590112644
 30
0.0
 10
148.2270935253887
 20
-286.8343936468557
 30
0.0
 10
148.2179640223528
 20
-286.1598439508438
 30
0.0
 10
147.7106737121498
 20
-285.6778750924573
 30
0.0
 10
146.5329678205171
 20
-285.6778750924573
 30
0.0
 10
146.1977600298023
 20
-285.6778750924573
 30
0.0
 10
145.935071499052
 20
-285.7099144804702
 30
0.0
 10
145.7175137191585
 20
-285.7340301488669
 30
0.0
 10
145.7175137191585
 20
-285.7340301488669
 30
0.0
 10
146.0980245155043
 20
-283.2284122024447
 30
0.0
 10
146.0980245155043
 20
-283.2284122024447
 30
0.0
 10
146.0980245155043
 20
-283.2284122024447
 30
0.0
 10
148.9155958581159
 20
-283.2284122024447
 30
0.0
 10
148.9155958581159
 20
-283.2284122024447
 30
0.0
 10
148.9155958581159
 20
-283.2284122024447
 30
0.0
 10
148.9155958581159
 20
-283.8226911736503
 30
0.0
 10
148.9155958581159
 20
-283.8226911736503
 30
0.0
  0
ENDBLK
  5
16C
330
169
100
AcDbEntity
  8
0
100
AcDbBlockEnd
  0
BLOCK
  5
1FF
330
1FD
100
AcDbEntity
  8
0
100
AcDbBlockBegin
  2
block 21
 70
     0
 10
0.0
 20
0.0
 30
0.0
  3
block 21
  1

  0
POLYLINE
  5
201
330
1FD
100
AcDbEntity
  8
Capa 1
 62
   250
370
    35
100
AcDb2dPolyline
 66
     1
 10
0.0
 20
0.0
 30
0.0
  0
VERTEX
  5
202
330
201
100
AcDbEntity
  8
Capa 1
 62
   250
370
    35
100
AcDbVertex
100
AcDb2dVertex
 10
135.9910703143795
 20
-135.8776799050796
 30
0.0
  0
VERTEX
  5
203
330
201
100
AcDbEntity
  8
Capa 1
 62
   250
370
    35
100
AcDbVertex
100
AcDb2dVertex
 10
135.9912226136073
 20
-135.8595937950101
 30
0.0
  0
VERTEX
  5
204
330
201
100
AcDbEntity
  8
Capa 1
 62
   250
370
    35
100
AcDbVertex
100
AcDb2dVertex
 10
135.5099675400057
 20
-134.8317948317144
 30
0.0
  0
VERTEX
  5
205
330
201
100
AcDbEntity
  8
Capa 1
 62
   250
370
    35
100
AcDbVertex
100
AcDb2dVertex
 10
136.0493690958764
 20
-134.6823357877594
 30
0.0
  0
VERTEX
  5
206
330
201
100
AcDbEntity
  8
Capa 1
 62
   250
370
    35
100
AcDbVertex
100
AcDb2dVertex
 10
136.64881402297
 20
-135.9738278464459
 30
0.0
  0
VERTEX
  5
207
330
201
100
AcDbEntity
  8
Capa 1
 62
   250
370
    35
100
AcDbVertex
100
AcDb2dVertex
 10
136.6430919234205
 20
-136.6533488390564
 30
0.0
  0
VERTEX
  5
208
330
201
100
AcDbEntity
  8
Capa 1
 62
   250
370
    35
100
AcDbVertex
100
AcDb2dVertex
 10
131.4229238113677
 20
-136.6093909305774
 30
0.0
  0
VERTEX
  5
209
330
201
100
AcDbEntity
  8
Capa 1
 62
   250
370
    35
100
AcDbVertex
100
AcDb2dVertex
 10
131.4294088575244
 20
-135.8392671389527
 30
0.0
  0
VERTEX
  5
20A
330
201
100
AcDbEntity
  8
Capa 1
 62
   250
370
    35
100
AcDbVertex
100
AcDb2dVertex
 10
135.9910703143795
 20
-135.8776799050796
 30
0.0
  0
SEQEND
  5
20B
330
201
100
AcDbEntity
  8
Capa 1
 62
   250
370
    35
  0
SPLINE
  5
20C
330
1FD
100
AcDbEntity
  8
Capa 1
 62
   250
370
    35
100
AcDbSpline
210
0.0
220
0.0
230
1.0
 70
    11
 71
     3
 72
    47
 73
    43
 74
     0
 42
0.0000000001
 43
0.0000000001
 12
1.0
 22
0.0
 32
0.0
 13
1.0
 23
0.0
 33
0.0
 40
0.0
 40
0.0
 40
0.0
 40
0.0
 40
1.0
 40
1.0
 40
1.0
 40
2.0
 40
2.0
 40
2.0
 40
3.0
 40
3.0
 40
3.0
 40
4.0
 40
4.0
 40
4.0
 40
5.0
 40
5.0
 40
5.0
 40
6.0
 40
6.0
 40
6.0
 40
7.0
 40
7.0
 40
7.0
 40
8.0
 40
8.0
 40
8.0
 40
9.0
 40
9.0
 40
9.0
 40
10.0
 40
10.0
 40
10.0
 40
11.0
 40
11.0
 40
11.0
 40
12.0
 40
12.0
 40
12.0
 40
13.0
 40
13.0
 40
13.0
 40
14.0
 40
14.0
 40
14.0
 40
14.0
 10
121.8264521372419
 20
-134.5625676752117
 30
0.0
 10
121.8264521372419
 20
-134.5625676752117
 30
0.0
 10
122.2601742815749
 20
-134.5662199557353
 30
0.0
 10
122.2601742815749
 20
-134.5662199557353
 30
0.0
 10
122.2601742815749
 20
-134.5662199557353
 30
0.0
 10
122.7930153669103
 20
-135.1958416341065
 30
0.0
 10
122.7930153669103
 20
-135.1958416341065
 30
0.0
 10
124.0491364575314
 20
-136.7102566533126
 30
0.0
 10
124.7181123879066
 20
-137.3954591323455
 30
0.0
 10
125.5050411245512
 20
-137.4110432551485
 30
0.0
 10
126.0350502739197
 20
-137.4155063477498
 30
0.0
 10
126.5273666228496
 20
-137.1297369740001
 30
0.0
 10
126.5347654643706
 20
-136.2510965219582
 30
0.0
 10
126.5392662691624
 20
-135.7166089072384
 30
0.0
 10
126.3022004904218
 20
-135.2706963361036
 30
0.0
 10
126.1036473841363
 20
-134.997196692399
 30
0.0
 10
126.1036473841363
 20
-134.997196692399
 30
0.0
 10
126.6037548219754
 20
-134.7476677108229
 30
0.0
 10
126.6037548219754
 20
-134.7476677108229
 30
0.0
 10
126.9055462007515
 20
-135.157950537163
 30
0.0
 10
127.1254484335195
 20
-135.7396324132183
 30
0.0
 10
127.1197277844395
 20
-136.4189811571609
 30
0.0
 10
127.1090465319466
 20
-137.6874203433671
 30
0.0
 10
126.3335606921934
 20
-138.2154156595862
 30
0.0
 10
125.5866904706584
 20
-138.2091264267227
 30
0.0
 10
124.6229591769557
 20
-138.2010110535972
 30
0.0
 10
123.8505158000141
 20
-137.4062406813677
 30
0.0
 10
122.8009481292235
 20
-136.1562628480632
 30
0.0
 10
122.8009481292235
 20
-136.1562628480632
 30
0.0
 10
122.4194226440025
 20
-135.6819165936703
 30
0.0
 10
122.4194226440025
 20
-135.6819165936703
 30
0.0
 10
122.4194226440025
 20
-135.6819165936703
 30
0.0
 10
122.4034035179408
 20
-135.6817817000689
 30
0.0
 10
122.4034035179408
 20
-135.6817817000689
 30
0.0
 10
122.4034035179408
 20
-135.6817817000689
 30
0.0
 10
122.3811286680602
 20
-138.3270044842297
 30
0.0
 10
122.3811286680602
 20
-138.3270044842297
 30
0.0
 10
122.3811286680602
 20
-138.3270044842297
 30
0.0
 10
121.794794204474
 20
-138.3220670883194
 30
0.0
 10
121.794794204474
 20
-138.3220670883194
 30
0.0
 10
121.794794204474
 20
-138.3220670883194
 30
0.0
 10
121.8264521372419
 20
-134.5625676752117
 30
0.0
 10
121.8264521372419
 20
-134.5625676752117
 30
0.0
  0
SPLINE
  5
20D
330
1FD
100
AcDbEntity
  8
Capa 1
 62
   250
370
    35
100
AcDbSpline
210
0.0
220
0.0
230
1.0
 70
    11
 71
     3
 72
    59
 73
    55
 74
     0
 42
0.0000000001
 43
0.0000000001
 12
1.0
 22
0.0
 32
0.0
 13
1.0
 23
0.0
 33
0.0
 40
0.0
 40
0.0
 40
0.0
 40
0.0
 40
1.0
 40
1.0
 40
1.0
 40
2.0
 40
2.0
 40
2.0
 40
3.0
 40
3.0
 40
3.0
 40
4.0
 40
4.0
 40
4.0
 40
5.0
 40
5.0
 40
5.0
 40
6.0
 40
6.0
 40
6.0
 40
7.0
 40
7.0
 40
7.0
 40
8.0
 40
8.0
 40
8.0
 40
9.0
 40
9.0
 40
9.0
 40
10.0
 40
10.0
 40
10.0
 40
11.0
 40
11.0
 40
11.0
 40
12.0
 40
12.0
 40
12.0
 40
13.0
 40
13.0
 40
13.0
 40
14.0
 40
14.0
 40
14.0
 40
15.0
 40
15.0
 40
15.0
 40
16.0
 40
16.0
 40
16.0
 40
17.0
 40
17.0
 40
17.0
 40
18.0
 40
18.0
 40
18.0
 40
18.0
 10
112.1581986837753
 20
-134.6985466328936
 30
0.0
 10
112.0277938114317
 20
-134.9239715806803
 30
0.0
 10
111.8225279353838
 20
-135.4476387693714
 30
0.0
 10
111.8178733808959
 20
-136.0003847428279
 30
0.0
 10
111.8092532446172
 20
-137.0240585727598
 30
0.0
 10
112.3849939563816
 20
-137.3460390436557
 30
0.0
 10
112.8186207268961
 20
-137.3405606943417
 30
0.0
 10
113.549548697218
 20
-137.3375858542356
 30
0.0
 10
113.8689511960326
 20
-136.5974865530555
 30
0.0
 10
113.8754362421881
 20
-135.8273627614307
 30
0.0
 10
113.8754362421881
 20
-135.8273627614307
 30
0.0
 10
113.8791741003739
 20
-135.3834779457258
 30
0.0
 10
113.8791741003739
 20
-135.3834779457258
 30
0.0
 10
113.8791741003739
 20
-135.3834779457258
 30
0.0
 10
114.4093554984102
 20
-135.387942488796
 30
0.0
 10
114.4093554984102
 20
-135.387942488796
 30
0.0
 10
114.4093554984102
 20
-135.387942488796
 30
0.0
 10
114.4056176402257
 20
-135.8318273045016
 30
0.0
 10
114.4056176402257
 20
-135.8318273045016
 30
0.0
 10
114.4007353621302
 20
-136.4116163187285
 30
0.0
 10
114.6594748152489
 20
-137.1476264626135
 30
0.0
 10
115.2778475309584
 20
-137.1528336457268
 30
0.0
 10
115.6955505492297
 20
-137.1563510326489
 30
0.0
 10
116.067540504075
 20
-136.8606108504829
 30
0.0
 10
116.0737195013078
 20
-136.1268315276645
 30
0.0
 10
116.0776865335682
 20
-135.6557314225213
 30
0.0
 10
115.8966784465577
 20
-135.201161074389
 30
0.0
 10
115.7382792292003
 20
-134.9460869504619
 30
0.0
 10
115.7382792292003
 20
-134.9460869504619
 30
0.0
 10
116.2540228693279
 20
-134.742166510662
 30
0.0
 10
116.2540228693279
 20
-134.742166510662
 30
0.0
 10
116.45209912849
 20
-135.0518369240361
 30
0.0
 10
116.6479064972728
 20
-135.6514032949933
 30
0.0
 10
116.642565871027
 20
-136.285622888096
 30
0.0
 10
116.6328013148374
 20
-137.4452009165505
 30
0.0
 10
116.0181003565501
 20
-137.9654203408235
 30
0.0
 10
115.3835362661123
 20
-137.9600768136392
 30
0.0
 10
114.8454314293779
 20
-137.9555455490027
 30
0.0
 10
114.3908185067141
 20
-137.5892804572519
 30
0.0
 10
114.1640404308695
 20
-136.8626692799386
 30
0.0
 10
114.1640404308695
 20
-136.8626692799386
 30
0.0
 10
114.1478490561412
 20
-136.8625329358682
 30
0.0
 10
114.1478490561412
 20
-136.8625329358682
 30
0.0
 10
114.0132494279297
 20
-137.5861010295685
 30
0.0
 10
113.5265107524694
 20
-138.1709622618355
 30
0.0
 10
112.7956596569955
 20
-138.1648079225735
 30
0.0
 10
111.9604258691208
 20
-138.1577745991981
 30
0.0
 10
111.2357537708785
 20
-137.4178409371177
 30
0.0
 10
111.2476548676608
 20
-136.0045406216888
 30
0.0
 10
111.253223217513
 20
-135.3432779878156
 30
0.0
 10
111.4427560669837
 20
-134.7650438761784
 30
0.0
 10
111.6140009000135
 20
-134.4765708285221
 30
0.0
 10
111.6140009000135
 20
-134.4765708285221
 30
0.0
 10
112.1581986837753
 20
-134.6985466328936
 30
0.0
 10
112.1581986837753
 20
-134.6985466328936
 30
0.0
  0
POLYLINE
  5
20E
330
1FD
100
AcDbEntity
  8
Capa 1
 62
   250
370
    35
100
AcDb2dPolyline
 66
     1
 10
0.0
 20
0.0
 30
0.0
  0
VERTEX
  5
20F
330
20E
100
AcDbEntity
  8
Capa 1
 62
   250
370
    35
100
AcDbVertex
100
AcDb2dVertex
 10
101.7128465295806
 20
-137.1292149250143
 30
0.0
  0
VERTEX
  5
210
330
20E
100
AcDbEntity
  8
Capa 1
 62
   250
370
    35
100
AcDbVertex
100
AcDb2dVertex
 10
103.1344147810412
 20
-137.1411856443004
 30
0.0
  0
VERTEX
  5
211
330
20E
100
AcDbEntity
  8
Capa 1
 62
   250
370
    35
100
AcDbVertex
100
AcDb2dVertex
 10
103.1574525775288
 20
-134.4053600611244
 30
0.0
  0
VERTEX
  5
212
330
20E
100
AcDbEntity
  8
Capa 1
 62
   250
370
    35
100
AcDbVertex
100
AcDb2dVertex
 10
103.6232129739842
 20
-134.4092821288509
 30
0.0
  0
VERTEX
  5
213
330
20E
100
AcDbEntity
  8
Capa 1
 62
   250
370
    35
100
AcDbVertex
100
AcDb2dVertex
 10
106.9339298874669
 20
-137.0644839244082
 30
0.0
  0
VERTEX
  5
214
330
20E
100
AcDbEntity
  8
Capa 1
 62
   250
370
    35
100
AcDbVertex
100
AcDb2dVertex
 10
106.9266833451724
 20
-137.9250382663806
 30
0.0
  0
VERTEX
  5
215
330
20E
100
AcDbEntity
  8
Capa 1
 62
   250
370
    35
100
AcDbVertex
100
AcDb2dVertex
 10
103.6822074473767
 20
-137.897717235427
 30
0.0
  0
VERTEX
  5
216
330
20E
100
AcDbEntity
  8
Capa 1
 62
   250
370
    35
100
AcDbVertex
100
AcDb2dVertex
 10
103.6752640530695
 20
-138.7222716059271
 30
0.0
  0
VERTEX
  5
217
330
20E
100
AcDbEntity
  8
Capa 1
 62
   250
370
    35
100
AcDbVertex
100
AcDb2dVertex
 10
103.1211400902737
 20
-138.7176054476886
 30
0.0
  0
VERTEX
  5
218
330
20E
100
AcDbEntity
  8
Capa 1
 62
   250
370
    35
100
AcDbVertex
100
AcDb2dVertex
 10
103.1280834845815
 20
-137.8930510771881
 30
0.0
  0
VERTEX
  5
219
330
20E
100
AcDbEntity
  8
Capa 1
 62
   250
370
    35
100
AcDbVertex
100
AcDb2dVertex
 10
101.7065152331206
 20
-137.8810803579022
 30
0.0
  0
VERTEX
  5
21A
330
20E
100
AcDbEntity
  8
Capa 1
 62
   250
370
    35
100
AcDbVertex
100
AcDb2dVertex
 10
101.7128465295806
 20
-137.1292149250143
 30
0.0
  0
SEQEND
  5
21B
330
20E
100
AcDbEntity
  8
Capa 1
 62
   250
370
    35
  0
SPLINE
  5
21C
330
1FD
100
AcDbEntity
  8
Capa 1
 62
   250
370
    35
100
AcDbSpline
210
0.0
220
0.0
230
1.0
 70
    11
 71
     3
 72
    26
 73
    22
 74
     0
 42
0.0000000001
 43
0.0000000001
 12
1.0
 22
0.0
 32
0.0
 13
1.0
 23
0.0
 33
0.0
 40
0.0
 40
0.0
 40
0.0
 40
0.0
 40
1.0
 40
1.0
 40
1.0
 40
2.0
 40
2.0
 40
2.0
 40
3.0
 40
3.0
 40
3.0
 40
4.0
 40
4.0
 40
4.0
 40
5.0
 40
5.0
 40
5.0
 40
6.0
 40
6.0
 40
6.0
 40
7.0
 40
7.0
 40
7.0
 40
7.0
 10
103.6885387438361
 20
-137.1458518025387
 30
0.0
 10
103.6885387438361
 20
-137.1458518025387
 30
0.0
 10
105.4311785111972
 20
-137.1605261957306
 30
0.0
 10
105.4311785111972
 20
-137.1605261957306
 30
0.0
 10
105.7043648975801
 20
-137.1628266393012
 30
0.0
 10
105.9773021604471
 20
-137.1742548117709
 30
0.0
 10
106.2501639989344
 20
-137.1946399149421
 30
0.0
 10
106.2501639989344
 20
-137.1946399149421
 30
0.0
 10
106.2503931730102
 20
-137.1674246255039
 30
0.0
 10
106.2503931730102
 20
-137.1674246255039
 30
0.0
 10
105.9466944277185
 20
-136.9836487967013
 30
0.0
 10
105.7231297611432
 20
-136.8368948056501
 30
0.0
 10
105.483527469537
 20
-136.6717461117912
 30
0.0
 10
105.483527469537
 20
-136.6717461117912
 30
0.0
 10
103.7208060217746
 20
-135.2164571247282
 30
0.0
 10
103.7208060217746
 20
-135.2164571247282
 30
0.0
 10
103.7208060217746
 20
-135.2164571247282
 30
0.0
 10
103.7047868957129
 20
-135.2163222311267
 30
0.0
 10
103.7047868957129
 20
-135.2163222311267
 30
0.0
 10
103.7047868957129
 20
-135.2163222311267
 30
0.0
 10
103.6885387438361
 20
-137.1458518025387
 30
0.0
 10
103.6885387438361
 20
-137.1458518025387
 30
0.0
  0
SPLINE
  5
21D
330
1FD
100
AcDbEntity
  8
Capa 1
 62
   250
370
    35
100
AcDbSpline
210
0.0
220
0.0
230
1.0
 70
    11
 71
     3
 72
    50
 73
    46
 74
     0
 42
0.0000000001
 43
0.0000000001
 12
1.0
 22
0.0
 32
0.0
 13
1.0
 23
0.0
 33
0.0
 40
0.0
 40
0.0
 40
0.0
 40
0.0
 40
1.0
 40
1.0
 40
1.0
 40
2.0
 40
2.0
 40
2.0
 40
3.0
 40
3.0
 40
3.0
 40
4.0
 40
4.0
 40
4.0
 40
5.0
 40
5.0
 40
5.0
 40
6.0
 40
6.0
 40
6.0
 40
7.0
 40
7.0
 40
7.0
 40
8.0
 40
8.0
 40
8.0
 40
9.0
 40
9.0
 40
9.0
 40
10.0
 40
10.0
 40
10.0
 40
11.0
 40
11.0
 40
11.0
 40
12.0
 40
12.0
 40
12.0
 40
13.0
 40
13.0
 40
13.0
 40
14.0
 40
14.0
 40
14.0
 40
15.0
 40
15.0
 40
15.0
 40
15.0
 10
96.89566835249114
 20
-137.8950036936556
 30
0.0
 10
96.89566835249114
 20
-137.8950036936556
 30
0.0
 10
96.91458681749089
 20
-135.648364325692
 30
0.0
 10
96.91458681749089
 20
-135.648364325692
 30
0.0
 10
96.91458681749089
 20
-135.648364325692
 30
0.0
 10
95.57536606018915
 20
-135.4105639778151
 30
0.0
 10
95.57536606018915
 20
-135.4105639778151
 30
0.0
 10
95.59024076634057
 20
-135.5466030699385
 30
0.0
 10
95.60519234734066
 20
-135.6735129826939
 30
0.0
 10
95.60336185567242
 20
-135.890890800862
 30
0.0
 10
95.59954712263921
 20
-136.3439047959357
 30
0.0
 10
95.50736882326684
 20
-136.7961747004973
 30
0.0
 10
95.31157077810025
 20
-137.1569628219312
 30
0.0
 10
95.07480042245973
 20
-137.6169727138421
 30
0.0
 10
94.62185506641131
 20
-137.9936828458453
 30
0.0
 10
93.96334841121588
 20
-137.9881377034933
 30
0.0
 10
92.94346405196426
 20
-137.9795494775282
 30
0.0
 10
92.1881073461453
 20
-137.0581389797463
 30
0.0
 10
92.19886402301675
 20
-135.7807428628393
 30
0.0
 10
92.20428007364235
 20
-135.1375663390357
 30
0.0
 10
92.36956575989949
 20
-134.5953028323692
 30
0.0
 10
92.5324657820486
 20
-134.3158893415774
 30
0.0
 10
92.5324657820486
 20
-134.3158893415774
 30
0.0
 10
93.06889242634138
 20
-134.5197123143132
 30
0.0
 10
93.06889242634138
 20
-134.5197123143132
 30
0.0
 10
92.9383352547706
 20
-134.7632233721694
 30
0.0
 10
92.7735847915132
 20
-135.2419271205915
 30
0.0
 10
92.76908253625344
 20
-135.7765869839785
 30
0.0
 10
92.76275123979339
 20
-136.5284524168665
 30
0.0
 10
93.19105733350045
 20
-137.1752812211943
 30
0.0
 10
93.88987017685191
 20
-137.1811657732534
 30
0.0
 10
94.56447283295678
 20
-137.1777166298382
 30
0.0
 10
95.05069623485771
 20
-136.6745027163535
 30
0.0
 10
95.06061309027449
 20
-135.4968385778294
 30
0.0
 10
95.0634357026252
 20
-135.1616426712089
 30
0.0
 10
95.0334371668065
 20
-134.8986922158612
 30
0.0
 10
95.01115429551814
 20
-134.6809390833885
 30
0.0
 10
95.01115429551814
 20
-134.6809390833885
 30
0.0
 10
97.51365157348899
 20
-135.0825363596425
 30
0.0
 10
97.51365157348899
 20
-135.0825363596425
 30
0.0
 10
97.51365157348899
 20
-135.0825363596425
 30
0.0
 10
97.48992625477356
 20
-137.9000078111323
 30
0.0
 10
97.48992625477356
 20
-137.9000078111323
 30
0.0
 10
97.48992625477356
 20
-137.9000078111323
 30
0.0
 10
96.89566835249114
 20
-137.8950036936556
 30
0.0
 10
96.89566835249114
 20
-137.8950036936556
 30
0.0
  0
SPLINE
  5
21E
330
1FD
100
AcDbEntity
  8
Capa 1
 62
   250
370
    35
100
AcDbSpline
210
0.0
220
0.0
230
1.0
 70
    11
 71
     3
 72
    38
 73
    34
 74
     0
 42
0.0000000001
 43
0.0000000001
 12
1.0
 22
0.0
 32
0.0
 13
1.0
 23
0.0
 33
0.0
 40
0.0
 40
0.0
 40
0.0
 40
0.0
 40
1.0
 40
1.0
 40
1.0
 40
2.0
 40
2.0
 40
2.0
 40
3.0
 40
3.0
 40
3.0
 40
4.0
 40
4.0
 40
4.0
 40
5.0
 40
5.0
 40
5.0
 40
6.0
 40
6.0
 40
6.0
 40
7.0
 40
7.0
 40
7.0
 40
8.0
 40
8.0
 40
8.0
 40
9.0
 40
9.0
 40
9.0
 40
10.0
 40
10.0
 40
10.0
 40
11.0
 40
11.0
 40
11.0
 40
11.0
 10
85.2542392481956
 20
-137.7154943359982
 30
0.0
 10
85.263536280878
 20
-137.5524415696049
 30
0.0
 10
85.25736645900129
 20
-137.3441262092389
 30
0.0
 10
85.22706332472697
 20
-137.1173479740299
 30
0.0
 10
85.05294025614732
 20
-135.8656122439708
 30
0.0
 10
84.24738963155116
 20
-135.1975193523589
 30
0.0
 10
83.38918545016023
 20
-135.0543787648249
 30
0.0
 10
83.38918545016023
 20
-135.0543787648249
 30
0.0
 10
83.3889577265533
 20
-135.0814218055953
 30
0.0
 10
83.3889577265533
 20
-135.0814218055953
 30
0.0
 10
83.7157592151493
 20
-135.3651312279491
 30
0.0
 10
83.9848262700447
 20
-135.8566178867324
 30
0.0
 10
83.97933334457073
 20
-136.5089235899047
 30
0.0
 10
83.97056090906361
 20
-137.5506835299061
 30
0.0
 10
83.29777956927082
 20
-138.278849538338
 30
0.0
 10
82.27772296135231
 20
-138.270259861904
 30
0.0
 10
81.32208735501501
 20
-138.2622126608142
 30
0.0
 10
80.44480293752021
 20
-137.5209938833464
 30
0.0
 10
80.45510126623998
 20
-136.2980283453153
 30
0.0
 10
80.46570564388428
 20
-135.0387183384779
 30
0.0
 10
81.34009187638851
 20
-134.2216407776918
 30
0.0
 10
82.69723912626885
 20
-134.2330690216334
 30
0.0
 10
83.72521917288427
 20
-134.2417254196343
 30
0.0
 10
84.53282946322386
 20
-134.6652252036399
 30
0.0
 10
85.04193720843709
 20
-135.2493424168673
 30
0.0
 10
85.46344288344824
 20
-135.7422849892356
 30
0.0
 10
85.72304210746165
 20
-136.3966507152755
 30
0.0
 10
85.7970541143564
 20
-137.1402351359394
 30
0.0
 10
85.82728182425096
 20
-137.3759703018489
 30
0.0
 10
85.83352707050744
 20
-137.5753287315144
 30
0.0
 10
85.83230577574912
 20
-137.7203621094044
 30
0.0
 10
85.83230577574912
 20
-137.7203621094044
 30
0.0
 10
85.2542392481956
 20
-137.7154943359982
 30
0.0
 10
85.2542392481956
 20
-137.7154943359982
 30
0.0
  0
SPLINE
  5
21F
330
1FD
100
AcDbEntity
  8
Capa 1
 62
   250
370
    35
100
AcDbSpline
210
0.0
220
0.0
230
1.0
 70
    11
 71
     3
 72
    20
 73
    16
 74
     0
 42
0.0000000001
 43
0.0000000001
 12
1.0
 22
0.0
 32
0.0
 13
1.0
 23
0.0
 33
0.0
 40
0.0
 40
0.0
 40
0.0
 40
0.0
 40
1.0
 40
1.0
 40
1.0
 40
2.0
 40
2.0
 40
2.0
 40
3.0
 40
3.0
 40
3.0
 40
4.0
 40
4.0
 40
4.0
 40
5.0
 40
5.0
 40
5.0
 40
5.0
 10
82.24437866647588
 20
-137.4636258909024
 30
0.0
 10
82.99124888801146
 20
-137.4699151237655
 30
0.0
 10
83.44503261504563
 20
-136.9936452620466
 30
0.0
 10
83.45121161227787
 20
-136.2598659392281
 30
0.0
 10
83.45525551938692
 20
-135.7796366547163
 30
0.0
 10
83.19407492722051
 20
-135.3335210179448
 30
0.0
 10
82.81833634010498
 20
-135.1129637720926
 30
0.0
 10
82.73852680928161
 20
-135.0578572747406
 30
0.0
 10
82.63444871533571
 20
-135.0208060704881
 30
0.0
 10
82.50595120950902
 20
-135.019724020738
 30
0.0
 10
81.64645030898065
 20
-135.0305737417954
 30
0.0
 10
81.00832060902555
 20
-135.4691164807856
 30
0.0
 10
81.00130179033862
 20
-136.3026277819876
 30
0.0
 10
80.99550426640937
 20
-136.9911057052989
 30
0.0
 10
81.49750844493998
 20
-137.457336658038
 30
0.0
 10
82.24437866647588
 20
-137.4636258909024
 30
0.0
  0
POLYLINE
  5
220
330
1FD
100
AcDbEntity
  8
Capa 1
 62
   250
370
    35
100
AcDb2dPolyline
 66
     1
 10
0.0
 20
0.0
 30
0.0
  0
VERTEX
  5
221
330
220
100
AcDbEntity
  8
Capa 1
 62
   250
370
    35
100
AcDbVertex
100
AcDb2dVertex
 10
76.30550837703863
 20
-137.8937070230756
 30
0.0
  0
VERTEX
  5
222
330
220
100
AcDbEntity
  8
Capa 1
 62
   250
370
    35
100
AcDbVertex
100
AcDb2dVertex
 10
75.83974798058352
 20
-137.889784955349
 30
0.0
  0
VERTEX
  5
223
330
220
100
AcDbEntity
  8
Capa 1
 62
   250
370
    35
100
AcDbVertex
100
AcDb2dVertex
 10
71.10692904310979
 20
-135.2859999500825
 30
0.0
  0
VERTEX
  5
224
330
220
100
AcDbEntity
  8
Capa 1
 62
   250
370
    35
100
AcDbVertex
100
AcDb2dVertex
 10
71.11387098694868
 20
-134.4616178282496
 30
0.0
  0
VERTEX
  5
225
330
220
100
AcDbEntity
  8
Capa 1
 62
   250
370
    35
100
AcDbVertex
100
AcDb2dVertex
 10
75.71017215560944
 20
-137.0552956810296
 30
0.0
  0
VERTEX
  5
226
330
220
100
AcDbEntity
  8
Capa 1
 62
   250
370
    35
100
AcDbVertex
100
AcDb2dVertex
 10
75.72636353033899
 20
-137.0554320251
 30
0.0
  0
VERTEX
  5
227
330
220
100
AcDbEntity
  8
Capa 1
 62
   250
370
    35
100
AcDbVertex
100
AcDb2dVertex
 10
75.75062262158457
 20
-134.1745730640336
 30
0.0
  0
VERTEX
  5
228
330
220
100
AcDbEntity
  8
Capa 1
 62
   250
370
    35
100
AcDbVertex
100
AcDb2dVertex
 10
76.33678483650318
 20
-134.179509009475
 30
0.0
  0
VERTEX
  5
229
330
220
100
AcDbEntity
  8
Capa 1
 62
   250
370
    35
100
AcDbVertex
100
AcDb2dVertex
 10
76.30550837703863
 20
-137.8937070230756
 30
0.0
  0
SEQEND
  5
22A
330
220
100
AcDbEntity
  8
Capa 1
 62
   250
370
    35
  0
SPLINE
  5
22B
330
1FD
100
AcDbEntity
  8
Capa 1
 62
   250
370
    35
100
AcDbSpline
210
0.0
220
0.0
230
1.0
 70
    11
 71
     3
 72
    35
 73
    31
 74
     0
 42
0.0000000001
 43
0.0000000001
 12
1.0
 22
0.0
 32
0.0
 13
1.0
 23
0.0
 33
0.0
 40
0.0
 40
0.0
 40
0.0
 40
0.0
 40
1.0
 40
1.0
 40
1.0
 40
2.0
 40
2.0
 40
2.0
 40
3.0
 40
3.0
 40
3.0
 40
4.0
 40
4.0
 40
4.0
 40
5.0
 40
5.0
 40
5.0
 40
6.0
 40
6.0
 40
6.0
 40
7.0
 40
7.0
 40
7.0
 40
8.0
 40
8.0
 40
8.0
 40
9.0
 40
9.0
 40
9.0
 40
10.0
 40
10.0
 40
10.0
 40
10.0
 10
62.82887209594843
 20
-134.0657617930562
 30
0.0
 10
63.48720650247763
 20
-134.0713054849393
 30
0.0
 10
63.94957353808296
 20
-134.5191152693086
 30
0.0
 10
64.216311854278
 20
-135.246235204059
 30
0.0
 10
64.216311854278
 20
-135.246235204059
 30
0.0
 10
64.24050354255252
 20
-135.2373090903276
 30
0.0
 10
64.24050354255252
 20
-135.2373090903276
 30
0.0
 10
64.51883835707466
 20
-134.5873009297881
 30
0.0
 10
64.97111614033496
 20
-134.3103242266367
 30
0.0
 10
65.42102965939621
 20
-134.3141128512307
 30
0.0
 10
66.24799551123962
 20
-134.321076552102
 30
0.0
 10
66.80357926648396
 20
-135.1138485354028
 30
0.0
 10
66.79488225535692
 20
-136.1466515447034
 30
0.0
 10
66.78526999839447
 20
-137.2881434630884
 30
0.0
 10
66.1460727533784
 20
-137.8534612212318
 30
0.0
 10
65.4953172882117
 20
-137.8479813499778
 30
0.0
 10
65.05367170518242
 20
-137.8442623478879
 30
0.0
 10
64.5820475357732
 20
-137.5956804509881
 30
0.0
 10
64.2829250196511
 20
-136.8684600767648
 30
0.0
 10
64.2829250196511
 20
-136.8684600767648
 30
0.0
 10
64.25881020622528
 20
-136.8682570111276
 30
0.0
 10
64.25881020622528
 20
-136.8682570111276
 30
0.0
 10
63.99563619733966
 20
-137.5998722344464
 30
0.0
 10
63.53398450654764
 20
-138.0490308833598
 30
0.0
 10
62.89942041610984
 20
-138.0436873561754
 30
0.0
 10
61.99201443662483
 20
-138.036046286359
 30
0.0
 10
61.38896545160278
 20
-137.1520931241029
 30
0.0
 10
61.39842540933743
 20
-136.0286873157874
 30
0.0
 10
61.4087991624376
 20
-134.7967648470554
 30
0.0
 10
62.06581049968395
 20
-134.0593362161224
 30
0.0
 10
62.82887209594843
 20
-134.0657617930562
 30
0.0
  0
SPLINE
  5
22C
330
1FD
100
AcDbEntity
  8
Capa 1
 62
   250
370
    35
100
AcDbSpline
210
0.0
220
0.0
230
1.0
 70
    11
 71
     3
 72
    17
 73
    13
 74
     0
 42
0.0000000001
 43
0.0000000001
 12
1.0
 22
0.0
 32
0.0
 13
1.0
 23
0.0
 33
0.0
 40
0.0
 40
0.0
 40
0.0
 40
0.0
 40
1.0
 40
1.0
 40
1.0
 40
2.0
 40
2.0
 40
2.0
 40
3.0
 40
3.0
 40
3.0
 40
4.0
 40
4.0
 40
4.0
 40
4.0
 10
62.83421011777852
 20
-137.2367850484389
 30
0.0
 10
63.46842971088061
 20
-137.2421256746854
 30
0.0
 10
63.77785055572311
 20
-136.7463805108782
 30
0.0
 10
63.98540527159129
 20
-135.9509049251432
 30
0.0
 10
63.81447566284027
 20
-135.2609388208078
 30
0.0
 10
63.41592043190559
 20
-134.8860159520602
 30
0.0
 10
62.91846628066153
 20
-134.881826998068
 30
0.0
 10
62.38816810889709
 20
-134.8503165132896
 30
0.0
 10
61.91859442987771
 20
-135.2992361919688
 30
0.0
 10
61.91226168294906
 20
-136.051273873524
 30
0.0
 10
61.90623643541321
 20
-136.7667948376063
 30
0.0
 10
62.29610528104434
 20
-137.2322537838025
 30
0.0
 10
62.83421011777852
 20
-137.2367850484389
 30
0.0
  0
SPLINE
  5
22D
330
1FD
100
AcDbEntity
  8
Capa 1
 62
   250
370
    35
100
AcDbSpline
210
0.0
220
0.0
230
1.0
 70
    11
 71
     3
 72
    17
 73
    13
 74
     0
 42
0.0000000001
 43
0.0000000001
 12
1.0
 22
0.0
 32
0.0
 13
1.0
 23
0.0
 33
0.0
 40
0.0
 40
0.0
 40
0.0
 40
0.0
 40
1.0
 40
1.0
 40
1.0
 40
2.0
 40
2.0
 40
2.0
 40
3.0
 40
3.0
 40
3.0
 40
4.0
 40
4.0
 40
4.0
 40
4.0
 10
65.46292798978845
 20
-135.0663844153926
 30
0.0
 10
64.94067003044908
 20
-135.061986593888
 30
0.0
 10
64.65582234718471
 20
-135.5035042444561
 30
0.0
 10
64.48956448968516
 20
-136.1816734001135
 30
0.0
 10
64.63790517822267
 20
-136.6902308407819
 30
0.0
 10
64.95604023095451
 20
-137.0825639011228
 30
0.0
 10
65.42972406610781
 20
-137.0865526904159
 30
0.0
 10
65.84725483571158
 20
-137.0900686268689
 30
0.0
 10
66.28334269471222
 20
-136.8127833309806
 30
0.0
 10
66.28936939271667
 20
-136.097090118231
 30
0.0
 10
66.29493774257007
 20
-135.4358274843579
 30
0.0
 10
65.91249701151528
 20
-135.0701701390487
 30
0.0
 10
65.46292798978845
 20
-135.0663844153926
 30
0.0
  0
SPLINE
  5
22E
330
1FD
100
AcDbEntity
  8
Capa 1
 62
   250
370
    35
100
AcDbSpline
210
0.0
220
0.0
230
1.0
 70
    11
 71
     3
 72
    41
 73
    37
 74
     0
 42
0.0000000001
 43
0.0000000001
 12
1.0
 22
0.0
 32
0.0
 13
1.0
 23
0.0
 33
0.0
 40
0.0
 40
0.0
 40
0.0
 40
0.0
 40
1.0
 40
1.0
 40
1.0
 40
2.0
 40
2.0
 40
2.0
 40
3.0
 40
3.0
 40
3.0
 40
4.0
 40
4.0
 40
4.0
 40
5.0
 40
5.0
 40
5.0
 40
6.0
 40
6.0
 40
6.0
 40
7.0
 40
7.0
 40
7.0
 40
8.0
 40
8.0
 40
8.0
 40
9.0
 40
9.0
 40
9.0
 40
10.0
 40
10.0
 40
10.0
 40
11.0
 40
11.0
 40
11.0
 40
12.0
 40
12.0
 40
12.0
 40
12.0
 10
52.4723587345127
 20
-134.4769025602545
 30
0.0
 10
52.45506283875361
 20
-134.6488455357824
 30
0.0
 10
52.46923152370637
 20
-134.8482706870141
 30
0.0
 10
52.49105749731227
 20
-135.1202821496947
 30
0.0
 10
52.5433204054498
 20
-135.5827259283094
 30
0.0
 10
52.70846166562517
 20
-136.0190752727707
 30
0.0
 10
52.98674887835558
 20
-136.3566383445281
 30
0.0
 10
53.29661744552467
 20
-136.7487295336977
 30
0.0
 10
53.75208868861554
 20
-137.0335224562706
 30
0.0
 10
54.36954615848998
 20
-137.1474185484683
 30
0.0
 10
54.36954615848998
 20
-137.1474185484683
 30
0.0
 10
54.36977533256614
 20
-137.1202032590301
 30
0.0
 10
54.36977533256614
 20
-137.1202032590301
 30
0.0
 10
54.01906680471087
 20
-136.7911601697307
 30
0.0
 10
53.81426845216919
 20
-136.3183020963612
 30
0.0
 10
53.81922760511107
 20
-135.7293839027656
 30
0.0
 10
53.82815233984697
 20
-134.6695378526947
 30
0.0
 10
54.54078297011108
 20
-133.9959695841784
 30
0.0
 10
55.43199757486783
 20
-134.0034743099245
 30
0.0
 10
56.42001593066391
 20
-134.0117941991556
 30
0.0
 10
57.28067057471753
 20
-134.8253947719666
 30
0.0
 10
57.27052454522524
 20
-136.0302741999282
 30
0.0
 10
57.26037851573199
 20
-137.2351536278899
 30
0.0
 10
56.38667835498635
 20
-137.9707575690297
 30
0.0
 10
55.05347366986527
 20
-137.9595309402559
 30
0.0
 10
53.90491955611944
 20
-137.9498592140718
 30
0.0
 10
53.10555870284069
 20
-137.508169243364
 30
0.0
 10
52.61264233235637
 20
-136.924188374207
 30
0.0
 10
52.22269516140764
 20
-136.4680308560467
 30
0.0
 10
51.98715527588034
 20
-135.8409126868832
 30
0.0
 10
51.92807490054627
 20
-135.2061506184358
 30
0.0
 10
51.89055434877304
 20
-134.9159196025532
 30
0.0
 10
51.88476745066921
 20
-134.6621305940118
 30
0.0
 10
51.89429220695885
 20
-134.4720347868476
 30
0.0
 10
51.89429220695885
 20
-134.4720347868476
 30
0.0
 10
52.4723587345127
 20
-134.4769025602545
 30
0.0
 10
52.4723587345127
 20
-134.4769025602545
 30
0.0
  0
SPLINE
  5
22F
330
1FD
100
AcDbEntity
  8
Capa 1
 62
   250
370
    35
100
AcDbSpline
210
0.0
220
0.0
230
1.0
 70
    11
 71
     3
 72
    20
 73
    16
 74
     0
 42
0.0000000001
 43
0.0000000001
 12
1.0
 22
0.0
 32
0.0
 13
1.0
 23
0.0
 33
0.0
 40
0.0
 40
0.0
 40
0.0
 40
0.0
 40
1.0
 40
1.0
 40
1.0
 40
2.0
 40
2.0
 40
2.0
 40
3.0
 40
3.0
 40
3.0
 40
4.0
 40
4.0
 40
4.0
 40
5.0
 40
5.0
 40
5.0
 40
5.0
 10
55.4735898563362
 20
-134.792090342893
 30
0.0
 10
54.82317888850456
 20
-134.7866133725758
 30
0.0
 10
54.36160407256057
 20
-135.2266428421205
 30
0.0
 10
54.35580654863261
 20
-135.9151207654318
 30
0.0
 10
54.35130574384048
 20
-136.4496083801516
 30
0.0
 10
54.58067580749075
 20
-136.8684111889498
 30
0.0
 10
54.89207026787313
 20
-137.0792967800897
 30
0.0
 10
54.95610979615069
 20
-137.1251406549405
 30
0.0
 10
55.03614850104989
 20
-137.1530318628549
 30
0.0
 10
55.14845463214831
 20
-137.1539775685346
 30
0.0
 10
56.04001373423916
 20
-137.1614851952185
 30
0.0
 10
56.72593466233558
 20
-136.7958667269165
 30
0.0
 10
56.73295348102219
 20
-135.9623554257145
 30
0.0
 10
56.73867558057167
 20
-135.282834433104
 30
0.0
 10
56.2125366391755
 20
-134.7983128541898
 30
0.0
 10
55.4735898563362
 20
-134.792090342893
 30
0.0
  0
POLYLINE
  5
230
330
1FD
100
AcDbEntity
  8
Capa 1
 62
   250
370
    35
100
AcDb2dPolyline
 66
     1
 10
0.0
 20
0.0
 30
0.0
  0
VERTEX
  5
231
330
230
100
AcDbEntity
  8
Capa 1
 62
   250
370
    35
100
AcDbVertex
100
AcDb2dVertex
 10
46.0529789069012
 20
-130.8668264571405
 30
0.0
  0
VERTEX
  5
232
330
230
100
AcDbEntity
  8
Capa 1
 62
   250
370
    35
100
AcDbVertex
100
AcDb2dVertex
 10
46.053131206129
 20
-130.848740347071
 30
0.0
  0
VERTEX
  5
233
330
230
100
AcDbEntity
  8
Capa 1
 62
   250
370
    35
100
AcDbVertex
100
AcDb2dVertex
 10
45.5715316351917
 20
-129.8209384828378
 30
0.0
  0
VERTEX
  5
234
330
230
100
AcDbEntity
  8
Capa 1
 62
   250
370
    35
100
AcDbVertex
100
AcDb2dVertex
 10
46.11093319106236
 20
-129.671479438883
 30
0.0
  0
VERTEX
  5
235
330
230
100
AcDbEntity
  8
Capa 1
 62
   250
370
    35
100
AcDbVertex
100
AcDb2dVertex
 10
46.71055036682376
 20
-130.9629729480385
 30
0.0
  0
VERTEX
  5
236
330
230
100
AcDbEntity
  8
Capa 1
 62
   250
370
    35
100
AcDbVertex
100
AcDb2dVertex
 10
46.70482826727427
 20
-131.6424939406483
 30
0.0
  0
VERTEX
  5
237
330
230
100
AcDbEntity
  8
Capa 1
 62
   250
370
    35
100
AcDbVertex
100
AcDb2dVertex
 10
41.48466015522149
 20
-131.59853603217
 30
0.0
  0
VERTEX
  5
238
330
230
100
AcDbEntity
  8
Capa 1
 62
   250
370
    35
100
AcDbVertex
100
AcDb2dVertex
 10
41.49114520137826
 20
-130.8284122405447
 30
0.0
  0
VERTEX
  5
239
330
230
100
AcDbEntity
  8
Capa 1
 62
   250
370
    35
100
AcDbVertex
100
AcDb2dVertex
 10
46.0529789069012
 20
-130.8668264571405
 30
0.0
  0
SEQEND
  5
23A
330
230
100
AcDbEntity
  8
Capa 1
 62
   250
370
    35
  0
SPLINE
  5
23B
330
1FD
100
AcDbEntity
  8
Capa 1
 62
   250
370
    35
100
AcDbSpline
210
0.0
220
0.0
230
1.0
 70
    11
 71
     3
 72
    17
 73
    13
 74
     0
 42
0.0000000001
 43
0.0000000001
 12
1.0
 22
0.0
 32
0.0
 13
1.0
 23
0.0
 33
0.0
 40
0.0
 40
0.0
 40
0.0
 40
0.0
 40
1.0
 40
1.0
 40
1.0
 40
2.0
 40
2.0
 40
2.0
 40
3.0
 40
3.0
 40
3.0
 40
4.0
 40
4.0
 40
4.0
 40
4.0
 10
44.10003042813827
 20
-137.6820753956671
 30
0.0
 10
42.32518015998726
 20
-137.6671297648033
 30
0.0
 10
41.35168416183551
 20
-136.9161432445564
 30
0.0
 10
41.36267001278279
 20
-135.6115318382122
 30
0.0
 10
41.37235769412437
 20
-134.4610829891261
 30
0.0
 10
42.33455377099756
 20
-133.6900494678897
 30
0.0
 10
44.06132816199266
 20
-133.6863306087433
 30
0.0
 10
45.81206361671752
 20
-133.7010731739711
 30
0.0
 10
46.76879604117337
 20
-134.5607874088364
 30
0.0
 10
46.75872543605988
 20
-135.7567099060965
 30
0.0
 10
46.74827480811102
 20
-136.9977615541972
 30
0.0
 10
45.7622300678577
 20
-137.6960724199138
 30
0.0
 10
44.10003042813827
 20
-137.6820753956671
 30
0.0
  0
SPLINE
  5
23C
330
1FD
100
AcDbEntity
  8
Capa 1
 62
   250
370
    35
100
AcDbSpline
210
0.0
220
0.0
230
1.0
 70
    11
 71
     3
 72
    17
 73
    13
 74
     0
 42
0.0000000001
 43
0.0000000001
 12
1.0
 22
0.0
 32
0.0
 13
1.0
 23
0.0
 33
0.0
 40
0.0
 40
0.0
 40
0.0
 40
0.0
 40
1.0
 40
1.0
 40
1.0
 40
2.0
 40
2.0
 40
2.0
 40
3.0
 40
3.0
 40
3.0
 40
4.0
 40
4.0
 40
4.0
 40
4.0
 10
44.04669050306346
 20
-134.48360296824
 30
0.0
 10
42.68937100451719
 20
-134.4721732738295
 30
0.0
 10
41.91441893729414
 20
-134.936781080472
 30
0.0
 10
41.90831681491057
 20
-135.6614312239224
 30
0.0
 10
41.90145174591972
 20
-136.476684166387
 30
0.0
 10
42.74150026065684
 20
-136.8734121472946
 30
0.0
 10
44.0743604484435
 20
-136.8846358751306
 30
0.0
 10
45.35933550671294
 20
-136.8954563726311
 30
0.0
 10
46.20579219275911
 20
-136.5311897412815
 30
0.0
 10
46.21273413659767
 20
-135.7068076194482
 30
0.0
 10
46.21860853537496
 20
-135.0092005167691
 30
0.0
 10
45.46808650585778
 20
-134.4955722370569
 30
0.0
 10
44.04669050306346
 20
-134.48360296824
 30
0.0
  0
POLYLINE
  5
23D
330
1FD
100
AcDbEntity
  8
Capa 1
 62
   250
370
    35
100
AcDb2dPolyline
 66
     1
 10
0.0
 20
0.0
 30
0.0
  0
VERTEX
  5
23E
330
23D
100
AcDbEntity
  8
Capa 1
 62
   250
370
    35
100
AcDbVertex
100
AcDb2dVertex
 10
36.43978078330689
 20
-130.7858757915235
 30
0.0
  0
VERTEX
  5
23F
330
23D
100
AcDbEntity
  8
Capa 1
 62
   250
370
    35
100
AcDbVertex
100
AcDb2dVertex
 10
36.43993308253469
 20
-130.767789681454
 30
0.0
  0
VERTEX
  5
240
330
23D
100
AcDbEntity
  8
Capa 1
 62
   250
370
    35
100
AcDbVertex
100
AcDb2dVertex
 10
35.9586780089331
 20
-129.7399907181586
 30
0.0
  0
VERTEX
  5
241
330
23D
100
AcDbEntity
  8
Capa 1
 62
   250
370
    35
100
AcDbVertex
100
AcDb2dVertex
 10
36.49807956480376
 20
-129.5905316742039
 30
0.0
  0
VERTEX
  5
242
330
23D
100
AcDbEntity
  8
Capa 1
 62
   250
370
    35
100
AcDbVertex
100
AcDb2dVertex
 10
37.0976967405642
 20
-130.8820251833593
 30
0.0
  0
VERTEX
  5
243
330
23D
100
AcDbEntity
  8
Capa 1
 62
   250
370
    35
100
AcDbVertex
100
AcDb2dVertex
 10
37.0919746410144
 20
-131.5615461759692
 30
0.0
  0
VERTEX
  5
244
330
23D
100
AcDbEntity
  8
Capa 1
 62
   250
370
    35
100
AcDbVertex
100
AcDb2dVertex
 10
31.87180652896289
 20
-131.5175882674909
 30
0.0
  0
VERTEX
  5
245
330
23D
100
AcDbEntity
  8
Capa 1
 62
   250
370
    35
100
AcDbVertex
100
AcDb2dVertex
 10
31.87829157511838
 20
-130.7474644758662
 30
0.0
  0
VERTEX
  5
246
330
23D
100
AcDbEntity
  8
Capa 1
 62
   250
370
    35
100
AcDbVertex
100
AcDb2dVertex
 10
36.43978078330689
 20
-130.7858757915235
 30
0.0
  0
SEQEND
  5
247
330
23D
100
AcDbEntity
  8
Capa 1
 62
   250
370
    35
  0
POLYLINE
  5
248
330
1FD
100
AcDbEntity
  8
Capa 1
 62
   250
370
    35
100
AcDb2dPolyline
 66
     1
 10
0.0
 20
0.0
 30
0.0
  0
VERTEX
  5
249
330
248
100
AcDbEntity
  8
Capa 1
 62
   250
370
    35
100
AcDbVertex
100
AcDb2dVertex
 10
36.40064133229431
 20
-135.4338338307112
 30
0.0
  0
VERTEX
  5
24A
330
248
100
AcDbEntity
  8
Capa 1
 62
   250
370
    35
100
AcDbVertex
100
AcDb2dVertex
 10
36.40079363152211
 20
-135.4157477206417
 30
0.0
  0
VERTEX
  5
24B
330
248
100
AcDbEntity
  8
Capa 1
 62
   250
370
    35
100
AcDbVertex
100
AcDb2dVertex
 10
35.91953855792052
 20
-134.387948757346
 30
0.0
  0
VERTEX
  5
24C
330
248
100
AcDbEntity
  8
Capa 1
 62
   250
370
    35
100
AcDbVertex
100
AcDb2dVertex
 10
36.45894011379117
 20
-134.2384897133916
 30
0.0
  0
VERTEX
  5
24D
330
248
100
AcDbEntity
  8
Capa 1
 62
   250
370
    35
100
AcDbVertex
100
AcDb2dVertex
 10
37.05855728955161
 20
-135.5299832225464
 30
0.0
  0
VERTEX
  5
24E
330
248
100
AcDbEntity
  8
Capa 1
 62
   250
370
    35
100
AcDbVertex
100
AcDb2dVertex
 10
37.05283519000181
 20
-136.2095042151569
 30
0.0
  0
VERTEX
  5
24F
330
248
100
AcDbEntity
  8
Capa 1
 62
   250
370
    35
100
AcDbVertex
100
AcDb2dVertex
 10
31.8326670779503
 20
-136.1655463066786
 30
0.0
  0
VERTEX
  5
250
330
248
100
AcDbEntity
  8
Capa 1
 62
   250
370
    35
100
AcDbVertex
100
AcDb2dVertex
 10
31.83915212410579
 20
-135.3954225150532
 30
0.0
  0
VERTEX
  5
251
330
248
100
AcDbEntity
  8
Capa 1
 62
   250
370
    35
100
AcDbVertex
100
AcDb2dVertex
 10
36.40064133229431
 20
-135.4338338307112
 30
0.0
  0
SEQEND
  5
252
330
248
100
AcDbEntity
  8
Capa 1
 62
   250
370
    35
  0
POLYLINE
  5
253
330
1FD
100
AcDbEntity
  8
Capa 1
 62
   250
370
    35
100
AcDb2dPolyline
 66
     1
 10
0.0
 20
0.0
 30
0.0
  0
VERTEX
  5
254
330
253
100
AcDbEntity
  8
Capa 1
 62
   250
370
    35
100
AcDbVertex
100
AcDb2dVertex
 10
26.91511847472025
 20
-130.7056706668874
 30
0.0
  0
VERTEX
  5
255
330
253
100
AcDbEntity
  8
Capa 1
 62
   250
370
    35
100
AcDbVertex
100
AcDb2dVertex
 10
26.91527077394805
 20
-130.6875845568179
 30
0.0
  0
VERTEX
  5
256
330
253
100
AcDbEntity
  8
Capa 1
 62
   250
370
    35
100
AcDbVertex
100
AcDb2dVertex
 10
26.43401570034517
 20
-129.6597855935222
 30
0.0
  0
VERTEX
  5
257
330
253
100
AcDbEntity
  8
Capa 1
 62
   250
370
    35
100
AcDbVertex
100
AcDb2dVertex
 10
26.97341725621711
 20
-129.5103265495678
 30
0.0
  0
VERTEX
  5
258
330
253
100
AcDbEntity
  8
Capa 1
 62
   250
370
    35
100
AcDbVertex
100
AcDb2dVertex
 10
27.57303443197723
 20
-130.8018200587226
 30
0.0
  0
VERTEX
  5
259
330
253
100
AcDbEntity
  8
Capa 1
 62
   250
370
    35
100
AcDbVertex
100
AcDb2dVertex
 10
27.56731233242775
 20
-131.4813410513331
 30
0.0
  0
VERTEX
  5
25A
330
253
100
AcDbEntity
  8
Capa 1
 62
   250
370
    35
100
AcDbVertex
100
AcDb2dVertex
 10
22.34714422037496
 20
-131.4373831428548
 30
0.0
  0
VERTEX
  5
25B
330
253
100
AcDbEntity
  8
Capa 1
 62
   250
370
    35
100
AcDbVertex
100
AcDb2dVertex
 10
22.35362926653173
 20
-130.6672593512297
 30
0.0
  0
VERTEX
  5
25C
330
253
100
AcDbEntity
  8
Capa 1
 62
   250
370
    35
100
AcDbVertex
100
AcDb2dVertex
 10
26.91511847472025
 20
-130.7056706668874
 30
0.0
  0
SEQEND
  5
25D
330
253
100
AcDbEntity
  8
Capa 1
 62
   250
370
    35
  0
SPLINE
  5
25E
330
1FD
100
AcDbEntity
  8
Capa 1
 62
   250
370
    35
100
AcDbSpline
210
0.0
220
0.0
230
1.0
 70
    11
 71
     3
 72
    47
 73
    43
 74
     0
 42
0.0000000001
 43
0.0000000001
 12
1.0
 22
0.0
 32
0.0
 13
1.0
 23
0.0
 33
0.0
 40
0.0
 40
0.0
 40
0.0
 40
0.0
 40
1.0
 40
1.0
 40
1.0
 40
2.0
 40
2.0
 40
2.0
 40
3.0
 40
3.0
 40
3.0
 40
4.0
 40
4.0
 40
4.0
 40
5.0
 40
5.0
 40
5.0
 40
6.0
 40
6.0
 40
6.0
 40
7.0
 40
7.0
 40
7.0
 40
8.0
 40
8.0
 40
8.0
 40
9.0
 40
9.0
 40
9.0
 40
10.0
 40
10.0
 40
10.0
 40
11.0
 40
11.0
 40
11.0
 40
12.0
 40
12.0
 40
12.0
 40
13.0
 40
13.0
 40
13.0
 40
14.0
 40
14.0
 40
14.0
 40
14.0
 10
22.32905977495488
 20
-133.5849795271044
 30
0.0
 10
22.32905977495488
 20
-133.5849795271044
 30
0.0
 10
22.76278191928788
 20
-133.588631807628
 30
0.0
 10
22.76278191928788
 20
-133.588631807628
 30
0.0
 10
22.76278191928788
 20
-133.588631807628
 30
0.0
 10
23.29562300462329
 20
-134.2182534859992
 30
0.0
 10
23.29562300462329
 20
-134.2182534859992
 30
0.0
 10
24.55174409524436
 20
-135.7326685052053
 30
0.0
 10
25.22054777695298
 20
-136.4178695337692
 30
0.0
 10
26.00764876226417
 20
-136.4334551070411
 30
0.0
 10
26.53783016030047
 20
-136.4379196501114
 30
0.0
 10
27.03014650922911
 20
-136.1521502763611
 30
0.0
 10
27.03754535075012
 20
-135.2735098243192
 30
0.0
 10
27.04204615554193
 20
-134.7390222096003
 30
0.0
 10
26.80463587946692
 20
-134.2931067375274
 30
0.0
 10
26.6064272705171
 20
-134.0196099947606
 30
0.0
 10
26.6064272705171
 20
-134.0196099947606
 30
0.0
 10
27.10636245968835
 20
-133.7700795627156
 30
0.0
 10
27.10636245968835
 20
-133.7700795627156
 30
0.0
 10
27.40815383846445
 20
-134.180362389056
 30
0.0
 10
27.62822831990028
 20
-134.7620457155793
 30
0.0
 10
27.62250767081906
 20
-135.4413944595226
 30
0.0
 10
27.61182641832738
 20
-136.709833645728
 30
0.0
 10
26.83634057857417
 20
-137.2378289619478
 30
0.0
 10
26.08912585970352
 20
-137.2315368281465
 30
0.0
 10
25.12556681466866
 20
-137.2234229054899
 30
0.0
 10
24.35329568639362
 20
-136.4286539837287
 30
0.0
 10
23.3033835182686
 20
-135.178673249487
 30
0.0
 10
23.3033835182686
 20
-135.178673249487
 30
0.0
 10
22.9218580330489
 20
-134.7043269950941
 30
0.0
 10
22.9218580330489
 20
-134.7043269950941
 30
0.0
 10
22.9218580330489
 20
-134.7043269950941
 30
0.0
 10
22.90601115565378
 20
-134.7041935519615
 30
0.0
 10
22.90601115565378
 20
-134.7041935519615
 30
0.0
 10
22.90601115565378
 20
-134.7041935519615
 30
0.0
 10
22.88373630577316
 20
-137.3494163361224
 30
0.0
 10
22.88373630577316
 20
-137.3494163361224
 30
0.0
 10
22.88373630577316
 20
-137.3494163361224
 30
0.0
 10
22.29740184218701
 20
-137.344478940212
 30
0.0
 10
22.29740184218701
 20
-137.344478940212
 30
0.0
 10
22.29740184218701
 20
-137.344478940212
 30
0.0
 10
22.32905977495488
 20
-133.5849795271044
 30
0.0
 10
22.32905977495488
 20
-133.5849795271044
 30
0.0
  0
POLYLINE
  5
25F
330
1FD
100
AcDbEntity
  8
Capa 1
 62
   250
370
    35
100
AcDb2dPolyline
 66
     1
 10
0.0
 20
0.0
 30
0.0
  0
VERTEX
  5
260
330
25F
100
AcDbEntity
  8
Capa 1
 62
   250
370
    35
100
AcDbVertex
100
AcDb2dVertex
 10
17.47234142710581
 20
-130.6244583071951
 30
0.0
  0
VERTEX
  5
261
330
25F
100
AcDbEntity
  8
Capa 1
 62
   250
370
    35
100
AcDbVertex
100
AcDb2dVertex
 10
17.47297264619117
 20
-130.6063825738777
 30
0.0
  0
VERTEX
  5
262
330
25F
100
AcDbEntity
  8
Capa 1
 62
   250
370
    35
100
AcDbVertex
100
AcDb2dVertex
 10
17.01910549835567
 20
-129.566199048275
 30
0.0
  0
VERTEX
  5
263
330
25F
100
AcDbEntity
  8
Capa 1
 62
   250
370
    35
100
AcDbVertex
100
AcDb2dVertex
 10
17.56227598166361
 20
-129.4310773610466
 30
0.0
  0
VERTEX
  5
264
330
25F
100
AcDbEntity
  8
Capa 1
 62
   250
370
    35
100
AcDbVertex
100
AcDb2dVertex
 10
18.12748031249966
 20
-130.7379975216002
 30
0.0
  0
VERTEX
  5
265
330
25F
100
AcDbEntity
  8
Capa 1
 62
   250
370
    35
100
AcDbVertex
100
AcDb2dVertex
 10
18.10376450967148
 20
-131.4171286448135
 30
0.0
  0
VERTEX
  5
266
330
25F
100
AcDbEntity
  8
Capa 1
 62
   250
370
    35
100
AcDbVertex
100
AcDb2dVertex
 10
12.88659142472438
 20
-131.2349407815642
 30
0.0
  0
VERTEX
  5
267
330
25F
100
AcDbEntity
  8
Capa 1
 62
   250
370
    35
100
AcDbVertex
100
AcDb2dVertex
 10
12.91346933459692
 20
-130.4652588419227
 30
0.0
  0
VERTEX
  5
268
330
25F
100
AcDbEntity
  8
Capa 1
 62
   250
370
    35
100
AcDbVertex
100
AcDb2dVertex
 10
17.47234142710581
 20
-130.6244583071951
 30
0.0
  0
SEQEND
  5
269
330
25F
100
AcDbEntity
  8
Capa 1
 62
   250
370
    35
  0
SPLINE
  5
26A
330
1FD
100
AcDbEntity
  8
Capa 1
 62
   250
370
    35
100
AcDbSpline
210
0.0
220
0.0
230
1.0
 70
    11
 71
     3
 72
    59
 73
    55
 74
     0
 42
0.0000000001
 43
0.0000000001
 12
1.0
 22
0.0
 32
0.0
 13
1.0
 23
0.0
 33
0.0
 40
0.0
 40
0.0
 40
0.0
 40
0.0
 40
1.0
 40
1.0
 40
1.0
 40
2.0
 40
2.0
 40
2.0
 40
3.0
 40
3.0
 40
3.0
 40
4.0
 40
4.0
 40
4.0
 40
5.0
 40
5.0
 40
5.0
 40
6.0
 40
6.0
 40
6.0
 40
7.0
 40
7.0
 40
7.0
 40
8.0
 40
8.0
 40
8.0
 40
9.0
 40
9.0
 40
9.0
 40
10.0
 40
10.0
 40
10.0
 40
11.0
 40
11.0
 40
11.0
 40
12.0
 40
12.0
 40
12.0
 40
13.0
 40
13.0
 40
13.0
 40
14.0
 40
14.0
 40
14.0
 40
15.0
 40
15.0
 40
15.0
 40
16.0
 40
16.0
 40
16.0
 40
17.0
 40
17.0
 40
17.0
 40
18.0
 40
18.0
 40
18.0
 40
18.0
 10
13.70272752533396
 20
-133.6492103319016
 30
0.0
 10
13.57232265299035
 20
-133.8746352796883
 30
0.0
 10
13.36705677694178
 20
-134.3983024683794
 30
0.0
 10
13.3624022224539
 20
-134.951048441836
 30
0.0
 10
13.35378208617521
 20
-135.9747222717679
 30
0.0
 10
13.92917830060581
 20
-136.2966998417258
 30
0.0
 10
14.36297731978684
 20
-136.2912229428814
 30
0.0
 10
15.09407753877598
 20
-136.2882495532436
 30
0.0
 10
15.41348003759058
 20
-135.5481502520641
 30
0.0
 10
15.41996508374734
 20
-134.7780264604388
 30
0.0
 10
15.41996508374734
 20
-134.7780264604388
 30
0.0
 10
15.42370294193187
 20
-134.3341416447338
 30
0.0
 10
15.42370294193187
 20
-134.3341416447338
 30
0.0
 10
15.42370294193187
 20
-134.3341416447338
 30
0.0
 10
15.95353984263374
 20
-134.3386032868668
 30
0.0
 10
15.95353984263374
 20
-134.3386032868668
 30
0.0
 10
15.95353984263374
 20
-134.3386032868668
 30
0.0
 10
15.94980198444921
 20
-134.7824881025718
 30
0.0
 10
15.94980198444921
 20
-134.7824881025718
 30
0.0
 10
15.94491970635377
 20
-135.3622771167987
 30
0.0
 10
16.20400365680688
 20
-136.0982901616215
 30
0.0
 10
16.82237637251642
 20
-136.1034973447354
 30
0.0
 10
17.23990714211986
 20
-136.1070132811887
 30
0.0
 10
17.6117248482985
 20
-135.8112716485537
 30
0.0
 10
17.61790384553139
 20
-135.0774923257347
 30
0.0
 10
17.62187087779176
 20
-134.6063922205921
 30
0.0
 10
17.44103503944778
 20
-134.1518233229288
 30
0.0
 10
17.28263582209047
 20
-133.8967491990007
 30
0.0
 10
17.28263582209047
 20
-133.8967491990007
 30
0.0
 10
17.79837946221806
 20
-133.6928287592011
 30
0.0
 10
17.79837946221806
 20
-133.6928287592011
 30
0.0
 10
17.99662797004798
 20
-134.0025006230441
 30
0.0
 10
18.19243533883082
 20
-134.6020669940013
 30
0.0
 10
18.18709471258498
 20
-135.236286587104
 30
0.0
 10
18.17733015639537
 20
-136.3958646155585
 30
0.0
 10
17.56245694944027
 20
-136.9160825893626
 30
0.0
 10
16.92789285900247
 20
-136.9107390621789
 30
0.0
 10
16.38978802226925
 20
-136.9062077975418
 30
0.0
 10
15.93500285093764
 20
-136.5399412553228
 30
0.0
 10
15.70822477509302
 20
-135.8133300780094
 30
0.0
 10
15.70822477509302
 20
-135.8133300780094
 30
0.0
 10
15.69237789769918
 20
-135.8131966348766
 30
0.0
 10
15.69237789769918
 20
-135.8131966348766
 30
0.0
 10
15.55777826948764
 20
-136.5367647285765
 30
0.0
 10
15.07086734536079
 20
-137.1216245103752
 30
0.0
 10
14.33984400121841
 20
-137.1154687206443
 30
0.0
 10
13.50478246201151
 20
-137.1084368477378
 30
0.0
 10
12.78028261243644
 20
-136.3685046361257
 30
0.0
 10
12.79218370921882
 20
-134.9552043206968
 30
0.0
 10
12.79775205907094
 20
-134.2939416868237
 30
0.0
 10
12.98728490854165
 20
-133.7157075751864
 30
0.0
 10
13.15818524423701
 20
-133.4272316265923
 30
0.0
 10
13.15818524423701
 20
-133.4272316265923
 30
0.0
 10
13.70272752533396
 20
-133.6492103319016
 30
0.0
 10
13.70272752533396
 20
-133.6492103319016
 30
0.0
  0
POLYLINE
  5
26B
330
1FD
100
AcDbEntity
  8
Capa 1
 62
   250
370
    35
100
AcDb2dPolyline
 66
     1
 10
0.0
 20
0.0
 30
0.0
  0
VERTEX
  5
26C
330
26B
100
AcDbEntity
  8
Capa 1
 62
   250
370
    35
100
AcDbVertex
100
AcDb2dVertex
 10
5.820513181689727
 20
-130.5280375506817
 30
0.0
  0
VERTEX
  5
26D
330
26B
100
AcDbEntity
  8
Capa 1
 62
   250
370
    35
100
AcDbVertex
100
AcDb2dVertex
 10
5.820665480917529
 20
-130.5099514406125
 30
0.0
  0
VERTEX
  5
26E
330
26B
100
AcDbEntity
  8
Capa 1
 62
   250
370
    35
100
AcDbVertex
100
AcDb2dVertex
 10
5.339410407314651
 20
-129.4821524773171
 30
0.0
  0
VERTEX
  5
26F
330
26B
100
AcDbEntity
  8
Capa 1
 62
   250
370
    35
100
AcDbVertex
100
AcDb2dVertex
 10
5.878811963185308
 20
-129.332693433362
 30
0.0
  0
VERTEX
  5
270
330
26B
100
AcDbEntity
  8
Capa 1
 62
   250
370
    35
100
AcDbVertex
100
AcDb2dVertex
 10
6.47842913894671
 20
-130.6241869425175
 30
0.0
  0
VERTEX
  5
271
330
26B
100
AcDbEntity
  8
Capa 1
 62
   250
370
    35
100
AcDbVertex
100
AcDb2dVertex
 10
6.472707039397227
 20
-131.3037079351273
 30
0.0
  0
VERTEX
  5
272
330
26B
100
AcDbEntity
  8
Capa 1
 62
   250
370
    35
100
AcDbVertex
100
AcDb2dVertex
 10
1.252538927344443
 20
-131.259750026649
 30
0.0
  0
VERTEX
  5
273
330
26B
100
AcDbEntity
  8
Capa 1
 62
   250
370
    35
100
AcDbVertex
100
AcDb2dVertex
 10
1.259023973501209
 20
-130.4896262350243
 30
0.0
  0
VERTEX
  5
274
330
26B
100
AcDbEntity
  8
Capa 1
 62
   250
370
    35
100
AcDbVertex
100
AcDb2dVertex
 10
5.820513181689727
 20
-130.5280375506817
 30
0.0
  0
SEQEND
  5
275
330
26B
100
AcDbEntity
  8
Capa 1
 62
   250
370
    35
  0
POLYLINE
  5
276
330
1FD
100
AcDbEntity
  8
Capa 1
 62
   250
370
    35
100
AcDb2dPolyline
 66
     1
 10
0.0
 20
0.0
 30
0.0
  0
VERTEX
  5
277
330
276
100
AcDbEntity
  8
Capa 1
 62
   250
370
    35
100
AcDbVertex
100
AcDb2dVertex
 10
1.213705525255734
 20
-135.8713635970305
 30
0.0
  0
VERTEX
  5
278
330
276
100
AcDbEntity
  8
Capa 1
 62
   250
370
    35
100
AcDbVertex
100
AcDb2dVertex
 10
2.63510152805006
 20
-135.8833328658474
 30
0.0
  0
VERTEX
  5
279
330
276
100
AcDbEntity
  8
Capa 1
 62
   250
370
    35
100
AcDbVertex
100
AcDb2dVertex
 10
2.658139324537966
 20
-133.1475072826716
 30
0.0
  0
VERTEX
  5
27A
330
276
100
AcDbEntity
  8
Capa 1
 62
   250
370
    35
100
AcDbVertex
100
AcDb2dVertex
 10
3.123899720993064
 20
-133.1514293503982
 30
0.0
  0
VERTEX
  5
27B
330
276
100
AcDbEntity
  8
Capa 1
 62
   250
370
    35
100
AcDbVertex
100
AcDb2dVertex
 10
6.434788883142318
 20
-135.8066325964244
 30
0.0
  0
VERTEX
  5
27C
330
276
100
AcDbEntity
  8
Capa 1
 62
   250
370
    35
100
AcDbVertex
100
AcDb2dVertex
 10
6.42754234084911
 20
-136.6671869383967
 30
0.0
  0
VERTEX
  5
27D
330
276
100
AcDbEntity
  8
Capa 1
 62
   250
370
    35
100
AcDbVertex
100
AcDb2dVertex
 10
3.183066443052132
 20
-136.6398659074428
 30
0.0
  0
VERTEX
  5
27E
330
276
100
AcDbEntity
  8
Capa 1
 62
   250
370
    35
100
AcDbVertex
100
AcDb2dVertex
 10
3.17612304874497
 20
-137.4644202779433
 30
0.0
  0
VERTEX
  5
27F
330
276
100
AcDbEntity
  8
Capa 1
 62
   250
370
    35
100
AcDbVertex
100
AcDb2dVertex
 10
2.621826837282208
 20
-137.4597526692359
 30
0.0
  0
VERTEX
  5
280
330
276
100
AcDbEntity
  8
Capa 1
 62
   250
370
    35
100
AcDbVertex
100
AcDb2dVertex
 10
2.62877023158937
 20
-136.6351982987357
 30
0.0
  0
VERTEX
  5
281
330
276
100
AcDbEntity
  8
Capa 1
 62
   250
370
    35
100
AcDbVertex
100
AcDb2dVertex
 10
1.207374228796327
 20
-136.6232290299184
 30
0.0
  0
VERTEX
  5
282
330
276
100
AcDbEntity
  8
Capa 1
 62
   250
370
    35
100
AcDbVertex
100
AcDb2dVertex
 10
1.213705525255734
 20
-135.8713635970305
 30
0.0
  0
SEQEND
  5
283
330
276
100
AcDbEntity
  8
Capa 1
 62
   250
370
    35
  0
SPLINE
  5
284
330
1FD
100
AcDbEntity
  8
Capa 1
 62
   250
370
    35
100
AcDbSpline
210
0.0
220
0.0
230
1.0
 70
    11
 71
     3
 72
    26
 73
    22
 74
     0
 42
0.0000000001
 43
0.0000000001
 12
1.0
 22
0.0
 32
0.0
 13
1.0
 23
0.0
 33
0.0
 40
0.0
 40
0.0
 40
0.0
 40
0.0
 40
1.0
 40
1.0
 40
1.0
 40
2.0
 40
2.0
 40
2.0
 40
3.0
 40
3.0
 40
3.0
 40
4.0
 40
4.0
 40
4.0
 40
5.0
 40
5.0
 40
5.0
 40
6.0
 40
6.0
 40
6.0
 40
7.0
 40
7.0
 40
7.0
 40
7.0
 10
3.189397739511539
 20
-135.8880004745542
 30
0.0
 10
3.189397739511539
 20
-135.8880004745542
 30
0.0
 10
4.932209755540438
 20
-135.902676318215
 30
0.0
 10
4.932209755540438
 20
-135.902676318215
 30
0.0
 10
5.20505164458765
 20
-135.9049738608478
 30
0.0
 10
5.478161156122534
 20
-135.9164034837871
 30
0.0
 10
5.751195243277654
 20
-135.9367900374272
 30
0.0
 10
5.751195243277654
 20
-135.9367900374272
 30
0.0
 10
5.751424417353493
 20
-135.909574747989
 30
0.0
 10
5.751424417353493
 20
-135.909574747989
 30
0.0
 10
5.447725672060467
 20
-135.7257989191858
 30
0.0
 10
5.223988756819884
 20
-135.5790434776656
 30
0.0
 10
4.984558713880253
 20
-135.4138962342763
 30
0.0
 10
4.984558713880253
 20
-135.4138962342763
 30
0.0
 10
3.221492768783481
 20
-133.9586043462754
 30
0.0
 10
3.221492768783481
 20
-133.9586043462754
 30
0.0
 10
3.221492768783481
 20
-133.9586043462754
 30
0.0
 10
3.205645891388359
 20
-133.9584709031422
 30
0.0
 10
3.205645891388359
 20
-133.9584709031422
 30
0.0
 10
3.205645891388359
 20
-133.9584709031422
 30
0.0
 10
3.189397739511539
 20
-135.8880004745542
 30
0.0
 10
3.189397739511539
 20
-135.8880004745542
 30
0.0
  0
POLYLINE
  5
285
330
1FD
100
AcDbEntity
  8
Capa 1
 62
   250
370
    35
100
AcDb2dPolyline
 66
     1
 10
0.0
 20
0.0
 30
0.0
  0
VERTEX
  5
286
330
285
100
AcDbEntity
  8
Capa 1
 62
   250
370
    35
100
AcDbVertex
100
AcDb2dVertex
 10
-3.7041491268982
 20
-130.4478324260456
 30
0.0
  0
VERTEX
  5
287
330
285
100
AcDbEntity
  8
Capa 1
 62
   250
370
    35
100
AcDbVertex
100
AcDb2dVertex
 10
-3.703996827670399
 20
-130.4297463159761
 30
0.0
  0
VERTEX
  5
288
330
285
100
AcDbEntity
  8
Capa 1
 62
   250
370
    35
100
AcDbVertex
100
AcDb2dVertex
 10
-4.185251901271992
 20
-129.4019473526804
 30
0.0
  0
VERTEX
  5
289
330
285
100
AcDbEntity
  8
Capa 1
 62
   250
370
    35
100
AcDbVertex
100
AcDb2dVertex
 10
-3.645850345401335
 20
-129.252488308726
 30
0.0
  0
VERTEX
  5
28A
330
285
100
AcDbEntity
  8
Capa 1
 62
   250
370
    35
100
AcDbVertex
100
AcDb2dVertex
 10
-3.046233169641217
 20
-130.5439818178811
 30
0.0
  0
VERTEX
  5
28B
330
285
100
AcDbEntity
  8
Capa 1
 62
   250
370
    35
100
AcDbVertex
100
AcDb2dVertex
 10
-3.0519552691907
 20
-131.2235028104913
 30
0.0
  0
VERTEX
  5
28C
330
285
100
AcDbEntity
  8
Capa 1
 62
   250
370
    35
100
AcDbVertex
100
AcDb2dVertex
 10
-8.272123381242201
 20
-131.179544902013
 30
0.0
  0
VERTEX
  5
28D
330
285
100
AcDbEntity
  8
Capa 1
 62
   250
370
    35
100
AcDbVertex
100
AcDb2dVertex
 10
-8.265638335086718
 20
-130.4094211103876
 30
0.0
  0
VERTEX
  5
28E
330
285
100
AcDbEntity
  8
Capa 1
 62
   250
370
    35
100
AcDbVertex
100
AcDb2dVertex
 10
-3.7041491268982
 20
-130.4478324260456
 30
0.0
  0
SEQEND
  5
28F
330
285
100
AcDbEntity
  8
Capa 1
 62
   250
370
    35
  0
SPLINE
  5
290
330
1FD
100
AcDbEntity
  8
Capa 1
 62
   250
370
    35
100
AcDbSpline
210
0.0
220
0.0
230
1.0
 70
    11
 71
     3
 72
    50
 73
    46
 74
     0
 42
0.0000000001
 43
0.0000000001
 12
1.0
 22
0.0
 32
0.0
 13
1.0
 23
0.0
 33
0.0
 40
0.0
 40
0.0
 40
0.0
 40
0.0
 40
1.0
 40
1.0
 40
1.0
 40
2.0
 40
2.0
 40
2.0
 40
3.0
 40
3.0
 40
3.0
 40
4.0
 40
4.0
 40
4.0
 40
5.0
 40
5.0
 40
5.0
 40
6.0
 40
6.0
 40
6.0
 40
7.0
 40
7.0
 40
7.0
 40
8.0
 40
8.0
 40
8.0
 40
9.0
 40
9.0
 40
9.0
 40
10.0
 40
10.0
 40
10.0
 40
11.0
 40
11.0
 40
11.0
 40
12.0
 40
12.0
 40
12.0
 40
13.0
 40
13.0
 40
13.0
 40
14.0
 40
14.0
 40
14.0
 40
15.0
 40
15.0
 40
15.0
 40
15.0
 10
-3.693895883917004
 20
-136.8810013827662
 30
0.0
 10
-3.693895883917004
 20
-136.8810013827662
 30
0.0
 10
-3.674977418917263
 20
-134.6343620148025
 30
0.0
 10
-3.674977418917263
 20
-134.6343620148025
 30
0.0
 10
-3.674977418917263
 20
-134.6343620148025
 30
0.0
 10
-5.014198176218348
 20
-134.3965616669256
 30
0.0
 10
-5.014198176218348
 20
-134.3965616669256
 30
0.0
 10
-4.999495718734149
 20
-134.5325993085804
 30
0.0
 10
-4.984371889067487
 20
-134.6595106718044
 30
0.0
 10
-4.986202380735088
 20
-134.8768884899725
 30
0.0
 10
-4.990017113768933
 20
-135.3299024850461
 30
0.0
 10
-5.08202316447345
 20
-135.7821738400767
 30
0.0
 10
-5.277993458307898
 20
-136.1429605110417
 30
0.0
 10
-5.514763813948414
 20
-136.6029704029526
 30
0.0
 10
-5.967536921329612
 20
-136.9796819854248
 30
0.0
 10
-6.626215825192594
 20
-136.9741353926038
 30
0.0
 10
-7.646272433110454
 20
-136.9655457161698
 30
0.0
 10
-8.401284641595627
 20
-136.044138119326
 30
0.0
 10
-8.390527964722894
 20
-134.7667420024188
 30
0.0
 10
-8.385111914098571
 20
-134.1235654786152
 30
0.0
 10
-8.219998476508655
 20
-133.5813005214797
 30
0.0
 10
-8.057098454359538
 20
-133.301887030688
 30
0.0
 10
-8.057098454359538
 20
-133.301887030688
 30
0.0
 10
-7.520671810066122
 20
-133.5057100034237
 30
0.0
 10
-7.520671810066122
 20
-133.5057100034237
 30
0.0
 10
-7.651228981637534
 20
-133.7492210612799
 30
0.0
 10
-7.815807196227733
 20
-134.2279262601709
 30
0.0
 10
-7.820309451487813
 20
-134.7625861235579
 30
0.0
 10
-7.826640747947221
 20
-135.5144515564459
 30
0.0
 10
-7.398334654239832
 20
-136.1612803607737
 30
0.0
 10
-6.699694059556545
 20
-136.1671634623639
 30
0.0
 10
-6.025091403450402
 20
-136.1637143189487
 30
0.0
 10
-5.53886800154979
 20
-135.660500405464
 30
0.0
 10
-5.528951146133661
 20
-134.48283626694
 30
0.0
 10
-5.526128533782938
 20
-134.1476403603194
 30
0.0
 10
-5.555954820933799
 20
-133.8846913554406
 30
0.0
 10
-5.578237692223107
 20
-133.666938222968
 30
0.0
 10
-5.578237692223107
 20
-133.666938222968
 30
0.0
 10
-3.075912662918512
 20
-134.068534048753
 30
0.0
 10
-3.075912662918512
 20
-134.068534048753
 30
0.0
 10
-3.075912662918512
 20
-134.068534048753
 30
0.0
 10
-3.099637981633937
 20
-136.8860055002431
 30
0.0
 10
-3.099637981633937
 20
-136.8860055002431
 30
0.0
 10
-3.099637981633937
 20
-136.8860055002431
 30
0.0
 10
-3.693895883917004
 20
-136.8810013827662
 30
0.0
 10
-3.693895883917004
 20
-136.8810013827662
 30
0.0
  0
ENDBLK
  5
200
330
1FD
100
AcDbEntity
  8
0
100
AcDbBlockEnd
  0
BLOCK
  5
293
330
291
100
AcDbEntity
  8
0
100
AcDbBlockBegin
  2
block 22
 70
     0
 10
0.0
 20
0.0
 30
0.0
  3
block 22
  1

  0
SPLINE
  5
295
330
291
100
AcDbEntity
  8
Capa 1
 62
   250
370
    35
100
AcDbSpline
210
0.0
220
0.0
230
1.0
 70
    11
 71
     3
 72
    41
 73
    37
 74
     0
 42
0.0000000001
 43
0.0000000001
 12
1.0
 22
0.0
 32
0.0
 13
1.0
 23
0.0
 33
0.0
 40
0.0
 40
0.0
 40
0.0
 40
0.0
 40
1.0
 40
1.0
 40
1.0
 40
2.0
 40
2.0
 40
2.0
 40
3.0
 40
3.0
 40
3.0
 40
4.0
 40
4.0
 40
4.0
 40
5.0
 40
5.0
 40
5.0
 40
6.0
 40
6.0
 40
6.0
 40
7.0
 40
7.0
 40
7.0
 40
8.0
 40
8.0
 40
8.0
 40
9.0
 40
9.0
 40
9.0
 40
10.0
 40
10.0
 40
10.0
 40
11.0
 40
11.0
 40
11.0
 40
12.0
 40
12.0
 40
12.0
 40
12.0
 10
42.98648889675095
 20
-124.4784122421322
 30
0.0
 10
42.98648889675095
 20
-124.4784122421322
 30
0.0
 10
42.98648889675095
 20
-119.4671763492878
 30
0.0
 10
42.98648889675095
 20
-119.4671763492878
 30
0.0
 10
42.98648889675095
 20
-119.4671763492878
 30
0.0
 10
38.5848626500215
 20
-112.6689694282443
 30
0.0
 10
38.5848626500215
 20
-112.6689694282443
 30
0.0
 10
38.5848626500215
 20
-112.6689694282443
 30
0.0
 10
40.63056034916285
 20
-112.6689694282443
 30
0.0
 10
40.63056034916285
 20
-112.6689694282443
 30
0.0
 10
40.63056034916285
 20
-112.6689694282443
 30
0.0
 10
42.59392026620673
 20
-115.9278575025164
 30
0.0
 10
42.59392026620673
 20
-115.9278575025164
 30
0.0
 10
43.13118290713145
 20
-116.8215152713902
 30
0.0
 10
43.54442211058716
 20
-117.5398176800648
 30
0.0
 10
43.97833188695438
 20
-118.3633677558137
 30
0.0
 10
43.97833188695438
 20
-118.3633677558137
 30
0.0
 10
44.01967303277738
 20
-118.3633677558137
 30
0.0
 10
44.01967303277738
 20
-118.3633677558137
 30
0.0
 10
44.41241391809586
 20
-117.5925276409891
 30
0.0
 10
44.88766484028607
 20
-116.8215152713902
 30
0.0
 10
45.42492748121079
 20
-115.9278575025164
 30
0.0
 10
45.42492748121079
 20
-115.9278575025164
 30
0.0
 10
47.4294562893034
 20
-112.6689694282443
 30
0.0
 10
47.4294562893034
 20
-112.6689694282443
 30
0.0
 10
47.4294562893034
 20
-112.6689694282443
 30
0.0
 10
49.47532624321902
 20
-112.6689694282443
 30
0.0
 10
49.47532624321902
 20
-112.6689694282443
 30
0.0
 10
49.47532624321902
 20
-112.6689694282443
 30
0.0
 10
44.80498254864008
 20
-119.4497786170873
 30
0.0
 10
44.80498254864008
 20
-119.4497786170873
 30
0.0
 10
44.80498254864008
 20
-119.4497786170873
 30
0.0
 10
44.80498254864008
 20
-124.4784122421322
 30
0.0
 10
44.80498254864008
 20
-124.4784122421322
 30
0.0
 10
44.80498254864008
 20
-124.4784122421322
 30
0.0
 10
42.98648889675095
 20
-124.4784122421322
 30
0.0
 10
42.98648889675095
 20
-124.4784122421322
 30
0.0
  0
POLYLINE
  5
296
330
291
100
AcDbEntity
  8
Capa 1
 62
   250
370
    35
100
AcDb2dPolyline
 66
     1
 10
0.0
 20
0.0
 30
0.0
  0
VERTEX
  5
297
330
296
100
AcDbEntity
  8
Capa 1
 62
   250
370
    35
100
AcDbVertex
100
AcDb2dVertex
 10
57.70118073335006
 20
-120.7639102899358
 30
0.0
  0
VERTEX
  5
298
330
296
100
AcDbEntity
  8
Capa 1
 62
   250
370
    35
100
AcDbVertex
100
AcDb2dVertex
 10
56.25458513909365
 20
-124.4784122421322
 30
0.0
  0
VERTEX
  5
299
330
296
100
AcDbEntity
  8
Capa 1
 62
   250
370
    35
100
AcDbVertex
100
AcDb2dVertex
 10
54.39475034138152
 20
-124.4784122421322
 30
0.0
  0
VERTEX
  5
29A
330
296
100
AcDbEntity
  8
Capa 1
 62
   250
370
    35
100
AcDbVertex
100
AcDb2dVertex
 10
59.12710575469497
 20
-112.6689694282443
 30
0.0
  0
VERTEX
  5
29B
330
296
100
AcDbEntity
  8
Capa 1
 62
   250
370
    35
100
AcDbVertex
100
AcDb2dVertex
 10
61.29699914607957
 20
-112.6689694282443
 30
0.0
  0
VERTEX
  5
29C
330
296
100
AcDbEntity
  8
Capa 1
 62
   250
370
    35
100
AcDbVertex
100
AcDb2dVertex
 10
66.05002513230451
 20
-124.4784122421322
 30
0.0
  0
VERTEX
  5
29D
330
296
100
AcDbEntity
  8
Capa 1
 62
   250
370
    35
100
AcDbVertex
100
AcDb2dVertex
 10
64.12817861585789
 20
-124.4784122421322
 30
0.0
  0
VERTEX
  5
29E
330
296
100
AcDbEntity
  8
Capa 1
 62
   250
370
    35
100
AcDbVertex
100
AcDb2dVertex
 10
62.64024187577849
 20
-120.7639102899358
 30
0.0
  0
VERTEX
  5
29F
330
296
100
AcDbEntity
  8
Capa 1
 62
   250
370
    35
100
AcDbVertex
100
AcDb2dVertex
 10
57.70118073335006
 20
-120.7639102899358
 30
0.0
  0
SEQEND
  5
2A0
330
296
100
AcDbEntity
  8
Capa 1
 62
   250
370
    35
  0
SPLINE
  5
2A1
330
291
100
AcDbEntity
  8
Capa 1
 62
   250
370
    35
100
AcDbSpline
210
0.0
220
0.0
230
1.0
 70
    11
 71
     3
 72
    23
 73
    19
 74
     0
 42
0.0000000001
 43
0.0000000001
 12
1.0
 22
0.0
 32
0.0
 13
1.0
 23
0.0
 33
0.0
 40
0.0
 40
0.0
 40
0.0
 40
0.0
 40
1.0
 40
1.0
 40
1.0
 40
2.0
 40
2.0
 40
2.0
 40
3.0
 40
3.0
 40
3.0
 40
4.0
 40
4.0
 40
4.0
 40
5.0
 40
5.0
 40
5.0
 40
6.0
 40
6.0
 40
6.0
 40
6.0
 10
62.2681715633715
 20
-119.5724240163622
 30
0.0
 10
62.2681715633715
 20
-119.5724240163622
 30
0.0
 10
60.90425826076109
 20
-116.1731483010661
 30
0.0
 10
60.90425826076109
 20
-116.1731483010661
 30
0.0
 10
60.59437192186287
 20
-115.4023081862415
 30
0.0
 10
60.38766619274788
 20
-114.7014035097674
 30
0.0
 10
60.18096046363289
 20
-114.0180688202681
 30
0.0
 10
60.18096046363289
 20
-114.0180688202681
 30
0.0
 10
60.13979157258415
 20
-114.0180688202681
 30
0.0
 10
60.13979157258415
 20
-114.0180688202681
 30
0.0
 10
59.93308584346916
 20
-114.7189734967422
 30
0.0
 10
59.70570954144267
 20
-115.4372759054168
 30
0.0
 10
59.43716434836745
 20
-116.1557505688656
 30
0.0
 10
59.43716434836745
 20
-116.1557505688656
 30
0.0
 10
58.07325104575704
 20
-119.5724240163622
 30
0.0
 10
58.07325104575704
 20
-119.5724240163622
 30
0.0
 10
58.07325104575704
 20
-119.5724240163622
 30
0.0
 10
62.2681715633715
 20
-119.5724240163622
 30
0.0
 10
62.2681715633715
 20
-119.5724240163622
 30
0.0
  0
SPLINE
  5
2A2
330
291
100
AcDbEntity
  8
Capa 1
 62
   250
370
    35
100
AcDbSpline
210
0.0
220
0.0
230
1.0
 70
    11
 71
     3
 72
    59
 73
    55
 74
     0
 42
0.0000000001
 43
0.0000000001
 12
1.0
 22
0.0
 32
0.0
 13
1.0
 23
0.0
 33
0.0
 40
0.0
 40
0.0
 40
0.0
 40
0.0
 40
1.0
 40
1.0
 40
1.0
 40
2.0
 40
2.0
 40
2.0
 40
3.0
 40
3.0
 40
3.0
 40
4.0
 40
4.0
 40
4.0
 40
5.0
 40
5.0
 40
5.0
 40
6.0
 40
6.0
 40
6.0
 40
7.0
 40
7.0
 40
7.0
 40
8.0
 40
8.0
 40
8.0
 40
9.0
 40
9.0
 40
9.0
 40
10.0
 40
10.0
 40
10.0
 40
11.0
 40
11.0
 40
11.0
 40
12.0
 40
12.0
 40
12.0
 40
13.0
 40
13.0
 40
13.0
 40
14.0
 40
14.0
 40
14.0
 40
15.0
 40
15.0
 40
15.0
 40
16.0
 40
16.0
 40
16.0
 40
17.0
 40
17.0
 40
17.0
 40
18.0
 40
18.0
 40
18.0
 40
18.0
 10
68.88241038550267
 20
-115.9979651956412
 30
0.0
 10
68.88241038550267
 20
-115.9979651956412
 30
0.0
 10
70.30833540684758
 20
-117.8202484525641
 30
0.0
 10
70.30833540684758
 20
-117.8202484525641
 30
0.0
 10
70.68040571925455
 20
-118.2932600626889
 30
0.0
 10
70.99029205815278
 20
-118.7313039536384
 30
0.0
 10
71.32102122473677
 20
-119.2044878185375
 30
0.0
 10
71.32102122473677
 20
-119.2044878185375
 30
0.0
 10
71.38303294347126
 20
-119.2044878185375
 30
0.0
 10
71.38303294347126
 20
-119.2044878185375
 30
0.0
 10
71.71358985528099
 20
-118.6963362344631
 30
0.0
 10
72.04431902186496
 20
-118.2582923435136
 30
0.0
 10
72.37487593367469
 20
-117.8026784655893
 30
0.0
 10
72.37487593367469
 20
-117.8026784655893
 30
0.0
 10
73.7801303821081
 20
-115.9979651956412
 30
0.0
 10
73.7801303821081
 20
-115.9979651956412
 30
0.0
 10
73.7801303821081
 20
-115.9979651956412
 30
0.0
 10
75.74331804437772
 20
-115.9979651956412
 30
0.0
 10
75.74331804437772
 20
-115.9979651956412
 30
0.0
 10
75.74331804437772
 20
-115.9979651956412
 30
0.0
 10
72.33353478785169
 20
-120.097973332637
 30
0.0
 10
72.33353478785169
 20
-120.097973332637
 30
0.0
 10
72.33353478785169
 20
-120.097973332637
 30
0.0
 10
75.84667090893521
 20
-124.4784122421322
 30
0.0
 10
75.84667090893521
 20
-124.4784122421322
 30
0.0
 10
75.84667090893521
 20
-124.4784122421322
 30
0.0
 10
73.7801303821081
 20
-124.4784122421322
 30
0.0
 10
73.7801303821081
 20
-124.4784122421322
 30
0.0
 10
73.7801303821081
 20
-124.4784122421322
 30
0.0
 10
72.31286421494019
 20
-122.5686235598839
 30
0.0
 10
72.31286421494019
 20
-122.5686235598839
 30
0.0
 10
71.92029558439597
 20
-122.0780419627844
 30
0.0
 10
71.589566417812
 20
-121.6048580978853
 30
0.0
 10
71.23833893309077
 20
-121.0967065138109
 30
0.0
 10
71.23833893309077
 20
-121.0967065138109
 30
0.0
 10
71.19699778726778
 20
-121.0967065138109
 30
0.0
 10
71.19699778726778
 20
-121.0967065138109
 30
0.0
 10
70.86626862068378
 20
-121.6048580978853
 30
0.0
 10
70.51504113596256
 20
-122.0604719758096
 30
0.0
 10
70.14314307832984
 20
-122.5686235598839
 30
0.0
 10
70.14314307832984
 20
-122.5686235598839
 30
0.0
 10
68.69654748407343
 20
-124.4784122421322
 30
0.0
 10
68.69654748407343
 20
-124.4784122421322
 30
0.0
 10
68.69654748407343
 20
-124.4784122421322
 30
0.0
 10
66.69201867598082
 20
-124.4784122421322
 30
0.0
 10
66.69201867598082
 20
-124.4784122421322
 30
0.0
 10
66.69201867598082
 20
-124.4784122421322
 30
0.0
 10
70.24632368811308
 20
-120.1505110387871
 30
0.0
 10
70.24632368811308
 20
-120.1505110387871
 30
0.0
 10
70.24632368811308
 20
-120.1505110387871
 30
0.0
 10
66.85738325927281
 20
-115.9979651956412
 30
0.0
 10
66.85738325927281
 20
-115.9979651956412
 30
0.0
 10
66.85738325927281
 20
-115.9979651956412
 30
0.0
 10
68.88241038550267
 20
-115.9979651956412
 30
0.0
 10
68.88241038550267
 20
-115.9979651956412
 30
0.0
  0
SPLINE
  5
2A3
330
291
100
AcDbEntity
  8
Capa 1
 62
   250
370
    35
100
AcDbSpline
210
0.0
220
0.0
230
1.0
 70
    11
 71
     3
 72
    17
 73
    13
 74
     0
 42
0.0000000001
 43
0.0000000001
 12
1.0
 22
0.0
 32
0.0
 13
1.0
 23
0.0
 33
0.0
 40
0.0
 40
0.0
 40
0.0
 40
0.0
 40
1.0
 40
1.0
 40
1.0
 40
2.0
 40
2.0
 40
2.0
 40
3.0
 40
3.0
 40
3.0
 40
4.0
 40
4.0
 40
4.0
 40
4.0
 10
79.62955800651379
 20
-113.6149926484939
 30
0.0
 10
79.65022857942529
 20
-114.140714219543
 30
0.0
 10
79.19547597537232
 20
-114.5611881235178
 30
0.0
 10
78.4721781782441
 20
-114.5611881235178
 30
0.0
 10
77.8315626727619
 20
-114.5611881235178
 30
0.0
 10
77.37698232348319
 20
-114.140714219543
 30
0.0
 10
77.37698232348319
 20
-113.6149926484939
 30
0.0
 10
77.37698232348319
 20
-113.0718733452442
 30
0.0
 10
77.8522332456734
 20
-112.6513994412695
 30
0.0
 10
78.51351932406712
 20
-112.6513994412695
 30
0.0
 10
79.19547597537232
 20
-112.6513994412695
 30
0.0
 10
79.62955800651379
 20
-113.0718733452442
 30
0.0
 10
79.62955800651379
 20
-113.6149926484939
 30
0.0
  0
POLYLINE
  5
2A4
330
291
100
AcDbEntity
  8
Capa 1
 62
   250
370
    35
100
AcDb2dPolyline
 66
     1
 10
0.0
 20
0.0
 30
0.0
  0
VERTEX
  5
2A5
330
2A4
100
AcDbEntity
  8
Capa 1
 62
   250
370
    35
100
AcDbVertex
100
AcDb2dVertex
 10
77.60435862550968
 20
-124.4784122421322
 30
0.0
  0
VERTEX
  5
2A6
330
2A4
100
AcDbEntity
  8
Capa 1
 62
   250
370
    35
100
AcDbVertex
100
AcDb2dVertex
 10
77.60435862550968
 20
-115.9979651956412
 30
0.0
  0
VERTEX
  5
2A7
330
2A4
100
AcDbEntity
  8
Capa 1
 62
   250
370
    35
100
AcDbVertex
100
AcDb2dVertex
 10
79.4228522773988
 20
-115.9979651956412
 30
0.0
  0
VERTEX
  5
2A8
330
2A4
100
AcDbEntity
  8
Capa 1
 62
   250
370
    35
100
AcDbVertex
100
AcDb2dVertex
 10
79.4228522773988
 20
-124.4784122421322
 30
0.0
  0
VERTEX
  5
2A9
330
2A4
100
AcDbEntity
  8
Capa 1
 62
   250
370
    35
100
AcDbVertex
100
AcDb2dVertex
 10
77.60435862550968
 20
-124.4784122421322
 30
0.0
  0
SEQEND
  5
2AA
330
2A4
100
AcDbEntity
  8
Capa 1
 62
   250
370
    35
  0
SPLINE
  5
2AB
330
291
100
AcDbEntity
  8
Capa 1
 62
   250
370
    35
100
AcDbSpline
210
0.0
220
0.0
230
1.0
 70
    11
 71
     3
 72
    47
 73
    43
 74
     0
 42
0.0000000001
 43
0.0000000001
 12
1.0
 22
0.0
 32
0.0
 13
1.0
 23
0.0
 33
0.0
 40
0.0
 40
0.0
 40
0.0
 40
0.0
 40
1.0
 40
1.0
 40
1.0
 40
2.0
 40
2.0
 40
2.0
 40
3.0
 40
3.0
 40
3.0
 40
4.0
 40
4.0
 40
4.0
 40
5.0
 40
5.0
 40
5.0
 40
6.0
 40
6.0
 40
6.0
 40
7.0
 40
7.0
 40
7.0
 40
8.0
 40
8.0
 40
8.0
 40
9.0
 40
9.0
 40
9.0
 40
10.0
 40
10.0
 40
10.0
 40
11.0
 40
11.0
 40
11.0
 40
12.0
 40
12.0
 40
12.0
 40
13.0
 40
13.0
 40
13.0
 40
14.0
 40
14.0
 40
14.0
 40
14.0
 10
82.19236453799115
 20
-122.9014197837591
 30
0.0
 10
82.72962717891586
 20
-123.1994205432332
 30
0.0
 10
83.68030127807056
 20
-123.5146467801335
 30
0.0
 10
84.58946197662799
 20
-123.5146467801335
 30
0.0
 10
85.9120341334154
 20
-123.5146467801335
 30
0.0
 10
86.53215132076038
 20
-122.9539574899091
 30
0.0
 10
86.53215132076038
 20
-122.2532250682093
 30
0.0
 10
86.53215132076038
 20
-121.51735267256
 30
0.0
 10
86.0153869979729
 20
-121.1142765007857
 30
0.0
 10
84.67214426827398
 20
-120.693802596811
 30
0.0
 10
82.87432118929635
 20
-120.1505110387871
 30
0.0
 10
82.02699995469916
 20
-119.3095632308376
 30
0.0
 10
82.02699995469916
 20
-118.2932600626889
 30
0.0
 10
82.02699995469916
 20
-116.9265906836903
 30
0.0
 10
83.32890153857507
 20
-115.8052121032415
 30
0.0
 10
85.47812435704819
 20
-115.8052121032415
 30
0.0
 10
86.49081017493737
 20
-115.8052121032415
 30
0.0
 10
87.37930030058331
 20
-116.0505029017912
 30
0.0
 10
87.93723351441952
 20
-116.3309336742906
 30
0.0
 10
87.93723351441952
 20
-116.3309336742906
 30
0.0
 10
87.4826531651408
 20
-117.4523122547394
 30
0.0
 10
87.4826531651408
 20
-117.4523122547394
 30
0.0
 10
87.09008453459658
 20
-117.2419891753649
 30
0.0
 10
86.36678673746837
 20
-116.9617306576398
 30
0.0
 10
85.43678321122519
 20
-116.9617306576398
 30
0.0
 10
84.36225792937576
 20
-116.9617306576398
 30
0.0
 10
83.76298356971655
 20
-117.4872799739147
 30
0.0
 10
83.76298356971655
 20
-118.1180769572639
 30
0.0
 10
83.76298356971655
 20
-118.818981633738
 30
0.0
 10
84.36225792937576
 20
-119.1343801254126
 30
0.0
 10
85.66415951325168
 20
-119.5548540293874
 30
0.0
 10
87.39997087349481
 20
-120.1155433196118
 30
0.0
 10
88.288633253915
 20
-120.8514157152612
 30
0.0
 10
88.288633253915
 20
-122.1130096819597
 30
0.0
 10
88.288633253915
 20
-123.6023244602332
 30
0.0
 10
86.9247199513046
 20
-124.6535953475571
 30
0.0
 10
84.54829308557925
 20
-124.6535953475571
 30
0.0
 10
83.45292497604406
 20
-124.6535953475571
 30
0.0
 10
82.44041141292914
 20
-124.4258745359821
 30
0.0
 10
81.73778418871244
 20
-124.075336070358
 30
0.0
 10
81.73778418871244
 20
-124.075336070358
 30
0.0
 10
82.19236453799115
 20
-122.9014197837591
 30
0.0
 10
82.19236453799115
 20
-122.9014197837591
 30
0.0
  0
ENDBLK
  5
294
330
291
100
AcDbEntity
  8
0
100
AcDbBlockEnd
  0
BLOCK
  5
2AE
330
2AC
100
AcDbEntity
  8
0
100
AcDbBlockBegin
  2
block 23
 70
     0
 10
0.0
 20
0.0
 30
0.0
  3
block 23
  1

  0
SPLINE
  5
2B0
330
2AC
100
AcDbEntity
  8
Capa 1
 62
   250
370
    35
100
AcDbSpline
210
0.0
220
0.0
230
1.0
 70
    11
 71
     3
 72
    59
 73
    55
 74
     0
 42
0.0000000001
 43
0.0000000001
 12
1.0
 22
0.0
 32
0.0
 13
1.0
 23
0.0
 33
0.0
 40
0.0
 40
0.0
 40
0.0
 40
0.0
 40
1.0
 40
1.0
 40
1.0
 40
2.0
 40
2.0
 40
2.0
 40
3.0
 40
3.0
 40
3.0
 40
4.0
 40
4.0
 40
4.0
 40
5.0
 40
5.0
 40
5.0
 40
6.0
 40
6.0
 40
6.0
 40
7.0
 40
7.0
 40
7.0
 40
8.0
 40
8.0
 40
8.0
 40
9.0
 40
9.0
 40
9.0
 40
10.0
 40
10.0
 40
10.0
 40
11.0
 40
11.0
 40
11.0
 40
12.0
 40
12.0
 40
12.0
 40
13.0
 40
13.0
 40
13.0
 40
14.0
 40
14.0
 40
14.0
 40
15.0
 40
15.0
 40
15.0
 40
16.0
 40
16.0
 40
16.0
 40
17.0
 40
17.0
 40
17.0
 40
18.0
 40
18.0
 40
18.0
 40
18.0
 10
155.7913519575799
 20
-193.9995279462918
 30
0.0
 10
155.7913519575799
 20
-193.9995279462918
 30
0.0
 10
158.4020453163023
 20
-192.2222031854514
 30
0.0
 10
158.4020453163023
 20
-192.2222031854514
 30
0.0
 10
159.4007784974762
 20
-191.4990776430975
 30
0.0
 10
160.0491454678002
 20
-191.0443250390445
 30
0.0
 10
160.7323079025253
 20
-190.610243007903
 30
0.0
 10
160.7323079025253
 20
-190.610243007903
 30
0.0
 10
160.7323079025253
 20
-190.56890186208
 30
0.0
 10
160.7323079025253
 20
-190.56890186208
 30
0.0
 10
160.0491454678002
 20
-190.17650548631
 30
0.0
 10
159.418348484451
 20
-189.7837646009916
 30
0.0
 10
158.3844753293275
 20
-189.0606390586376
 30
0.0
 10
158.3844753293275
 20
-189.0606390586376
 30
0.0
 10
155.7913519575799
 20
-187.3866671623547
 30
0.0
 10
155.7913519575799
 20
-187.3866671623547
 30
0.0
 10
155.7913519575799
 20
-187.3866671623547
 30
0.0
 10
155.7913519575799
 20
-185.3199543807534
 30
0.0
 10
155.7913519575799
 20
-185.3199543807534
 30
0.0
 10
155.7913519575799
 20
-185.3199543807534
 30
0.0
 10
161.7661810576487
 20
-189.5770588718766
 30
0.0
 10
161.7661810576487
 20
-189.5770588718766
 30
0.0
 10
161.7661810576487
 20
-189.5770588718766
 30
0.0
 10
167.6007947714679
 20
-185.4853189640453
 30
0.0
 10
167.6007947714679
 20
-185.4853189640453
 30
0.0
 10
167.6007947714679
 20
-185.4853189640453
 30
0.0
 10
167.6007947714679
 20
-187.5727023185582
 30
0.0
 10
167.6007947714679
 20
-187.5727023185582
 30
0.0
 10
167.6007947714679
 20
-187.5727023185582
 30
0.0
 10
164.8326605490696
 20
-189.4116942885846
 30
0.0
 10
164.8326605490696
 20
-189.4116942885846
 30
0.0
 10
164.0616481794707
 20
-189.9284586113721
 30
0.0
 10
163.4656466605225
 20
-190.3211994966906
 30
0.0
 10
162.8351941867218
 20
-190.692925299549
 30
0.0
 10
162.8351941867218
 20
-190.692925299549
 30
0.0
 10
162.8351941867218
 20
-190.7549370182835
 30
0.0
 10
162.8351941867218
 20
-190.7549370182835
 30
0.0
 10
163.5359266084216
 20
-191.147677903602
 30
0.0
 10
164.0788736568969
 20
-191.4990776430975
 30
0.0
 10
164.8326605490696
 20
-192.0154974563364
 30
0.0
 10
164.8326605490696
 20
-192.0154974563364
 30
0.0
 10
167.6007947714679
 20
-193.9168456546458
 30
0.0
 10
167.6007947714679
 20
-193.9168456546458
 30
0.0
 10
167.6007947714679
 20
-193.9168456546458
 30
0.0
 10
167.6007947714679
 20
-195.9832139266987
 30
0.0
 10
167.6007947714679
 20
-195.9832139266987
 30
0.0
 10
167.6007947714679
 20
-195.9832139266987
 30
0.0
 10
161.8540309925226
 20
-191.7471245180355
 30
0.0
 10
161.8540309925226
 20
-191.7471245180355
 30
0.0
 10
161.8540309925226
 20
-191.7471245180355
 30
0.0
 10
155.7913519575799
 20
-196.0865667912561
 30
0.0
 10
155.7913519575799
 20
-196.0865667912561
 30
0.0
 10
155.7913519575799
 20
-196.0865667912561
 30
0.0
 10
155.7913519575799
 20
-193.9995279462918
 30
0.0
 10
155.7913519575799
 20
-193.9995279462918
 30
0.0
  0
POLYLINE
  5
2B1
330
2AC
100
AcDbEntity
  8
Capa 1
 62
   250
370
    35
100
AcDb2dPolyline
 66
     1
 10
0.0
 20
0.0
 30
0.0
  0
VERTEX
  5
2B2
330
2B1
100
AcDbEntity
  8
Capa 1
 62
   250
370
    35
100
AcDbVertex
100
AcDb2dVertex
 10
159.5058539097763
 20
-204.8088595408117
 30
0.0
  0
VERTEX
  5
2B3
330
2B1
100
AcDbEntity
  8
Capa 1
 62
   250
370
    35
100
AcDbVertex
100
AcDb2dVertex
 10
155.7913519575799
 20
-203.3622639465553
 30
0.0
  0
VERTEX
  5
2B4
330
2B1
100
AcDbEntity
  8
Capa 1
 62
   250
370
    35
100
AcDbVertex
100
AcDb2dVertex
 10
155.7913519575799
 20
-201.5026014036174
 30
0.0
  0
VERTEX
  5
2B5
330
2B1
100
AcDbEntity
  8
Capa 1
 62
   250
370
    35
100
AcDbVertex
100
AcDb2dVertex
 10
167.6007947714679
 20
-206.2347845621566
 30
0.0
  0
VERTEX
  5
2B6
330
2B1
100
AcDbEntity
  8
Capa 1
 62
   250
370
    35
100
AcDbVertex
100
AcDb2dVertex
 10
167.6007947714679
 20
-208.4048502083155
 30
0.0
  0
VERTEX
  5
2B7
330
2B1
100
AcDbEntity
  8
Capa 1
 62
   250
370
    35
100
AcDbVertex
100
AcDb2dVertex
 10
155.7913519575799
 20
-213.1577039397662
 30
0.0
  0
VERTEX
  5
2B8
330
2B1
100
AcDbEntity
  8
Capa 1
 62
   250
370
    35
100
AcDbVertex
100
AcDb2dVertex
 10
155.7913519575799
 20
-211.2360296780938
 30
0.0
  0
VERTEX
  5
2B9
330
2B1
100
AcDbEntity
  8
Capa 1
 62
   250
370
    35
100
AcDbVertex
100
AcDb2dVertex
 10
159.5058539097763
 20
-209.7480929380144
 30
0.0
  0
VERTEX
  5
2BA
330
2B1
100
AcDbEntity
  8
Capa 1
 62
   250
370
    35
100
AcDbVertex
100
AcDb2dVertex
 10
159.5058539097763
 20
-204.8088595408117
 30
0.0
  0
SEQEND
  5
2BB
330
2B1
100
AcDbEntity
  8
Capa 1
 62
   250
370
    35
  0
SPLINE
  5
2BC
330
2AC
100
AcDbEntity
  8
Capa 1
 62
   250
370
    35
100
AcDbSpline
210
0.0
220
0.0
230
1.0
 70
    11
 71
     3
 72
    23
 73
    19
 74
     0
 42
0.0000000001
 43
0.0000000001
 12
1.0
 22
0.0
 32
0.0
 13
1.0
 23
0.0
 33
0.0
 40
0.0
 40
0.0
 40
0.0
 40
0.0
 40
1.0
 40
1.0
 40
1.0
 40
2.0
 40
2.0
 40
2.0
 40
3.0
 40
3.0
 40
3.0
 40
4.0
 40
4.0
 40
4.0
 40
5.0
 40
5.0
 40
5.0
 40
6.0
 40
6.0
 40
6.0
 40
6.0
 10
160.6971679285757
 20
-209.3760226256074
 30
0.0
 10
160.6971679285757
 20
-209.3760226256074
 30
0.0
 10
164.0967881534202
 20
-208.012109322997
 30
0.0
 10
164.0967881534202
 20
-208.012109322997
 30
0.0
 10
164.8674560134706
 20
-207.7020507293245
 30
0.0
 10
165.568532944719
 20
-207.4953450002095
 30
0.0
 10
166.251695379444
 20
-207.2886392710945
 30
0.0
 10
166.251695379444
 20
-207.2886392710945
 30
0.0
 10
166.251695379444
 20
-207.24764263482
 30
0.0
 10
166.251695379444
 20
-207.24764263482
 30
0.0
 10
165.5506184481957
 20
-207.0409369057051
 30
0.0
 10
164.8326605490696
 20
-206.8135606036786
 30
0.0
 10
164.1140136308465
 20
-206.5448431558291
 30
0.0
 10
164.1140136308465
 20
-206.5448431558291
 30
0.0
 10
160.6971679285757
 20
-205.1809298532187
 30
0.0
 10
160.6971679285757
 20
-205.1809298532187
 30
0.0
 10
160.6971679285757
 20
-205.1809298532187
 30
0.0
 10
160.6971679285757
 20
-209.3760226256074
 30
0.0
 10
160.6971679285757
 20
-209.3760226256074
 30
0.0
  0
SPLINE
  5
2BD
330
2AC
100
AcDbEntity
  8
Capa 1
 62
   250
370
    35
100
AcDbSpline
210
0.0
220
0.0
230
1.0
 70
    11
 71
     3
 72
    59
 73
    55
 74
     0
 42
0.0000000001
 43
0.0000000001
 12
1.0
 22
0.0
 32
0.0
 13
1.0
 23
0.0
 33
0.0
 40
0.0
 40
0.0
 40
0.0
 40
0.0
 40
1.0
 40
1.0
 40
1.0
 40
2.0
 40
2.0
 40
2.0
 40
3.0
 40
3.0
 40
3.0
 40
4.0
 40
4.0
 40
4.0
 40
5.0
 40
5.0
 40
5.0
 40
6.0
 40
6.0
 40
6.0
 40
7.0
 40
7.0
 40
7.0
 40
8.0
 40
8.0
 40
8.0
 40
9.0
 40
9.0
 40
9.0
 40
10.0
 40
10.0
 40
10.0
 40
11.0
 40
11.0
 40
11.0
 40
12.0
 40
12.0
 40
12.0
 40
13.0
 40
13.0
 40
13.0
 40
14.0
 40
14.0
 40
14.0
 40
15.0
 40
15.0
 40
15.0
 40
16.0
 40
16.0
 40
16.0
 40
17.0
 40
17.0
 40
17.0
 40
18.0
 40
18.0
 40
18.0
 40
18.0
 10
164.2717990040709
 20
-215.9902614477386
 30
0.0
 10
164.2717990040709
 20
-215.9902614477386
 30
0.0
 10
162.4493434923738
 20
-217.4161864690835
 30
0.0
 10
162.4493434923738
 20
-217.4161864690835
 30
0.0
 10
161.9766763917975
 20
-217.7882567814904
 30
0.0
 10
161.5384602460737
 20
-218.0979708656144
 30
0.0
 10
161.0651000575536
 20
-218.4287000321984
 30
0.0
 10
161.0651000575536
 20
-218.4287000321984
 30
0.0
 10
161.0651000575536
 20
-218.4907117509329
 30
0.0
 10
161.0651000575536
 20
-218.4907117509329
 30
0.0
 10
161.5736002200233
 20
-218.8214409175169
 30
0.0
 10
162.0114718561985
 20
-219.1521700841008
 30
0.0
 10
162.4672579888971
 20
-219.4825547411363
 30
0.0
 10
162.4672579888971
 20
-219.4825547411363
 30
0.0
 10
164.2717990040709
 20
-220.8878091895697
 30
0.0
 10
164.2717990040709
 20
-220.8878091895697
 30
0.0
 10
164.2717990040709
 20
-220.8878091895697
 30
0.0
 10
164.2717990040709
 20
-222.8511691066136
 30
0.0
 10
164.2717990040709
 20
-222.8511691066136
 30
0.0
 10
164.2717990040709
 20
-222.8511691066136
 30
0.0
 10
160.1717908670751
 20
-219.4412135953133
 30
0.0
 10
160.1717908670751
 20
-219.4412135953133
 30
0.0
 10
160.1717908670751
 20
-219.4412135953133
 30
0.0
 10
155.7913519575799
 20
-222.9545219711711
 30
0.0
 10
155.7913519575799
 20
-222.9545219711711
 30
0.0
 10
155.7913519575799
 20
-222.9545219711711
 30
0.0
 10
155.7913519575799
 20
-220.8878091895697
 30
0.0
 10
155.7913519575799
 20
-220.8878091895697
 30
0.0
 10
155.7913519575799
 20
-220.8878091895697
 30
0.0
 10
157.7013128946025
 20
-219.4205430224018
 30
0.0
 10
157.7013128946025
 20
-219.4205430224018
 30
0.0
 10
158.191894491702
 20
-219.0281466466319
 30
0.0
 10
158.6649061018268
 20
-218.6974174800479
 30
0.0
 10
159.1730576859012
 20
-218.3460177405524
 30
0.0
 10
159.1730576859012
 20
-218.3460177405524
 30
0.0
 10
159.1730576859012
 20
-218.3046765947294
 30
0.0
 10
159.1730576859012
 20
-218.3046765947294
 30
0.0
 10
158.6649061018268
 20
-217.9739474281454
 30
0.0
 10
158.2091199691283
 20
-217.6228921981985
 30
0.0
 10
157.7013128946025
 20
-217.2508218857915
 30
0.0
 10
157.7013128946025
 20
-217.2508218857915
 30
0.0
 10
155.7913519575799
 20
-215.8042262915351
 30
0.0
 10
155.7913519575799
 20
-215.8042262915351
 30
0.0
 10
155.7913519575799
 20
-215.8042262915351
 30
0.0
 10
155.7913519575799
 20
-213.7998697382167
 30
0.0
 10
155.7913519575799
 20
-213.7998697382167
 30
0.0
 10
155.7913519575799
 20
-213.7998697382167
 30
0.0
 10
160.1190809061508
 20
-217.354174750349
 30
0.0
 10
160.1190809061508
 20
-217.354174750349
 30
0.0
 10
160.1190809061508
 20
-217.354174750349
 30
0.0
 10
164.2717990040709
 20
-213.9652343215087
 30
0.0
 10
164.2717990040709
 20
-213.9652343215087
 30
0.0
 10
164.2717990040709
 20
-213.9652343215087
 30
0.0
 10
164.2717990040709
 20
-215.9902614477386
 30
0.0
 10
164.2717990040709
 20
-215.9902614477386
 30
0.0
  0
POLYLINE
  5
2BE
330
2AC
100
AcDbEntity
  8
Capa 1
 62
   250
370
    35
100
AcDb2dPolyline
 66
     1
 10
0.0
 20
0.0
 30
0.0
  0
VERTEX
  5
2BF
330
2BE
100
AcDbEntity
  8
Capa 1
 62
   250
370
    35
100
AcDbVertex
100
AcDb2dVertex
 10
155.7913519575799
 20
-224.711865178197
 30
0.0
  0
VERTEX
  5
2C0
330
2BE
100
AcDbEntity
  8
Capa 1
 62
   250
370
    35
100
AcDbVertex
100
AcDb2dVertex
 10
164.2717990040709
 20
-224.711865178197
 30
0.0
  0
VERTEX
  5
2C1
330
2BE
100
AcDbEntity
  8
Capa 1
 62
   250
370
    35
100
AcDbVertex
100
AcDb2dVertex
 10
164.2717990040709
 20
-226.5305310848604
 30
0.0
  0
VERTEX
  5
2C2
330
2BE
100
AcDbEntity
  8
Capa 1
 62
   250
370
    35
100
AcDbVertex
100
AcDb2dVertex
 10
155.7913519575799
 20
-226.5305310848604
 30
0.0
  0
VERTEX
  5
2C3
330
2BE
100
AcDbEntity
  8
Capa 1
 62
   250
370
    35
100
AcDbVertex
100
AcDb2dVertex
 10
155.7913519575799
 20
-224.711865178197
 30
0.0
  0
SEQEND
  5
2C4
330
2BE
100
AcDbEntity
  8
Capa 1
 62
   250
370
    35
  0
SPLINE
  5
2C5
330
2AC
100
AcDbEntity
  8
Capa 1
 62
   250
370
    35
100
AcDbSpline
210
0.0
220
0.0
230
1.0
 70
    11
 71
     3
 72
    17
 73
    13
 74
     0
 42
0.0000000001
 43
0.0000000001
 12
1.0
 22
0.0
 32
0.0
 13
1.0
 23
0.0
 33
0.0
 40
0.0
 40
0.0
 40
0.0
 40
0.0
 40
1.0
 40
1.0
 40
1.0
 40
2.0
 40
2.0
 40
2.0
 40
3.0
 40
3.0
 40
3.0
 40
4.0
 40
4.0
 40
4.0
 40
4.0
 10
166.6547715512183
 20
-226.7372368139754
 30
0.0
 10
166.1290499801691
 20
-226.7579073868869
 30
0.0
 10
165.7084038214201
 20
-226.303154782834
 30
0.0
 10
165.7084038214201
 20
-225.5796847309315
 30
0.0
 10
165.7084038214201
 20
-224.9392414802235
 30
0.0
 10
166.1290499801691
 20
-224.4844888761706
 30
0.0
 10
166.6547715512183
 20
-224.4844888761706
 30
0.0
 10
167.1980631092422
 20
-224.4844888761706
 30
0.0
 10
167.6183647584427
 20
-224.959912053135
 30
0.0
 10
167.6183647584427
 20
-225.6210258767545
 30
0.0
 10
167.6183647584427
 20
-226.303154782834
 30
0.0
 10
167.1980631092422
 20
-226.7372368139754
 30
0.0
 10
166.6547715512183
 20
-226.7372368139754
 30
0.0
  0
SPLINE
  5
2C6
330
2AC
100
AcDbEntity
  8
Capa 1
 62
   250
370
    35
100
AcDbSpline
210
0.0
220
0.0
230
1.0
 70
    11
 71
     3
 72
    47
 73
    43
 74
     0
 42
0.0000000001
 43
0.0000000001
 12
1.0
 22
0.0
 32
0.0
 13
1.0
 23
0.0
 33
0.0
 40
0.0
 40
0.0
 40
0.0
 40
0.0
 40
1.0
 40
1.0
 40
1.0
 40
2.0
 40
2.0
 40
2.0
 40
3.0
 40
3.0
 40
3.0
 40
4.0
 40
4.0
 40
4.0
 40
5.0
 40
5.0
 40
5.0
 40
6.0
 40
6.0
 40
6.0
 40
7.0
 40
7.0
 40
7.0
 40
8.0
 40
8.0
 40
8.0
 40
9.0
 40
9.0
 40
9.0
 40
10.0
 40
10.0
 40
10.0
 40
11.0
 40
11.0
 40
11.0
 40
12.0
 40
12.0
 40
12.0
 40
13.0
 40
13.0
 40
13.0
 40
14.0
 40
14.0
 40
14.0
 40
14.0
 10
157.3685166707273
 20
-229.3000433454528
 30
0.0
 10
157.0701714017047
 20
-229.8371337316032
 30
0.0
 10
156.7552896743528
 20
-230.7879800855322
 30
0.0
 10
156.7552896743528
 20
-231.6971407840896
 30
0.0
 10
156.7552896743528
 20
-233.019712940877
 30
0.0
 10
157.315806709803
 20
-233.639830128222
 30
0.0
 10
158.0165391315028
 20
-233.639830128222
 30
0.0
 10
158.7524115271522
 20
-233.639830128222
 30
0.0
 10
159.1554876989264
 20
-233.1230658054345
 30
0.0
 10
159.5761338576754
 20
-231.7798230757356
 30
0.0
 10
160.1190809061508
 20
-229.9818277419837
 30
0.0
 10
160.9603732236488
 20
-229.1346787621608
 30
0.0
 10
161.9766763917975
 20
-229.1346787621608
 30
0.0
 10
163.3430012612476
 20
-229.1346787621608
 30
0.0
 10
164.4647243512449
 20
-230.4365803460367
 30
0.0
 10
164.4647243512449
 20
-232.5856309097356
 30
0.0
 10
164.4647243512449
 20
-233.598488982399
 30
0.0
 10
164.2194335526951
 20
-234.4869791080449
 30
0.0
 10
163.9390027801958
 20
-235.0447400671069
 30
0.0
 10
163.9390027801958
 20
-235.0447400671069
 30
0.0
 10
162.8172796901985
 20
-234.5903319726024
 30
0.0
 10
162.8172796901985
 20
-234.5903319726024
 30
0.0
 10
163.0277750243472
 20
-234.1975910872839
 30
0.0
 10
163.307861287298
 20
-233.47446554493
 30
0.0
 10
163.307861287298
 20
-232.5442897639126
 30
0.0
 10
163.307861287298
 20
-231.4697644820631
 30
0.0
 10
162.7824842257974
 20
-230.8706623771782
 30
0.0
 10
162.1516872424482
 20
-230.8706623771782
 30
0.0
 10
161.4509548207484
 20
-230.8706623771782
 30
0.0
 10
161.1353840742995
 20
-231.4697644820631
 30
0.0
 10
160.715082425099
 20
-232.771666065939
 30
0.0
 10
160.1542208801004
 20
-234.5076496809564
 30
0.0
 10
159.418348484451
 20
-235.3961398066024
 30
0.0
 10
158.1567545177525
 20
-235.3961398066024
 30
0.0
 10
156.667439739479
 20
-235.3961398066024
 30
0.0
 10
155.6163411069293
 20
-234.032226503992
 30
0.0
 10
155.6163411069293
 20
-231.6557996382666
 30
0.0
 10
155.6163411069293
 20
-230.5606037835057
 30
0.0
 10
155.8437174089557
 20
-229.5480902203908
 30
0.0
 10
156.1944281293542
 20
-228.8452907413998
 30
0.0
 10
156.1944281293542
 20
-228.8452907413998
 30
0.0
 10
157.3685166707273
 20
-229.3000433454528
 30
0.0
 10
157.3685166707273
 20
-229.3000433454528
 30
0.0
  0
ENDBLK
  5
2AF
330
2AC
100
AcDbEntity
  8
0
100
AcDbBlockEnd
  0
BLOCK
  5
2C9
330
2C7
100
AcDbEntity
  8
0
100
AcDbBlockBegin
  2
block 24
 70
     0
 10
0.0
 20
0.0
 30
0.0
  3
block 24
  1

  0
SPLINE
  5
2CB
330
2C7
100
AcDbEntity
  8
Capa 1
 62
     7
370
    35
100
AcDbSpline
210
0.0
220
0.0
230
1.0
 70
    11
 71
     3
 72
    47
 73
    43
 74
     0
 42
0.0000000001
 43
0.0000000001
 12
1.0
 22
0.0
 32
0.0
 13
1.0
 23
0.0
 33
0.0
 40
0.0
 40
0.0
 40
0.0
 40
0.0
 40
1.0
 40
1.0
 40
1.0
 40
2.0
 40
2.0
 40
2.0
 40
3.0
 40
3.0
 40
3.0
 40
4.0
 40
4.0
 40
4.0
 40
5.0
 40
5.0
 40
5.0
 40
6.0
 40
6.0
 40
6.0
 40
7.0
 40
7.0
 40
7.0
 40
8.0
 40
8.0
 40
8.0
 40
9.0
 40
9.0
 40
9.0
 40
10.0
 40
10.0
 40
10.0
 40
11.0
 40
11.0
 40
11.0
 40
12.0
 40
12.0
 40
12.0
 40
13.0
 40
13.0
 40
13.0
 40
14.0
 40
14.0
 40
14.0
 40
14.0
 10
-23.25749511137313
 20
-323.835875027548
 30
0.0
 10
-21.9519761772377
 20
-324.5579670412563
 30
0.0
 10
-20.04373778795782
 20
-325.1598252225295
 30
0.0
 10
-18.0350748652829
 20
-325.1598252225295
 30
0.0
 10
-15.05575628963884
 20
-325.1598252225295
 30
0.0
 10
-13.3149495409421
 20
-323.7456135258345
 30
0.0
 10
-13.3149495409421
 20
-321.6999158266931
 30
0.0
 10
-13.3149495409421
 20
-319.8044242907087
 30
0.0
 10
-14.52004394168249
 20
-318.7212862701461
 30
0.0
 10
-17.56654187928892
 20
-317.6684650898537
 30
0.0
 10
-21.24883218869821
 20
-316.4950655675776
 30
0.0
 10
-23.5253512853513
 20
-314.7800970350203
 30
0.0
 10
-23.5253512853513
 20
-311.922045820457
 30
0.0
 10
-23.5253512853513
 20
-308.7632377700314
 30
0.0
 10
-20.61286756212109
 20
-306.4164387254792
 30
0.0
 10
-16.22743326417231
 20
-306.4164387254792
 30
0.0
 10
-13.91749674131229
 20
-306.4164387254792
 30
0.0
 10
-12.24369709980366
 20
-306.8977185647686
 30
0.0
 10
-11.23945176585333
 20
-307.4093152443282
 30
0.0
 10
-11.23945176585333
 20
-307.4093152443282
 30
0.0
 10
-12.04284803301359
 20
-309.5452744451832
 30
0.0
 10
-12.04284803301359
 20
-309.5452744451832
 30
0.0
 10
-12.77923719298575
 20
-309.1842284383289
 30
0.0
 10
-14.2857774486855
 20
-308.5827147666043
 30
0.0
 10
-16.32785779756734
 20
-308.5827147666043
 30
0.0
 10
-19.40760090660643
 20
-308.5827147666043
 30
0.0
 10
-20.57927788113991
 20
-310.2373941281699
 30
0.0
 10
-20.57927788113991
 20
-311.6212889845947
 30
0.0
 10
-20.57927788113991
 20
-313.5167805205792
 30
0.0
 10
-19.20675183981637
 20
-314.4493678684363
 30
0.0
 10
-16.09341904979609
 20
-315.5325058889989
 30
0.0
 10
-12.27711452601058
 20
-316.8561115744318
 30
0.0
 10
-10.33545871052377
 20
-318.5107909359973
 30
0.0
 10
-10.33545871052377
 20
-321.4894204925444
 30
0.0
 10
-10.33545871052377
 20
-324.6182562122482
 30
0.0
 10
-12.91325140736197
 20
-327.3257567541061
 30
0.0
 10
-18.23592393207296
 20
-327.3257567541061
 30
0.0
 10
-20.41201849533103
 20
-327.3257567541061
 30
0.0
 10
-22.78878987060489
 20
-326.7542154131031
 30
0.0
 10
-23.99405652611954
 20
-326.0321233993948
 30
0.0
 10
-23.99405652611954
 20
-326.0321233993948
 30
0.0
 10
-23.25749511137313
 20
-323.835875027548
 30
0.0
 10
-23.25749511137313
 20
-323.835875027548
 30
0.0
  0
SPLINE
  5
2CC
330
2C7
100
AcDbEntity
  8
Capa 1
 62
     7
370
    35
100
AcDbSpline
210
0.0
220
0.0
230
1.0
 70
    11
 71
     3
 72
    35
 73
    31
 74
     0
 42
0.0000000001
 43
0.0000000001
 12
1.0
 22
0.0
 32
0.0
 13
1.0
 23
0.0
 33
0.0
 40
0.0
 40
0.0
 40
0.0
 40
0.0
 40
1.0
 40
1.0
 40
1.0
 40
2.0
 40
2.0
 40
2.0
 40
3.0
 40
3.0
 40
3.0
 40
4.0
 40
4.0
 40
4.0
 40
5.0
 40
5.0
 40
5.0
 40
6.0
 40
6.0
 40
6.0
 40
7.0
 40
7.0
 40
7.0
 40
8.0
 40
8.0
 40
8.0
 40
9.0
 40
9.0
 40
9.0
 40
10.0
 40
10.0
 40
10.0
 40
10.0
 10
9.414929196865018
 20
-326.3631970755273
 30
0.0
 10
8.343676755726582
 20
-326.8444769148167
 30
0.0
 10
6.201171873449708
 20
-327.3257567541061
 30
0.0
 10
3.456119790802637
 20
-327.3257567541061
 30
0.0
 10
-2.904387748839875
 20
-327.3257567541061
 30
0.0
 10
-7.691692435143049
 20
-323.7156411951128
 30
0.0
 10
-7.691692435143049
 20
-317.0666069085806
 30
0.0
 10
-7.691692435143049
 20
-310.7186739674592
 30
0.0
 10
-2.904387748839875
 20
-306.4164387254792
 30
0.0
 10
4.092084417379757
 20
-306.4164387254792
 30
0.0
 10
6.904143607214936
 20
-306.4164387254792
 30
0.0
 10
8.678367782118602
 20
-306.9580077357605
 30
0.0
 10
9.448346623071942
 20
-307.3190537426147
 30
0.0
 10
9.448346623071942
 20
-307.3190537426147
 30
0.0
 10
8.745374889306712
 20
-309.4550129434696
 30
0.0
 10
8.745374889306712
 20
-309.4550129434696
 30
0.0
 10
7.640705021961351
 20
-308.9737331041802
 30
0.0
 10
6.067329913847751
 20
-308.612687097326
 30
0.0
 10
4.19250895077479
 20
-308.612687097326
 30
0.0
 10
-1.096746147729286
 20
-308.612687097326
 30
0.0
 10
-4.611777071329695
 20
-311.6512613153164
 30
0.0
 10
-4.611777071329695
 20
-316.976345406867
 30
0.0
 10
-4.611777071329695
 20
-321.9407280011121
 30
0.0
 10
-1.431437174121307
 20
-325.1295083822593
 30
0.0
 10
4.058666991172833
 20
-325.1295083822593
 30
0.0
 10
5.832891166076499
 20
-325.1295083822593
 30
0.0
 10
7.640705021961351
 20
-324.7987792156753
 30
0.0
 10
8.812381996494821
 20
-324.2871825361157
 30
0.0
 10
8.812381996494821
 20
-324.2871825361157
 30
0.0
 10
9.414929196865018
 20
-326.3631970755273
 30
0.0
 10
9.414929196865018
 20
-326.3631970755273
 30
0.0
  0
POLYLINE
  5
2CD
330
2C7
100
AcDbEntity
  8
Capa 1
 62
     7
370
    35
100
AcDb2dPolyline
 66
     1
 10
0.0
 20
0.0
 30
0.0
  0
VERTEX
  5
2CE
330
2CD
100
AcDbEntity
  8
Capa 1
 62
     7
370
    35
100
AcDbVertex
100
AcDb2dVertex
 10
16.84548339422613
 20
-320.6467501368522
 30
0.0
  0
VERTEX
  5
2CF
330
2CD
100
AcDbEntity
  8
Capa 1
 62
     7
370
    35
100
AcDbVertex
100
AcDb2dVertex
 10
14.50212944515919
 20
-327.0249999182438
 30
0.0
  0
VERTEX
  5
2D0
330
2CD
100
AcDbEntity
  8
Capa 1
 62
     7
370
    35
100
AcDbVertex
100
AcDb2dVertex
 10
11.48922118853394
 20
-327.0249999182438
 30
0.0
  0
VERTEX
  5
2D1
330
2CD
100
AcDbEntity
  8
Capa 1
 62
     7
370
    35
100
AcDbVertex
100
AcDb2dVertex
 10
19.15524766231188
 20
-306.7475124016117
 30
0.0
  0
VERTEX
  5
2D2
330
2CD
100
AcDbEntity
  8
Capa 1
 62
     7
370
    35
100
AcDbVertex
100
AcDb2dVertex
 10
22.67027858591229
 20
-306.7475124016117
 30
0.0
  0
VERTEX
  5
2D3
330
2CD
100
AcDbEntity
  8
Capa 1
 62
     7
370
    35
100
AcDbVertex
100
AcDb2dVertex
 10
30.36989474067142
 20
-327.0249999182438
 30
0.0
  0
VERTEX
  5
2D4
330
2CD
100
AcDbEntity
  8
Capa 1
 62
     7
370
    35
100
AcDbVertex
100
AcDb2dVertex
 10
27.25656195065114
 20
-327.0249999182438
 30
0.0
  0
VERTEX
  5
2D5
330
2CD
100
AcDbEntity
  8
Capa 1
 62
     7
370
    35
100
AcDbVertex
100
AcDb2dVertex
 10
24.84637314917035
 20
-320.6467501368522
 30
0.0
  0
VERTEX
  5
2D6
330
2CD
100
AcDbEntity
  8
Capa 1
 62
     7
370
    35
100
AcDbVertex
100
AcDb2dVertex
 10
16.84548339422613
 20
-320.6467501368522
 30
0.0
  0
SEQEND
  5
2D7
330
2CD
100
AcDbEntity
  8
Capa 1
 62
     7
370
    35
  0
SPLINE
  5
2D8
330
2C7
100
AcDbEntity
  8
Capa 1
 62
     7
370
    35
100
AcDbSpline
210
0.0
220
0.0
230
1.0
 70
    11
 71
     3
 72
    23
 73
    19
 74
     0
 42
0.0000000001
 43
0.0000000001
 12
1.0
 22
0.0
 32
0.0
 13
1.0
 23
0.0
 33
0.0
 40
0.0
 40
0.0
 40
0.0
 40
0.0
 40
1.0
 40
1.0
 40
1.0
 40
2.0
 40
2.0
 40
2.0
 40
3.0
 40
3.0
 40
3.0
 40
4.0
 40
4.0
 40
4.0
 40
5.0
 40
5.0
 40
5.0
 40
6.0
 40
6.0
 40
6.0
 40
6.0
 10
24.24382594880015
 20
-318.6010524377108
 30
0.0
 10
24.24382594880015
 20
-318.6010524377108
 30
0.0
 10
22.03431395933517
 20
-312.7643716666006
 30
0.0
 10
22.03431395933517
 20
-312.7643716666006
 30
0.0
 10
21.53219129236001
 20
-311.4407659811676
 30
0.0
 10
21.19732801119373
 20
-310.2373941281699
 30
0.0
 10
20.8626369848017
 20
-309.0639946058938
 30
0.0
 10
20.8626369848017
 20
-309.0639946058938
 30
0.0
 10
20.79562987761359
 20
-309.0639946058938
 30
0.0
 10
20.79562987761359
 20
-309.0639946058938
 30
0.0
 10
20.46093885122157
 20
-310.2673664588915
 30
0.0
 10
20.09265814384836
 20
-311.5010551521595
 30
0.0
 10
19.65737032928705
 20
-312.7343993358789
 30
0.0
 10
19.65737032928705
 20
-312.7343993358789
 30
0.0
 10
17.44803059459633
 20
-318.6010524377108
 30
0.0
 10
17.44803059459633
 20
-318.6010524377108
 30
0.0
 10
17.44803059459633
 20
-318.6010524377108
 30
0.0
 10
24.24382594880015
 20
-318.6010524377108
 30
0.0
 10
24.24382594880015
 20
-318.6010524377108
 30
0.0
  0
SPLINE
  5
2D9
330
2C7
100
AcDbEntity
  8
Capa 1
 62
     7
370
    35
100
AcDbSpline
210
0.0
220
0.0
230
1.0
 70
    11
 71
     3
 72
    47
 73
    43
 74
     0
 42
0.0000000001
 43
0.0000000001
 12
1.0
 22
0.0
 32
0.0
 13
1.0
 23
0.0
 33
0.0
 40
0.0
 40
0.0
 40
0.0
 40
0.0
 40
1.0
 40
1.0
 40
1.0
 40
2.0
 40
2.0
 40
2.0
 40
3.0
 40
3.0
 40
3.0
 40
4.0
 40
4.0
 40
4.0
 40
5.0
 40
5.0
 40
5.0
 40
6.0
 40
6.0
 40
6.0
 40
7.0
 40
7.0
 40
7.0
 40
8.0
 40
8.0
 40
8.0
 40
9.0
 40
9.0
 40
9.0
 40
10.0
 40
10.0
 40
10.0
 40
11.0
 40
11.0
 40
11.0
 40
12.0
 40
12.0
 40
12.0
 40
13.0
 40
13.0
 40
13.0
 40
14.0
 40
14.0
 40
14.0
 40
14.0
 10
33.68338757838471
 20
-307.0182969067524
 30
0.0
 10
35.15633815310328
 20
-306.7475124016117
 30
0.0
 10
37.26542560917323
 20
-306.5969617289063
 30
0.0
 10
39.27408853184814
 20
-306.5969617289063
 30
0.0
 10
42.38742132186842
 20
-306.5969617289063
 30
0.0
 10
44.39591198976908
 20
-307.1085584084659
 30
0.0
 10
45.8020277120738
 20
-308.2516410904718
 30
0.0
 10
46.94011500562608
 20
-309.1542561076073
 30
0.0
 10
47.57625188697747
 20
-310.5381509640321
 30
0.0
 10
47.57625188697747
 20
-312.1025688238841
 30
0.0
 10
47.57625188697747
 20
-314.7800970350203
 30
0.0
 10
45.70160317867877
 20
-316.5553547385695
 30
0.0
 10
43.32465954863064
 20
-317.2774467522779
 30
0.0
 10
43.32465954863064
 20
-317.2774467522779
 30
0.0
 10
43.32465954863064
 20
-317.3677082539914
 30
0.0
 10
43.32465954863064
 20
-317.3677082539914
 30
0.0
 10
45.06546629732738
 20
-317.9092772642727
 30
0.0
 10
46.1033013122589
 20
-319.3531167821409
 30
0.0
 10
46.63884140544098
 20
-321.4591036522741
 30
0.0
 10
47.3754028201874
 20
-324.2871825361157
 30
0.0
 10
47.91094291336949
 20
-326.2426187335435
 30
0.0
 10
48.37964815413773
 20
-327.0249999182438
 30
0.0
 10
48.37964815413773
 20
-327.0249999182438
 30
0.0
 10
45.36673989751248
 20
-327.0249999182438
 30
0.0
 10
45.36673989751248
 20
-327.0249999182438
 30
0.0
 10
44.99845919013928
 20
-326.4534585772408
 30
0.0
 10
44.49633652316411
 20
-324.7085177139618
 30
0.0
 10
43.86037189658699
 20
-322.1811956659825
 30
0.0
 10
43.19081758902869
 20
-319.3834336224111
 30
0.0
 10
41.98555093351403
 20
-318.3302679325702
 30
0.0
 10
39.34092338426199
 20
-318.2400064308567
 30
0.0
 10
39.34092338426199
 20
-318.2400064308567
 30
0.0
 10
36.59587130161492
 20
-318.2400064308567
 30
0.0
 10
36.59587130161492
 20
-318.2400064308567
 30
0.0
 10
36.59587130161492
 20
-318.2400064308567
 30
0.0
 10
36.59587130161492
 20
-327.0249999182438
 30
0.0
 10
36.59587130161492
 20
-327.0249999182438
 30
0.0
 10
36.59587130161492
 20
-327.0249999182438
 30
0.0
 10
33.68338757838471
 20
-327.0249999182438
 30
0.0
 10
33.68338757838471
 20
-327.0249999182438
 30
0.0
 10
33.68338757838471
 20
-327.0249999182438
 30
0.0
 10
33.68338757838471
 20
-307.0182969067524
 30
0.0
 10
33.68338757838471
 20
-307.0182969067524
 30
0.0
  0
SPLINE
  5
2DA
330
2C7
100
AcDbEntity
  8
Capa 1
 62
     7
370
    35
100
AcDbSpline
210
0.0
220
0.0
230
1.0
 70
    11
 71
     3
 72
    20
 73
    16
 74
     0
 42
0.0000000001
 43
0.0000000001
 12
1.0
 22
0.0
 32
0.0
 13
1.0
 23
0.0
 33
0.0
 40
0.0
 40
0.0
 40
0.0
 40
0.0
 40
1.0
 40
1.0
 40
1.0
 40
2.0
 40
2.0
 40
2.0
 40
3.0
 40
3.0
 40
3.0
 40
4.0
 40
4.0
 40
4.0
 40
5.0
 40
5.0
 40
5.0
 40
5.0
 10
36.59587130161492
 20
-316.2545979027072
 30
0.0
 10
36.59587130161492
 20
-316.2545979027072
 30
0.0
 10
39.57536213203324
 20
-316.2545979027072
 30
0.0
 10
39.57536213203324
 20
-316.2545979027072
 30
0.0
 10
42.68869492205352
 20
-316.2545979027072
 30
0.0
 10
44.66376816374726
 20
-314.7201523735769
 30
0.0
 10
44.66376816374726
 20
-312.4036701692949
 30
0.0
 10
44.66376816374726
 20
-309.7860866196021
 30
0.0
 10
42.55468070767731
 20
-308.6430039375962
 30
0.0
 10
39.47493759863821
 20
-308.612687097326
 30
0.0
 10
38.06882187633349
 20
-308.612687097326
 30
0.0
 10
37.06457654238316
 20
-308.7329209297612
 30
0.0
 10
36.59587130161492
 20
-308.853499271745
 30
0.0
 10
36.59587130161492
 20
-308.853499271745
 30
0.0
 10
36.59587130161492
 20
-316.2545979027072
 30
0.0
 10
36.59587130161492
 20
-316.2545979027072
 30
0.0
  0
POLYLINE
  5
2DB
330
2C7
100
AcDbEntity
  8
Capa 1
 62
     7
370
    35
100
AcDb2dPolyline
 66
     1
 10
0.0
 20
0.0
 30
0.0
  0
VERTEX
  5
2DC
330
2DB
100
AcDbEntity
  8
Capa 1
 62
     7
370
    35
100
AcDbVertex
100
AcDb2dVertex
 10
55.50892875131374
 20
-320.6467501368522
 30
0.0
  0
VERTEX
  5
2DD
330
2DB
100
AcDbEntity
  8
Capa 1
 62
     7
370
    35
100
AcDbVertex
100
AcDb2dVertex
 10
53.1655748022468
 20
-327.0249999182438
 30
0.0
  0
VERTEX
  5
2DE
330
2DB
100
AcDbEntity
  8
Capa 1
 62
     7
370
    35
100
AcDbVertex
100
AcDb2dVertex
 10
50.15266654562156
 20
-327.0249999182438
 30
0.0
  0
VERTEX
  5
2DF
330
2DB
100
AcDbEntity
  8
Capa 1
 62
     7
370
    35
100
AcDbVertex
100
AcDb2dVertex
 10
57.8186930193995
 20
-306.7475124016117
 30
0.0
  0
VERTEX
  5
2E0
330
2DB
100
AcDbEntity
  8
Capa 1
 62
     7
370
    35
100
AcDbVertex
100
AcDb2dVertex
 10
61.3337239429999
 20
-306.7475124016117
 30
0.0
  0
VERTEX
  5
2E1
330
2DB
100
AcDbEntity
  8
Capa 1
 62
     7
370
    35
100
AcDbVertex
100
AcDb2dVertex
 10
69.03334009775902
 20
-327.0249999182438
 30
0.0
  0
VERTEX
  5
2E2
330
2DB
100
AcDbEntity
  8
Capa 1
 62
     7
370
    35
100
AcDbVertex
100
AcDb2dVertex
 10
65.92017956251301
 20
-327.0249999182438
 30
0.0
  0
VERTEX
  5
2E3
330
2DB
100
AcDbEntity
  8
Capa 1
 62
     7
370
    35
100
AcDbVertex
100
AcDb2dVertex
 10
63.50981850625796
 20
-320.6467501368522
 30
0.0
  0
VERTEX
  5
2E4
330
2DB
100
AcDbEntity
  8
Capa 1
 62
     7
370
    35
100
AcDbVertex
100
AcDb2dVertex
 10
55.50892875131374
 20
-320.6467501368522
 30
0.0
  0
SEQEND
  5
2E5
330
2DB
100
AcDbEntity
  8
Capa 1
 62
     7
370
    35
  0
SPLINE
  5
2E6
330
2C7
100
AcDbEntity
  8
Capa 1
 62
     7
370
    35
100
AcDbSpline
210
0.0
220
0.0
230
1.0
 70
    11
 71
     3
 72
    23
 73
    19
 74
     0
 42
0.0000000001
 43
0.0000000001
 12
1.0
 22
0.0
 32
0.0
 13
1.0
 23
0.0
 33
0.0
 40
0.0
 40
0.0
 40
0.0
 40
0.0
 40
1.0
 40
1.0
 40
1.0
 40
2.0
 40
2.0
 40
2.0
 40
3.0
 40
3.0
 40
3.0
 40
4.0
 40
4.0
 40
4.0
 40
5.0
 40
5.0
 40
5.0
 40
6.0
 40
6.0
 40
6.0
 40
6.0
 10
62.90727130588777
 20
-318.6010524377108
 30
0.0
 10
62.90727130588777
 20
-318.6010524377108
 30
0.0
 10
60.69775931642278
 20
-312.7643716666006
 30
0.0
 10
60.69775931642278
 20
-312.7643716666006
 30
0.0
 10
60.19563664944762
 20
-311.4407659811676
 30
0.0
 10
59.86077336828134
 20
-310.2373941281699
 30
0.0
 10
59.52608234188931
 20
-309.0639946058938
 30
0.0
 10
59.52608234188931
 20
-309.0639946058938
 30
0.0
 10
59.4590752347012
 20
-309.0639946058938
 30
0.0
 10
59.4590752347012
 20
-309.0639946058938
 30
0.0
 10
59.12438420830919
 20
-310.2673664588915
 30
0.0
 10
58.75610350093598
 20
-311.5010551521595
 30
0.0
 10
58.32081568637466
 20
-312.7343993358789
 30
0.0
 10
58.32081568637466
 20
-312.7343993358789
 30
0.0
 10
56.11147595168394
 20
-318.6010524377108
 30
0.0
 10
56.11147595168394
 20
-318.6010524377108
 30
0.0
 10
56.11147595168394
 20
-318.6010524377108
 30
0.0
 10
62.90727130588777
 20
-318.6010524377108
 30
0.0
 10
62.90727130588777
 20
-318.6010524377108
 30
0.0
  0
SPLINE
  5
2E7
330
2C7
100
AcDbEntity
  8
Capa 1
 62
     7
370
    35
100
AcDbSpline
210
0.0
220
0.0
230
1.0
 70
    11
 71
     3
 72
    47
 73
    43
 74
     0
 42
0.0000000001
 43
0.0000000001
 12
1.0
 22
0.0
 32
0.0
 13
1.0
 23
0.0
 33
0.0
 40
0.0
 40
0.0
 40
0.0
 40
0.0
 40
1.0
 40
1.0
 40
1.0
 40
2.0
 40
2.0
 40
2.0
 40
3.0
 40
3.0
 40
3.0
 40
4.0
 40
4.0
 40
4.0
 40
5.0
 40
5.0
 40
5.0
 40
6.0
 40
6.0
 40
6.0
 40
7.0
 40
7.0
 40
7.0
 40
8.0
 40
8.0
 40
8.0
 40
9.0
 40
9.0
 40
9.0
 40
10.0
 40
10.0
 40
10.0
 40
11.0
 40
11.0
 40
11.0
 40
12.0
 40
12.0
 40
12.0
 40
13.0
 40
13.0
 40
13.0
 40
14.0
 40
14.0
 40
14.0
 40
14.0
 10
79.4432128707642
 20
-307.0182969067524
 30
0.0
 10
80.91616344548277
 20
-306.7475124016117
 30
0.0
 10
83.02525090155272
 20
-306.5969617289063
 30
0.0
 10
85.03391382422764
 20
-306.5969617289063
 30
0.0
 10
88.14724661424792
 20
-306.5969617289063
 30
0.0
 10
90.15573728214856
 20
-307.1085584084659
 30
0.0
 10
91.5618530044533
 20
-308.2516410904718
 30
0.0
 10
92.69994029800557
 20
-309.1542561076073
 30
0.0
 10
93.33607717935696
 20
-310.5381509640321
 30
0.0
 10
93.33607717935696
 20
-312.1025688238841
 30
0.0
 10
93.33607717935696
 20
-314.7800970350203
 30
0.0
 10
91.46142847105826
 20
-316.5553547385695
 30
0.0
 10
89.08448484101014
 20
-317.2774467522779
 30
0.0
 10
89.08448484101014
 20
-317.2774467522779
 30
0.0
 10
89.08448484101014
 20
-317.3677082539914
 30
0.0
 10
89.08448484101014
 20
-317.3677082539914
 30
0.0
 10
90.82529158970688
 20
-317.9092772642727
 30
0.0
 10
91.8631266046384
 20
-319.3531167821409
 30
0.0
 10
92.39866669782047
 20
-321.4591036522741
 30
0.0
 10
93.13522811256689
 20
-324.2871825361157
 30
0.0
 10
93.67076820574898
 20
-326.2426187335435
 30
0.0
 10
94.13947344651721
 20
-327.0249999182438
 30
0.0
 10
94.13947344651721
 20
-327.0249999182438
 30
0.0
 10
91.12656518989198
 20
-327.0249999182438
 30
0.0
 10
91.12656518989198
 20
-327.0249999182438
 30
0.0
 10
90.75828448251876
 20
-326.4534585772408
 30
0.0
 10
90.2561618155436
 20
-324.7085177139618
 30
0.0
 10
89.62019718896649
 20
-322.1811956659825
 30
0.0
 10
88.95064288140817
 20
-319.3834336224111
 30
0.0
 10
87.74537622589352
 20
-318.3302679325702
 30
0.0
 10
85.10074867664149
 20
-318.2400064308567
 30
0.0
 10
85.10074867664149
 20
-318.2400064308567
 30
0.0
 10
82.35569659399441
 20
-318.2400064308567
 30
0.0
 10
82.35569659399441
 20
-318.2400064308567
 30
0.0
 10
82.35569659399441
 20
-318.2400064308567
 30
0.0
 10
82.35569659399441
 20
-327.0249999182438
 30
0.0
 10
82.35569659399441
 20
-327.0249999182438
 30
0.0
 10
82.35569659399441
 20
-327.0249999182438
 30
0.0
 10
79.4432128707642
 20
-327.0249999182438
 30
0.0
 10
79.4432128707642
 20
-327.0249999182438
 30
0.0
 10
79.4432128707642
 20
-327.0249999182438
 30
0.0
 10
79.4432128707642
 20
-307.0182969067524
 30
0.0
 10
79.4432128707642
 20
-307.0182969067524
 30
0.0
  0
SPLINE
  5
2E8
330
2C7
100
AcDbEntity
  8
Capa 1
 62
     7
370
    35
100
AcDbSpline
210
0.0
220
0.0
230
1.0
 70
    11
 71
     3
 72
    20
 73
    16
 74
     0
 42
0.0000000001
 43
0.0000000001
 12
1.0
 22
0.0
 32
0.0
 13
1.0
 23
0.0
 33
0.0
 40
0.0
 40
0.0
 40
0.0
 40
0.0
 40
1.0
 40
1.0
 40
1.0
 40
2.0
 40
2.0
 40
2.0
 40
3.0
 40
3.0
 40
3.0
 40
4.0
 40
4.0
 40
4.0
 40
5.0
 40
5.0
 40
5.0
 40
5.0
 10
82.35569659399441
 20
-316.2545979027072
 30
0.0
 10
82.35569659399441
 20
-316.2545979027072
 30
0.0
 10
85.33518742441274
 20
-316.2545979027072
 30
0.0
 10
85.33518742441274
 20
-316.2545979027072
 30
0.0
 10
88.44852021443302
 20
-316.2545979027072
 30
0.0
 10
90.42359345612674
 20
-314.7201523735769
 30
0.0
 10
90.42359345612674
 20
-312.4036701692949
 30
0.0
 10
90.42359345612674
 20
-309.7860866196021
 30
0.0
 10
88.3145060000568
 20
-308.6430039375962
 30
0.0
 10
85.2347628910177
 20
-308.612687097326
 30
0.0
 10
83.82864716871298
 20
-308.612687097326
 30
0.0
 10
82.82440183476265
 20
-308.7329209297612
 30
0.0
 10
82.35569659399441
 20
-308.853499271745
 30
0.0
 10
82.35569659399441
 20
-308.853499271745
 30
0.0
 10
82.35569659399441
 20
-316.2545979027072
 30
0.0
 10
82.35569659399441
 20
-316.2545979027072
 30
0.0
  0
SPLINE
  5
2E9
330
2C7
100
AcDbEntity
  8
Capa 1
 62
     7
370
    35
100
AcDbSpline
210
0.0
220
0.0
230
1.0
 70
    11
 71
     3
 72
    17
 73
    13
 74
     0
 42
0.0000000001
 43
0.0000000001
 12
1.0
 22
0.0
 32
0.0
 13
1.0
 23
0.0
 33
0.0
 40
0.0
 40
0.0
 40
0.0
 40
0.0
 40
1.0
 40
1.0
 40
1.0
 40
2.0
 40
2.0
 40
2.0
 40
3.0
 40
3.0
 40
3.0
 40
4.0
 40
4.0
 40
4.0
 40
4.0
 10
112.148882350435
 20
-319.6239012872815
 30
0.0
 10
112.148882350435
 20
-325.0092745498241
 30
0.0
 10
107.9978868002575
 20
-327.3560735943763
 30
0.0
 10
104.0811577430769
 20
-327.3560735943763
 30
0.0
 10
99.6955511903539
 20
-327.3560735943763
 30
0.0
 10
96.3145344811297
 20
-324.4677055395428
 30
0.0
 10
96.3145344811297
 20
-319.8647134617005
 30
0.0
 10
96.3145344811297
 20
-314.9909368787175
 30
0.0
 10
99.86298283093704
 20
-312.1328856641543
 30
0.0
 10
104.3488416622808
 20
-312.1328856641543
 30
0.0
 10
109.0021321342078
 20
-312.1328856641543
 30
0.0
 10
112.148882350435
 20
-315.1714598821446
 30
0.0
 10
112.148882350435
 20
-319.6239012872815
 30
0.0
  0
SPLINE
  5
2EA
330
2C7
100
AcDbEntity
  8
Capa 1
 62
     7
370
    35
100
AcDbSpline
210
0.0
220
0.0
230
1.0
 70
    11
 71
     3
 72
    17
 73
    13
 74
     0
 42
0.0000000001
 43
0.0000000001
 12
1.0
 22
0.0
 32
0.0
 13
1.0
 23
0.0
 33
0.0
 40
0.0
 40
0.0
 40
0.0
 40
0.0
 40
1.0
 40
1.0
 40
1.0
 40
2.0
 40
2.0
 40
2.0
 40
3.0
 40
3.0
 40
3.0
 40
4.0
 40
4.0
 40
4.0
 40
4.0
 10
99.29385305677377
 20
-319.7744519599869
 30
0.0
 10
99.29385305677377
 20
-322.9635768506827
 30
0.0
 10
101.3361056604299
 20
-325.3703205566783
 30
0.0
 10
104.2151719574532
 20
-325.3703205566783
 30
0.0
 10
107.0270588925141
 20
-325.3703205566783
 30
0.0
 10
109.136146348584
 20
-322.9935491814044
 30
0.0
 10
109.136146348584
 20
-319.7141627889951
 30
0.0
 10
109.136146348584
 20
-317.2471299120077
 30
0.0
 10
107.7636203072605
 20
-314.1182941923038
 30
0.0
 10
104.282006809867
 20
-314.1182941923038
 30
0.0
 10
100.8003933124735
 20
-314.1182941923038
 30
0.0
 10
99.29385305677377
 20
-317.0066622471372
 30
0.0
 10
99.29385305677377
 20
-319.7744519599869
 30
0.0
  0
SPLINE
  5
2EB
330
2C7
100
AcDbEntity
  8
Capa 1
 62
     7
370
    35
100
AcDbSpline
210
0.0
220
0.0
230
1.0
 70
    11
 71
     3
 72
    41
 73
    37
 74
     0
 42
0.0000000001
 43
0.0000000001
 12
1.0
 22
0.0
 32
0.0
 13
1.0
 23
0.0
 33
0.0
 40
0.0
 40
0.0
 40
0.0
 40
0.0
 40
1.0
 40
1.0
 40
1.0
 40
2.0
 40
2.0
 40
2.0
 40
3.0
 40
3.0
 40
3.0
 40
4.0
 40
4.0
 40
4.0
 40
5.0
 40
5.0
 40
5.0
 40
6.0
 40
6.0
 40
6.0
 40
7.0
 40
7.0
 40
7.0
 40
8.0
 40
8.0
 40
8.0
 40
9.0
 40
9.0
 40
9.0
 40
10.0
 40
10.0
 40
10.0
 40
11.0
 40
11.0
 40
11.0
 40
12.0
 40
12.0
 40
12.0
 40
12.0
 10
115.7300591073522
 20
-327.0249999182438
 30
0.0
 10
115.7968939597661
 20
-326.0321233993948
 30
0.0
 10
115.8640733217284
 20
-324.5579670412563
 30
0.0
 10
115.8640733217284
 20
-323.2643336865451
 30
0.0
 10
115.8640733217284
 20
-323.2643336865451
 30
0.0
 10
115.8640733217284
 20
-305.6643743810492
 30
0.0
 10
115.8640733217284
 20
-305.6643743810492
 30
0.0
 10
115.8640733217284
 20
-305.6643743810492
 30
0.0
 10
118.7765570449587
 20
-305.6643743810492
 30
0.0
 10
118.7765570449587
 20
-305.6643743810492
 30
0.0
 10
118.7765570449587
 20
-305.6643743810492
 30
0.0
 10
118.7765570449587
 20
-314.8104138752905
 30
0.0
 10
118.7765570449587
 20
-314.8104138752905
 30
0.0
 10
118.7765570449587
 20
-314.8104138752905
 30
0.0
 10
118.8433918973725
 20
-314.8104138752905
 30
0.0
 10
118.8433918973725
 20
-314.8104138752905
 30
0.0
 10
119.8810546575297
 20
-313.1857068444467
 30
0.0
 10
121.7558756206027
 20
-312.1328856641543
 30
0.0
 10
124.3669134888735
 20
-312.1328856641543
 30
0.0
 10
128.3842393342234
 20
-312.1328856641543
 30
0.0
 10
131.2295436954912
 20
-315.1411430418744
 30
0.0
 10
131.1961262692843
 20
-319.5639566258382
 30
0.0
 10
131.1961262692843
 20
-324.7684623754051
 30
0.0
 10
127.5474256408562
 20
-327.3560735943763
 30
0.0
 10
123.9317979290865
 20
-327.3560735943763
 30
0.0
 10
121.5884439800196
 20
-327.3560735943763
 30
0.0
 10
119.7136230169466
 20
-326.5437200789544
 30
0.0
 10
118.5085286162062
 20
-324.6182562122482
 30
0.0
 10
118.5085286162062
 20
-324.6182562122482
 30
0.0
 10
118.4082763375854
 20
-324.6182562122482
 30
0.0
 10
118.4082763375854
 20
-324.6182562122482
 30
0.0
 10
118.4082763375854
 20
-324.6182562122482
 30
0.0
 10
118.2742621232092
 20
-327.0249999182438
 30
0.0
 10
118.2742621232092
 20
-327.0249999182438
 30
0.0
 10
118.2742621232092
 20
-327.0249999182438
 30
0.0
 10
115.7300591073522
 20
-327.0249999182438
 30
0.0
 10
115.7300591073522
 20
-327.0249999182438
 30
0.0
  0
SPLINE
  5
2EC
330
2C7
100
AcDbEntity
  8
Capa 1
 62
     7
370
    35
100
AcDbSpline
210
0.0
220
0.0
230
1.0
 70
    11
 71
     3
 72
    26
 73
    22
 74
     0
 42
0.0000000001
 43
0.0000000001
 12
1.0
 22
0.0
 32
0.0
 13
1.0
 23
0.0
 33
0.0
 40
0.0
 40
0.0
 40
0.0
 40
0.0
 40
1.0
 40
1.0
 40
1.0
 40
2.0
 40
2.0
 40
2.0
 40
3.0
 40
3.0
 40
3.0
 40
4.0
 40
4.0
 40
4.0
 40
5.0
 40
5.0
 40
5.0
 40
6.0
 40
6.0
 40
6.0
 40
7.0
 40
7.0
 40
7.0
 40
7.0
 10
118.7765570449587
 20
-321.1883191471335
 30
0.0
 10
118.7765570449587
 20
-321.519392823266
 30
0.0
 10
118.8433918973725
 20
-321.8504664993985
 30
0.0
 10
118.9102267497863
 20
-322.1512233352608
 30
0.0
 10
119.4793565239496
 20
-323.9864257002534
 30
0.0
 10
121.1867458464394
 20
-325.250086724243
 30
0.0
 10
123.3292507287163
 20
-325.250086724243
 30
0.0
 10
126.4091660925297
 20
-325.250086724243
 30
0.0
 10
128.2502251198472
 20
-322.9935491814044
 30
0.0
 10
128.2502251198472
 20
-319.6542181275518
 30
0.0
 10
128.2502251198472
 20
-316.7358777419966
 30
0.0
 10
126.5765977331128
 20
-314.2388725342875
 30
0.0
 10
123.4295030073371
 20
-314.2388725342875
 30
0.0
 10
121.4210123394364
 20
-314.2388725342875
 30
0.0
 10
119.5461913763635
 20
-315.472216718007
 30
0.0
 10
118.9436441759933
 20
-317.4879420864266
 30
0.0
 10
118.8768093235794
 20
-317.788698922289
 30
0.0
 10
118.7765570449587
 20
-318.1497449291431
 30
0.0
 10
118.7765570449587
 20
-318.5710801069892
 30
0.0
 10
118.7765570449587
 20
-318.5710801069892
 30
0.0
 10
118.7765570449587
 20
-321.1883191471335
 30
0.0
 10
118.7765570449587
 20
-321.1883191471335
 30
0.0
  0
SPLINE
  5
2ED
330
2C7
100
AcDbEntity
  8
Capa 1
 62
     7
370
    35
100
AcDbSpline
210
0.0
220
0.0
230
1.0
 70
    11
 71
     3
 72
    17
 73
    13
 74
     0
 42
0.0000000001
 43
0.0000000001
 12
1.0
 22
0.0
 32
0.0
 13
1.0
 23
0.0
 33
0.0
 40
0.0
 40
0.0
 40
0.0
 40
0.0
 40
1.0
 40
1.0
 40
1.0
 40
2.0
 40
2.0
 40
2.0
 40
3.0
 40
3.0
 40
3.0
 40
4.0
 40
4.0
 40
4.0
 40
4.0
 10
149.5739881353496
 20
-319.6239012872815
 30
0.0
 10
149.5739881353496
 20
-325.0092745498241
 30
0.0
 10
145.422992585172
 20
-327.3560735943763
 30
0.0
 10
141.505919018443
 20
-327.3560735943763
 30
0.0
 10
137.1206569752684
 20
-327.3560735943763
 30
0.0
 10
133.7396402660443
 20
-324.4677055395428
 30
0.0
 10
133.7396402660443
 20
-319.8647134617005
 30
0.0
 10
133.7396402660443
 20
-314.9909368787175
 30
0.0
 10
137.2880886158516
 20
-312.1328856641543
 30
0.0
 10
141.7739474471954
 20
-312.1328856641543
 30
0.0
 10
146.4272379191224
 20
-312.1328856641543
 30
0.0
 10
149.5739881353496
 20
-315.1714598821446
 30
0.0
 10
149.5739881353496
 20
-319.6239012872815
 30
0.0
  0
SPLINE
  5
2EE
330
2C7
100
AcDbEntity
  8
Capa 1
 62
     7
370
    35
100
AcDbSpline
210
0.0
220
0.0
230
1.0
 70
    11
 71
     3
 72
    17
 73
    13
 74
     0
 42
0.0000000001
 43
0.0000000001
 12
1.0
 22
0.0
 32
0.0
 13
1.0
 23
0.0
 33
0.0
 40
0.0
 40
0.0
 40
0.0
 40
0.0
 40
1.0
 40
1.0
 40
1.0
 40
2.0
 40
2.0
 40
2.0
 40
3.0
 40
3.0
 40
3.0
 40
4.0
 40
4.0
 40
4.0
 40
4.0
 10
136.7189588416883
 20
-319.7744519599869
 30
0.0
 10
136.7189588416883
 20
-322.9635768506827
 30
0.0
 10
138.7608669357959
 20
-325.3703205566783
 30
0.0
 10
141.6399332328192
 20
-325.3703205566783
 30
0.0
 10
144.4521646774286
 20
-325.3703205566783
 30
0.0
 10
146.56090762395
 20
-322.9935491814044
 30
0.0
 10
146.56090762395
 20
-319.7141627889951
 30
0.0
 10
146.56090762395
 20
-317.2471299120077
 30
0.0
 10
145.1883815826265
 20
-314.1182941923038
 30
0.0
 10
141.706768085233
 20
-314.1182941923038
 30
0.0
 10
138.2254990973881
 20
-314.1182941923038
 30
0.0
 10
136.7189588416883
 20
-317.0066622471372
 30
0.0
 10
136.7189588416883
 20
-319.7744519599869
 30
0.0
  0
SPLINE
  5
2EF
330
2C7
100
AcDbEntity
  8
Capa 1
 62
     7
370
    35
100
AcDbSpline
210
0.0
220
0.0
230
1.0
 70
    11
 71
     3
 72
    56
 73
    52
 74
     0
 42
0.0000000001
 43
0.0000000001
 12
1.0
 22
0.0
 32
0.0
 13
1.0
 23
0.0
 33
0.0
 40
0.0
 40
0.0
 40
0.0
 40
0.0
 40
1.0
 40
1.0
 40
1.0
 40
2.0
 40
2.0
 40
2.0
 40
3.0
 40
3.0
 40
3.0
 40
4.0
 40
4.0
 40
4.0
 40
5.0
 40
5.0
 40
5.0
 40
6.0
 40
6.0
 40
6.0
 40
7.0
 40
7.0
 40
7.0
 40
8.0
 40
8.0
 40
8.0
 40
9.0
 40
9.0
 40
9.0
 40
10.0
 40
10.0
 40
10.0
 40
11.0
 40
11.0
 40
11.0
 40
12.0
 40
12.0
 40
12.0
 40
13.0
 40
13.0
 40
13.0
 40
14.0
 40
14.0
 40
14.0
 40
15.0
 40
15.0
 40
15.0
 40
16.0
 40
16.0
 40
16.0
 40
17.0
 40
17.0
 40
17.0
 40
17.0
 10
156.8372829469018
 20
-308.281957930742
 30
0.0
 10
156.8372829469018
 20
-308.281957930742
 30
0.0
 10
156.8372829469018
 20
-312.4636148307383
 30
0.0
 10
156.8372829469018
 20
-312.4636148307383
 30
0.0
 10
156.8372829469018
 20
-312.4636148307383
 30
0.0
 10
161.0551133494932
 20
-312.4636148307383
 30
0.0
 10
161.0551133494932
 20
-312.4636148307383
 30
0.0
 10
161.0551133494932
 20
-312.4636148307383
 30
0.0
 10
161.0551133494932
 20
-314.4793401991579
 30
0.0
 10
161.0551133494932
 20
-314.4793401991579
 30
0.0
 10
161.0551133494932
 20
-314.4793401991579
 30
0.0
 10
156.8372829469018
 20
-314.4793401991579
 30
0.0
 10
156.8372829469018
 20
-314.4793401991579
 30
0.0
 10
156.8372829469018
 20
-314.4793401991579
 30
0.0
 10
156.8372829469018
 20
-322.3317463386879
 30
0.0
 10
156.8372829469018
 20
-322.3317463386879
 30
0.0
 10
156.8372829469018
 20
-324.1366318634103
 30
0.0
 10
157.4064127210651
 20
-325.1598252225295
 30
0.0
 10
159.0466226815925
 20
-325.1598252225295
 30
0.0
 10
159.8166015225459
 20
-325.1598252225295
 30
0.0
 10
160.3857312967091
 20
-325.0695637208159
 30
0.0
 10
160.7540120040823
 20
-324.9793022191024
 30
0.0
 10
160.7540120040823
 20
-324.9793022191024
 30
0.0
 10
160.8880262184585
 20
-326.9647107472519
 30
0.0
 10
160.8880262184585
 20
-326.9647107472519
 30
0.0
 10
160.3188964442953
 20
-327.1755505909492
 30
0.0
 10
159.4149033889657
 20
-327.3257567541061
 30
0.0
 10
158.2766438406392
 20
-327.3257567541061
 30
0.0
 10
156.9041177993157
 20
-327.3257567541061
 30
0.0
 10
155.799275677196
 20
-326.9347384165302
 30
0.0
 10
155.0964761982051
 20
-326.2126464028219
 30
0.0
 10
154.2596625048379
 20
-325.4306097276701
 30
0.0
 10
153.9582166498785
 20
-324.1366318634103
 30
0.0
 10
153.9582166498785
 20
-322.4220078404015
 30
0.0
 10
153.9582166498785
 20
-322.4220078404015
 30
0.0
 10
153.9582166498785
 20
-314.4793401991579
 30
0.0
 10
153.9582166498785
 20
-314.4793401991579
 30
0.0
 10
153.9582166498785
 20
-314.4793401991579
 30
0.0
 10
151.4474310602284
 20
-314.4793401991579
 30
0.0
 10
151.4474310602284
 20
-314.4793401991579
 30
0.0
 10
151.4474310602284
 20
-314.4793401991579
 30
0.0
 10
151.4474310602284
 20
-312.4636148307383
 30
0.0
 10
151.4474310602284
 20
-312.4636148307383
 30
0.0
 10
151.4474310602284
 20
-312.4636148307383
 30
0.0
 10
153.9582166498785
 20
-312.4636148307383
 30
0.0
 10
153.9582166498785
 20
-312.4636148307383
 30
0.0
 10
153.9582166498785
 20
-312.4636148307383
 30
0.0
 10
153.9582166498785
 20
-308.9737331041802
 30
0.0
 10
153.9582166498785
 20
-308.9737331041802
 30
0.0
 10
153.9582166498785
 20
-308.9737331041802
 30
0.0
 10
156.8372829469018
 20
-308.281957930742
 30
0.0
 10
156.8372829469018
 20
-308.281957930742
 30
0.0
  0
ENDBLK
  5
2CA
330
2C7
100
AcDbEntity
  8
0
100
AcDbBlockEnd
  0
BLOCK
  5
2F2
330
2F0
100
AcDbEntity
  8
0
100
AcDbBlockBegin
  2
block 25
 70
     0
 10
0.0
 20
0.0
 30
0.0
  3
block 25
  1

  0
INSERT
  5
2F5
330
2F0
100
AcDbEntity
  8
Capa 1
100
AcDbBlockReference
  2
block 26
 10
0.0
 20
0.0
 30
0.0
  0
INSERT
  5
2FA
330
2F0
100
AcDbEntity
  8
Capa 1
100
AcDbBlockReference
  2
block 27
 10
0.0
 20
0.0
 30
0.0
  0
INSERT
  5
2FF
330
2F0
100
AcDbEntity
  8
Capa 1
100
AcDbBlockReference
  2
block 28
 10
0.0
 20
0.0
 30
0.0
  0
ENDBLK
  5
2F3
330
2F0
100
AcDbEntity
  8
0
100
AcDbBlockEnd
  0
BLOCK
  5
2F6
330
2F4
100
AcDbEntity
  8
0
100
AcDbBlockBegin
  2
block 26
 70
     0
 10
0.0
 20
0.0
 30
0.0
  3
block 26
  1

  0
SPLINE
  5
2F8
330
2F4
100
AcDbEntity
  8
Capa 1
 62
     7
370
    25
100
AcDbSpline
210
0.0
220
0.0
230
1.0
 70
    11
 71
     3
 72
    20
 73
    16
 74
     0
 42
0.0000000001
 43
0.0000000001
 12
1.0
 22
0.0
 32
0.0
 13
1.0
 23
0.0
 33
0.0
 40
0.0
 40
0.0
 40
0.0
 40
0.0
 40
1.0
 40
1.0
 40
1.0
 40
2.0
 40
2.0
 40
2.0
 40
3.0
 40
3.0
 40
3.0
 40
4.0
 40
4.0
 40
4.0
 40
5.0
 40
5.0
 40
5.0
 40
5.0
 10
349.9004089976984
 20
19.4495909371855
 30
0.0
 10
349.9004089976984
 20
25.52472318532441
 30
0.0
 10
354.8252767495596
 20
30.44959093718557
 30
0.0
 10
360.9004089976969
 20
30.44959093718557
 30
0.0
 10
366.9755412458374
 20
30.44959093718557
 30
0.0
 10
371.9004089976967
 20
25.52472318532441
 30
0.0
 10
371.9004089976967
 20
19.4495909371855
 30
0.0
 10
371.9004089976967
 20
13.37445868904692
 30
0.0
 10
366.9755412458374
 20
8.449590937185755
 30
0.0
 10
360.9004089976969
 20
8.449590937185755
 30
0.0
 10
354.8252767495596
 20
8.449590937185755
 30
0.0
 10
349.9004089976984
 20
13.37445868904692
 30
0.0
 10
349.9004089976984
 20
19.4495909371855
 30
0.0
 10
349.9004089976984
 20
19.4495909371855
 30
0.0
 10
349.9004089976984
 20
19.4495909371855
 30
0.0
 10
349.9004089976984
 20
19.4495909371855
 30
0.0
  0
ENDBLK
  5
2F7
330
2F4
100
AcDbEntity
  8
0
100
AcDbBlockEnd
  0
BLOCK
  5
2FB
330
2F9
100
AcDbEntity
  8
0
100
AcDbBlockBegin
  2
block 27
 70
     0
 10
0.0
 20
0.0
 30
0.0
  3
block 27
  1

  0
SPLINE
  5
2FD
330
2F9
100
AcDbEntity
  8
Capa 1
 62
     7
370
    25
100
AcDbSpline
210
0.0
220
0.0
230
1.0
 70
    11
 71
     3
 72
    26
 73
    22
 74
     0
 42
0.0000000001
 43
0.0000000001
 12
1.0
 22
0.0
 32
0.0
 13
1.0
 23
0.0
 33
0.0
 40
0.0
 40
0.0
 40
0.0
 40
0.0
 40
1.0
 40
1.0
 40
1.0
 40
2.0
 40
2.0
 40
2.0
 40
3.0
 40
3.0
 40
3.0
 40
4.0
 40
4.0
 40
4.0
 40
5.0
 40
5.0
 40
5.0
 40
6.0
 40
6.0
 40
6.0
 40
7.0
 40
7.0
 40
7.0
 40
7.0
 10
361.7337423310441
 20
-0.5330404099503929
 30
0.0
 10
372.7698448855553
 20
-0.0728031184187145
 30
0.0
 10
381.3432776363651
 20
9.246821716015962
 30
0.0
 10
380.8830403448341
 20
20.28292427052977
 30
0.0
 10
380.449702349786
 20
30.67400435488665
 30
0.0
 10
372.1248224153994
 20
38.99888428927393
 30
0.0
 10
361.7337423310441
 20
39.4322222843214
 30
0.0
 10
361.7337423310441
 20
39.4322222843214
 30
0.0
 10
241.9420756643985
 20
44.42788012113569
 30
0.0
 10
241.9420756643985
 20
44.42788012113569
 30
0.0
 10
228.1469474712363
 20
45.00317673552013
 30
0.0
 10
216.4974164281933
 20
34.28638579700819
 30
0.0
 10
215.9221198137791
 20
20.49125760386592
 30
0.0
 10
215.3468231993641
 20
6.696129410723657
 30
0.0
 10
226.0636141378761
 20
-4.953401632319609
 30
0.0
 10
239.8587423310177
 20
-5.528698246734206
 30
0.0
 10
240.5528851053693
 20
-5.557646001507822
 30
0.0
 10
241.2479328900276
 20
-5.557646001507822
 30
0.0
 10
241.9420756643985
 20
-5.528698246714313
 30
0.0
 10
241.9420756643985
 20
-5.528698246714313
 30
0.0
 10
361.7337423310441
 20
-0.5330404099503929
 30
0.0
 10
361.7337423310441
 20
-0.5330404099503929
 30
0.0
  0
ENDBLK
  5
2FC
330
2F9
100
AcDbEntity
  8
0
100
AcDbBlockEnd
  0
BLOCK
  5
300
330
2FE
100
AcDbEntity
  8
0
100
AcDbBlockBegin
  2
block 28
 70
     0
 10
0.0
 20
0.0
 30
0.0
  3
block 28
  1

  0
SPLINE
  5
302
330
2FE
100
AcDbEntity
  8
Capa 1
 62
     7
370
    25
100
AcDbSpline
210
0.0
220
0.0
230
1.0
 70
    11
 71
     3
 72
    20
 73
    16
 74
     0
 42
0.0000000001
 43
0.0000000001
 12
1.0
 22
0.0
 32
0.0
 13
1.0
 23
0.0
 33
0.0
 40
0.0
 40
0.0
 40
0.0
 40
0.0
 40
1.0
 40
1.0
 40
1.0
 40
2.0
 40
2.0
 40
2.0
 40
3.0
 40
3.0
 40
3.0
 40
4.0
 40
4.0
 40
4.0
 40
5.0
 40
5.0
 40
5.0
 40
5.0
 10
236.9004089976983
 20
19.4495909371855
 30
0.0
 10
236.9004089976983
 20
21.65872993650868
 30
0.0
 10
238.6912699983753
 20
23.44959093718564
 30
0.0
 10
240.9004089976985
 20
23.44959093718564
 30
0.0
 10
243.1095479970216
 20
23.44959093718564
 30
0.0
 10
244.9004089976986
 20
21.65872993650868
 30
0.0
 10
244.9004089976986
 20
19.4495909371855
 30
0.0
 10
244.9004089976986
 20
17.24045193786232
 30
0.0
 10
243.1095479970216
 20
15.44959093718568
 30
0.0
 10
240.9004089976985
 20
15.44959093718568
 30
0.0
 10
238.6912699983753
 20
15.44959093718568
 30
0.0
 10
236.9004089976983
 20
17.24045193786232
 30
0.0
 10
236.9004089976983
 20
19.4495909371855
 30
0.0
 10
236.9004089976983
 20
19.4495909371855
 30
0.0
 10
236.9004089976983
 20
19.4495909371855
 30
0.0
 10
236.9004089976983
 20
19.4495909371855
 30
0.0
  0
ENDBLK
  5
301
330
2FE
100
AcDbEntity
  8
0
100
AcDbBlockEnd
  0
BLOCK
  5
305
330
303
100
AcDbEntity
  8
0
100
AcDbBlockBegin
  2
block 29
 70
     0
 10
0.0
 20
0.0
 30
0.0
  3
block 29
  1

  0
INSERT
  5
308
330
303
100
AcDbEntity
  8
Capa 1
100
AcDbBlockReference
  2
block 30
 10
0.0
 20
0.0
 30
0.0
  0
INSERT
  5
30D
330
303
100
AcDbEntity
  8
Capa 1
100
AcDbBlockReference
  2
block 31
 10
0.0
 20
0.0
 30
0.0
  0
INSERT
  5
312
330
303
100
AcDbEntity
  8
Capa 1
100
AcDbBlockReference
  2
block 32
 10
0.0
 20
0.0
 30
0.0
  0
ENDBLK
  5
306
330
303
100
AcDbEntity
  8
0
100
AcDbBlockEnd
  0
BLOCK
  5
309
330
307
100
AcDbEntity
  8
0
100
AcDbBlockBegin
  2
block 30
 70
     0
 10
0.0
 20
0.0
 30
0.0
  3
block 30
  1

  0
SPLINE
  5
30B
330
307
100
AcDbEntity
  8
Capa 1
 62
     7
370
    25
100
AcDbSpline
210
0.0
220
0.0
230
1.0
 70
    11
 71
     3
 72
    20
 73
    16
 74
     0
 42
0.0000000001
 43
0.0000000001
 12
1.0
 22
0.0
 32
0.0
 13
1.0
 23
0.0
 33
0.0
 40
0.0
 40
0.0
 40
0.0
 40
0.0
 40
1.0
 40
1.0
 40
1.0
 40
2.0
 40
2.0
 40
2.0
 40
3.0
 40
3.0
 40
3.0
 40
4.0
 40
4.0
 40
4.0
 40
5.0
 40
5.0
 40
5.0
 40
5.0
 10
56.62532722943257
 20
18.65040905326094
 30
0.0
 10
56.62532722943257
 20
24.72554130140017
 30
0.0
 10
61.55019498129373
 20
29.65040905326133
 30
0.0
 10
67.62532722943295
 20
29.65040905326133
 30
0.0
 10
73.70045947757154
 20
29.65040905326133
 30
0.0
 10
78.62532722943303
 20
24.72554130140017
 30
0.0
 10
78.62532722943303
 20
18.65040905326094
 30
0.0
 10
78.62532722943303
 20
12.57527680512236
 30
0.0
 10
73.70045947757154
 20
7.650409053261198
 30
0.0
 10
67.62532722943232
 20
7.650409053261198
 30
0.0
 10
61.55019498129373
 20
7.650409053261198
 30
0.0
 10
56.62532722943257
 20
12.57527680512236
 30
0.0
 10
56.62532722943257
 20
18.65040905326094
 30
0.0
 10
56.62532722943257
 20
18.65040905326094
 30
0.0
 10
56.62532722943257
 20
18.65040905326094
 30
0.0
 10
56.62532722943257
 20
18.65040905326094
 30
0.0
  0
ENDBLK
  5
30A
330
307
100
AcDbEntity
  8
0
100
AcDbBlockEnd
  0
BLOCK
  5
30E
330
30C
100
AcDbEntity
  8
0
100
AcDbBlockBegin
  2
block 31
 70
     0
 10
0.0
 20
0.0
 30
0.0
  3
block 31
  1

  0
SPLINE
  5
310
330
30C
100
AcDbEntity
  8
Capa 1
 62
     7
370
    25
100
AcDbSpline
210
0.0
220
0.0
230
1.0
 70
    11
 71
     3
 72
    20
 73
    16
 74
     0
 42
0.0000000001
 43
0.0000000001
 12
1.0
 22
0.0
 32
0.0
 13
1.0
 23
0.0
 33
0.0
 40
0.0
 40
0.0
 40
0.0
 40
0.0
 40
1.0
 40
1.0
 40
1.0
 40
2.0
 40
2.0
 40
2.0
 40
3.0
 40
3.0
 40
3.0
 40
4.0
 40
4.0
 40
4.0
 40
5.0
 40
5.0
 40
5.0
 40
5.0
 10
183.6253272294322
 20
18.65040905326094
 30
0.0
 10
183.6253272294322
 20
20.85954805258412
 30
0.0
 10
185.4161882301098
 20
22.65040905326109
 30
0.0
 10
187.6253272294324
 20
22.65040905326109
 30
0.0
 10
189.8344662287562
 20
22.65040905326109
 30
0.0
 10
191.6253272294325
 20
20.85954805258412
 30
0.0
 10
191.6253272294325
 20
18.65040905326094
 30
0.0
 10
191.6253272294325
 20
16.44127005393776
 30
0.0
 10
189.8344662287562
 20
14.65040905326144
 30
0.0
 10
187.6253272294324
 20
14.65040905326144
 30
0.0
 10
185.4161882301098
 20
14.65040905326144
 30
0.0
 10
183.6253272294322
 20
16.44127005393776
 30
0.0
 10
183.6253272294322
 20
18.65040905326094
 30
0.0
 10
183.6253272294322
 20
18.65040905326094
 30
0.0
 10
183.6253272294322
 20
18.65040905326094
 30
0.0
 10
183.6253272294322
 20
18.65040905326094
 30
0.0
  0
ENDBLK
  5
30F
330
30C
100
AcDbEntity
  8
0
100
AcDbBlockEnd
  0
BLOCK
  5
313
330
311
100
AcDbEntity
  8
0
100
AcDbBlockBegin
  2
block 32
 70
     0
 10
0.0
 20
0.0
 30
0.0
  3
block 32
  1

  0
SPLINE
  5
315
330
311
100
AcDbEntity
  8
Capa 1
 62
     7
370
    25
100
AcDbSpline
210
0.0
220
0.0
230
1.0
 70
    11
 71
     3
 72
    26
 73
    22
 74
     0
 42
0.0000000001
 43
0.0000000001
 12
1.0
 22
0.0
 32
0.0
 13
1.0
 23
0.0
 33
0.0
 40
0.0
 40
0.0
 40
0.0
 40
0.0
 40
1.0
 40
1.0
 40
1.0
 40
2.0
 40
2.0
 40
2.0
 40
3.0
 40
3.0
 40
3.0
 40
4.0
 40
4.0
 40
4.0
 40
5.0
 40
5.0
 40
5.0
 40
6.0
 40
6.0
 40
6.0
 40
7.0
 40
7.0
 40
7.0
 40
7.0
 10
186.5836605627831
 20
43.62869823716108
 30
0.0
 10
186.5836605627831
 20
43.62869823716108
 30
0.0
 10
66.79199389613264
 20
38.63304040036122
 30
0.0
 10
66.79199389613264
 20
38.63304040036122
 30
0.0
 10
55.75589134157455
 20
38.17280310886548
 30
0.0
 10
47.18245859076539
 20
28.85317827443081
 30
0.0
 10
47.64269588229706
 20
17.81707571991699
 30
0.0
 10
48.07603387734452
 20
7.425995635560435
 30
0.0
 10
56.4009138117318
 20
-0.8988842988268465
 30
0.0
 10
66.79199389613264
 20
-1.332222293889068
 30
0.0
 10
66.79199389613264
 20
-1.332222293889068
 30
0.0
 10
186.5836605627523
 20
-6.327880130658444
 30
0.0
 10
186.5836605627523
 20
-6.327880130658444
 30
0.0
 10
200.3787887558952
 20
-6.90317674507272
 30
0.0
 10
212.0283197989381
 20
3.813614193438581
 30
0.0
 10
212.6036164133524
 20
17.60874238658085
 30
0.0
 10
213.1789130277667
 20
31.40387057972311
 30
0.0
 10
202.4621220892554
 20
43.05340162276637
 30
0.0
 10
188.6669938961125
 20
43.62869823718097
 30
0.0
 10
187.9728511217622
 20
43.65764599195459
 30
0.0
 10
187.2778033371038
 20
43.65764599195459
 30
0.0
 10
186.5836605627831
 20
43.62869823716108
 30
0.0
  0
ENDBLK
  5
314
330
311
100
AcDbEntity
  8
0
100
AcDbBlockEnd
  0
BLOCK
  5
318
330
316
100
AcDbEntity
  8
0
100
AcDbBlockBegin
  2
block 33
 70
     0
 10
0.0
 20
0.0
 30
0.0
  3
block 33
  1

  0
INSERT
  5
31B
330
316
100
AcDbEntity
  8
Capa 1
100
AcDbBlockReference
  2
block 34
 10
0.0
 20
0.0
 30
0.0
  0
INSERT
  5
320
330
316
100
AcDbEntity
  8
Capa 1
100
AcDbBlockReference
  2
block 35
 10
0.0
 20
0.0
 30
0.0
  0
INSERT
  5
325
330
316
100
AcDbEntity
  8
Capa 1
100
AcDbBlockReference
  2
block 36
 10
0.0
 20
0.0
 30
0.0
  0
INSERT
  5
330
330
316
100
AcDbEntity
  8
Capa 1
100
AcDbBlockReference
  2
block 37
 10
0.0
 20
0.0
 30
0.0
  0
INSERT
  5
33B
330
316
100
AcDbEntity
  8
Capa 1
100
AcDbBlockReference
  2
block 38
 10
0.0
 20
0.0
 30
0.0
  0
ENDBLK
  5
319
330
316
100
AcDbEntity
  8
0
100
AcDbBlockEnd
  0
BLOCK
  5
31C
330
31A
100
AcDbEntity
  8
0
100
AcDbBlockBegin
  2
block 34
 70
     0
 10
0.0
 20
0.0
 30
0.0
  3
block 34
  1

  0
SPLINE
  5
31E
330
31A
100
AcDbEntity
  8
Capa 1
 62
     7
370
    25
100
AcDbSpline
210
0.0
220
0.0
230
1.0
 70
    11
 71
     3
 72
    20
 73
    16
 74
     0
 42
0.0000000001
 43
0.0000000001
 12
1.0
 22
0.0
 32
0.0
 13
1.0
 23
0.0
 33
0.0
 40
0.0
 40
0.0
 40
0.0
 40
0.0
 40
1.0
 40
1.0
 40
1.0
 40
2.0
 40
2.0
 40
2.0
 40
3.0
 40
3.0
 40
3.0
 40
4.0
 40
4.0
 40
4.0
 40
5.0
 40
5.0
 40
5.0
 40
5.0
 10
215.3999998984093
 20
-43.17744126440796
 30
0.0
 10
215.3999979130875
 20
-37.10230901626938
 30
0.0
 10
220.3248640555264
 20
-32.17743965498724
 30
0.0
 10
226.3999963036649
 20
-32.17743766966474
 30
0.0
 10
232.4751285518029
 20
-32.17743568434224
 30
0.0
 10
237.3999979130863
 20
-37.10230182678179
 30
0.0
 10
237.3999998984088
 20
-43.17743407491973
 30
0.0
 10
237.4000018837307
 20
-49.25256632305832
 30
0.0
 10
232.4751357412905
 20
-54.17743568434174
 30
0.0
 10
226.4000034931526
 20
-54.17743766966359
 30
0.0
 10
220.3248712450146
 20
-54.17743965498609
 30
0.0
 10
215.4000018837312
 20
-49.25257351254591
 30
0.0
 10
215.3999998984093
 20
-43.17744126440796
 30
0.0
 10
215.3999998984093
 20
-43.17744126440796
 30
0.0
 10
215.3999998984093
 20
-43.17744126440796
 30
0.0
 10
215.3999998984093
 20
-43.17744126440796
 30
0.0
  0
ENDBLK
  5
31D
330
31A
100
AcDbEntity
  8
0
100
AcDbBlockEnd
  0
BLOCK
  5
321
330
31F
100
AcDbEntity
  8
0
100
AcDbBlockBegin
  2
block 35
 70
     0
 10
0.0
 20
0.0
 30
0.0
  3
block 35
  1

  0
SPLINE
  5
323
330
31F
100
AcDbEntity
  8
Capa 1
 62
     7
370
    25
100
AcDbSpline
210
0.0
220
0.0
230
1.0
 70
    11
 71
     3
 72
    20
 73
    16
 74
     0
 42
0.0000000001
 43
0.0000000001
 12
1.0
 22
0.0
 32
0.0
 13
1.0
 23
0.0
 33
0.0
 40
0.0
 40
0.0
 40
0.0
 40
0.0
 40
1.0
 40
1.0
 40
1.0
 40
2.0
 40
2.0
 40
2.0
 40
3.0
 40
3.0
 40
3.0
 40
4.0
 40
4.0
 40
4.0
 40
5.0
 40
5.0
 40
5.0
 40
5.0
 10
362.3999998983998
 20
-43.17739322555821
 30
0.0
 10
362.3999991764652
 20
-40.96825422623568
 30
0.0
 10
364.1908595918973
 20
-39.17739264031379
 30
0.0
 10
366.3999985912204
 20
-39.17739191837863
 30
0.0
 10
368.6091375905443
 20
-39.17739119644283
 30
0.0
 10
370.3999991764649
 20
-40.96825161187615
 30
0.0
 10
370.3999998984
 20
-43.17739061119868
 30
0.0
 10
370.4000006203352
 20
-45.38652961052186
 30
0.0
 10
368.6091402049025
 20
-47.17739119644311
 30
0.0
 10
366.4000012055793
 20
-47.17739191837827
 30
0.0
 10
364.1908622062562
 20
-47.17739264031344
 30
0.0
 10
362.4000006203349
 20
-45.38653222488075
 30
0.0
 10
362.3999998983998
 20
-43.17739322555821
 30
0.0
 10
362.3999998983998
 20
-43.17739322555821
 30
0.0
 10
362.3999998983998
 20
-43.17739322555821
 30
0.0
 10
362.3999998983998
 20
-43.17739322555821
 30
0.0
  0
ENDBLK
  5
322
330
31F
100
AcDbEntity
  8
0
100
AcDbBlockEnd
  0
BLOCK
  5
326
330
324
100
AcDbEntity
  8
0
100
AcDbBlockBegin
  2
block 36
 70
     0
 10
0.0
 20
0.0
 30
0.0
  3
block 36
  1

  0
POLYLINE
  5
328
330
324
100
AcDbEntity
  8
Capa 1
 62
     7
370
    25
100
AcDb2dPolyline
 66
     1
 10
0.0
 20
0.0
 30
0.0
  0
VERTEX
  5
329
330
328
100
AcDbEntity
  8
Capa 1
 62
     7
370
    25
100
AcDbVertex
100
AcDb2dVertex
 10
319.900001532378
 20
-48.17740711434096
 30
0.0
  0
VERTEX
  5
32A
330
328
100
AcDbEntity
  8
Capa 1
 62
     7
370
    25
100
AcDbVertex
100
AcDb2dVertex
 10
322.9000015323775
 20
-48.17740613395637
 30
0.0
  0
VERTEX
  5
32B
330
328
100
AcDbEntity
  8
Capa 1
 62
     7
370
    25
100
AcDbVertex
100
AcDb2dVertex
 10
322.9000048003267
 20
-58.17740613395544
 30
0.0
  0
VERTEX
  5
32C
330
328
100
AcDbEntity
  8
Capa 1
 62
     7
370
    25
100
AcDbVertex
100
AcDb2dVertex
 10
319.9000048003266
 20
-58.17740711434003
 30
0.0
  0
VERTEX
  5
32D
330
328
100
AcDbEntity
  8
Capa 1
 62
     7
370
    25
100
AcDbVertex
100
AcDb2dVertex
 10
319.900001532378
 20
-48.17740711434096
 30
0.0
  0
SEQEND
  5
32E
330
328
100
AcDbEntity
  8
Capa 1
 62
     7
370
    25
  0
ENDBLK
  5
327
330
324
100
AcDbEntity
  8
0
100
AcDbBlockEnd
  0
BLOCK
  5
331
330
32F
100
AcDbEntity
  8
0
100
AcDbBlockBegin
  2
block 37
 70
     0
 10
0.0
 20
0.0
 30
0.0
  3
block 37
  1

  0
POLYLINE
  5
333
330
32F
100
AcDbEntity
  8
Capa 1
 62
     7
370
    25
100
AcDb2dPolyline
 66
     1
 10
0.0
 20
0.0
 30
0.0
  0
VERTEX
  5
334
330
333
100
AcDbEntity
  8
Capa 1
 62
     7
370
    25
100
AcDbVertex
100
AcDb2dVertex
 10
319.8999949964795
 20
-28.17740711434218
 30
0.0
  0
VERTEX
  5
335
330
333
100
AcDbEntity
  8
Capa 1
 62
     7
370
    25
100
AcDbVertex
100
AcDb2dVertex
 10
322.8999949964802
 20
-28.17740613395695
 30
0.0
  0
VERTEX
  5
336
330
333
100
AcDbEntity
  8
Capa 1
 62
     7
370
    25
100
AcDbVertex
100
AcDb2dVertex
 10
322.8999982644289
 20
-38.17740613395762
 30
0.0
  0
VERTEX
  5
337
330
333
100
AcDbEntity
  8
Capa 1
 62
     7
370
    25
100
AcDbVertex
100
AcDb2dVertex
 10
319.8999982644287
 20
-38.17740711434189
 30
0.0
  0
VERTEX
  5
338
330
333
100
AcDbEntity
  8
Capa 1
 62
     7
370
    25
100
AcDbVertex
100
AcDb2dVertex
 10
319.8999949964795
 20
-28.17740711434218
 30
0.0
  0
SEQEND
  5
339
330
333
100
AcDbEntity
  8
Capa 1
 62
     7
370
    25
  0
ENDBLK
  5
332
330
32F
100
AcDbEntity
  8
0
100
AcDbBlockEnd
  0
BLOCK
  5
33C
330
33A
100
AcDbEntity
  8
0
100
AcDbBlockBegin
  2
block 38
 70
     0
 10
0.0
 20
0.0
 30
0.0
  3
block 38
  1

  0
SPLINE
  5
33E
330
33A
100
AcDbEntity
  8
Capa 1
 62
     7
370
    25
100
AcDbSpline
210
0.0
220
0.0
230
1.0
 70
    11
 71
     3
 72
    50
 73
    46
 74
     0
 42
0.0000000001
 43
0.0000000001
 12
1.0
 22
0.0
 32
0.0
 13
1.0
 23
0.0
 33
0.0
 40
0.0
 40
0.0
 40
0.0
 40
0.0
 40
1.0
 40
1.0
 40
1.0
 40
2.0
 40
2.0
 40
2.0
 40
3.0
 40
3.0
 40
3.0
 40
4.0
 40
4.0
 40
4.0
 40
5.0
 40
5.0
 40
5.0
 40
6.0
 40
6.0
 40
6.0
 40
7.0
 40
7.0
 40
7.0
 40
8.0
 40
8.0
 40
8.0
 40
9.0
 40
9.0
 40
9.0
 40
10.0
 40
10.0
 40
10.0
 40
11.0
 40
11.0
 40
11.0
 40
12.0
 40
12.0
 40
12.0
 40
13.0
 40
13.0
 40
13.0
 40
14.0
 40
14.0
 40
14.0
 40
15.0
 40
15.0
 40
15.0
 40
15.0
 10
403.4809972357712
 20
-58.17737980049807
 30
0.0
 10
403.4809972357712
 20
-58.17737980049807
 30
0.0
 10
400.9000048003211
 20
-58.1773806439537
 30
0.0
 10
400.9000048003211
 20
-58.1773806439537
 30
0.0
 10
400.9000048003211
 20
-58.1773806439537
 30
0.0
 10
400.9000015323751
 20
-48.17738064395399
 30
0.0
 10
400.9000015323751
 20
-48.17738064395399
 30
0.0
 10
400.9000015323751
 20
-48.17738064395399
 30
0.0
 10
403.9000015323752
 20
-48.1773796635694
 30
0.0
 10
403.9000015323752
 20
-48.1773796635694
 30
0.0
 10
403.9000015323752
 20
-48.1773796635694
 30
0.0
 10
403.9000044471911
 20
-57.09679057061943
 30
0.0
 10
403.9000044471911
 20
-57.09679057061943
 30
0.0
 10
407.2333348458185
 20
-48.11652437998474
 30
0.0
 10
407.2333316176444
 20
-38.23823276852195
 30
0.0
 10
403.8999953496056
 20
-29.25796875647025
 30
0.0
 10
403.8999953496056
 20
-29.25796875647025
 30
0.0
 10
403.8999982644253
 20
-38.17737966357033
 30
0.0
 10
403.8999982644253
 20
-38.17737966357033
 30
0.0
 10
403.8999982644253
 20
-38.17737966357033
 30
0.0
 10
400.8999982644252
 20
-38.17738064395492
 30
0.0
 10
400.8999982644252
 20
-38.17738064395492
 30
0.0
 10
400.8999982644252
 20
-38.17738064395492
 30
0.0
 10
400.8999949964753
 20
-28.1773806439552
 30
0.0
 10
400.8999949964753
 20
-28.1773806439552
 30
0.0
 10
400.8999949964753
 20
-28.1773806439552
 30
0.0
 10
403.4809874319638
 20
-28.17737980052716
 30
0.0
 10
403.4809874319638
 20
-28.17737980052716
 30
0.0
 10
396.5759854797973
 20
-11.10777416981686
 30
0.0
 10
378.9101644564486
 20
-0.957180276582429
 30
0.0
 10
360.6857012463785
 20
-3.587661041330048
 30
0.0
 10
360.6857012463785
 20
-3.587661041330048
 30
0.0
 10
223.5428505724183
 20
-23.38257223114751
 30
0.0
 10
223.5428505724183
 20
-23.38257223114751
 30
0.0
 10
212.6104482657724
 20
-24.96053223188114
 30
0.0
 10
205.0271744591578
 20
-35.10218468900937
 30
0.0
 10
206.6051344598921
 20
-46.0345869956556
 30
0.0
 10
207.8719094677237
 20
-54.8110414122305
 30
0.0
 10
214.7664082656151
 20
-61.70553570394956
 30
0.0
 10
223.5428635101201
 20
-62.97230497556225
 30
0.0
 10
223.5428635101201
 20
-62.97230497556225
 30
0.0
 10
360.685727121863
 20
-82.76712653021151
 30
0.0
 10
360.685727121863
 20
-82.76712653021151
 30
0.0
 10
378.910192051143
 20
-85.3975953836498
 30
0.0
 10
396.5760064401662
 20
-75.24698994421739
 30
0.0
 10
403.4809972357712
 20
-58.17737980049807
 30
0.0
  0
ENDBLK
  5
33D
330
33A
100
AcDbEntity
  8
0
100
AcDbBlockEnd
  0
BLOCK
  5
341
330
33F
100
AcDbEntity
  8
0
100
AcDbBlockBegin
  2
block 39
 70
     0
 10
0.0
 20
0.0
 30
0.0
  3
block 39
  1

  0
INSERT
  5
344
330
33F
100
AcDbEntity
  8
Capa 1
100
AcDbBlockReference
  2
block 40
 10
0.0
 20
0.0
 30
0.0
  0
INSERT
  5
349
330
33F
100
AcDbEntity
  8
Capa 1
100
AcDbBlockReference
  2
block 41
 10
0.0
 20
0.0
 30
0.0
  0
INSERT
  5
34E
330
33F
100
AcDbEntity
  8
Capa 1
100
AcDbBlockReference
  2
block 42
 10
0.0
 20
0.0
 30
0.0
  0
INSERT
  5
359
330
33F
100
AcDbEntity
  8
Capa 1
100
AcDbBlockReference
  2
block 43
 10
0.0
 20
0.0
 30
0.0
  0
INSERT
  5
364
330
33F
100
AcDbEntity
  8
Capa 1
100
AcDbBlockReference
  2
block 44
 10
0.0
 20
0.0
 30
0.0
  0
ENDBLK
  5
342
330
33F
100
AcDbEntity
  8
0
100
AcDbBlockEnd
  0
BLOCK
  5
345
330
343
100
AcDbEntity
  8
0
100
AcDbBlockBegin
  2
block 40
 70
     0
 10
0.0
 20
0.0
 30
0.0
  3
block 40
  1

  0
SPLINE
  5
347
330
343
100
AcDbEntity
  8
Capa 1
 62
     7
370
    25
100
AcDbSpline
210
0.0
220
0.0
230
1.0
 70
    11
 71
     3
 72
    20
 73
    16
 74
     0
 42
0.0000000001
 43
0.0000000001
 12
1.0
 22
0.0
 32
0.0
 13
1.0
 23
0.0
 33
0.0
 40
0.0
 40
0.0
 40
0.0
 40
0.0
 40
1.0
 40
1.0
 40
1.0
 40
2.0
 40
2.0
 40
2.0
 40
3.0
 40
3.0
 40
3.0
 40
4.0
 40
4.0
 40
4.0
 40
5.0
 40
5.0
 40
5.0
 40
5.0
 10
172.1749999991968
 20
-42.54756590365993
 30
0.0
 10
172.1749980138743
 20
-36.47243365552135
 30
0.0
 10
177.0998641563151
 20
-31.54756429423857
 30
0.0
 10
183.1749964044531
 20
-31.54756230891607
 30
0.0
 10
189.2501286525917
 20
-31.54756032359422
 30
0.0
 10
194.1749980138744
 20
-36.47242646603376
 30
0.0
 10
194.174999999197
 20
-42.5475587141717
 30
0.0
 10
194.1750019845188
 20
-48.62269096231029
 30
0.0
 10
189.2501358420799
 20
-53.54756032359307
 30
0.0
 10
183.1750035939413
 20
-53.54756230891492
 30
0.0
 10
177.0998713458027
 20
-53.54756429423742
 30
0.0
 10
172.1750019845193
 20
-48.62269815179788
 30
0.0
 10
172.1749999991968
 20
-42.54756590365993
 30
0.0
 10
172.1749999991968
 20
-42.54756590365993
 30
0.0
 10
172.1749999991968
 20
-42.54756590365993
 30
0.0
 10
172.1749999991968
 20
-42.54756590365993
 30
0.0
  0
ENDBLK
  5
346
330
343
100
AcDbEntity
  8
0
100
AcDbBlockEnd
  0
BLOCK
  5
34A
330
348
100
AcDbEntity
  8
0
100
AcDbBlockBegin
  2
block 41
 70
     0
 10
0.0
 20
0.0
 30
0.0
  3
block 41
  1

  0
SPLINE
  5
34C
330
348
100
AcDbEntity
  8
Capa 1
 62
     7
370
    25
100
AcDbSpline
210
0.0
220
0.0
230
1.0
 70
    11
 71
     3
 72
    20
 73
    16
 74
     0
 42
0.0000000001
 43
0.0000000001
 12
1.0
 22
0.0
 32
0.0
 13
1.0
 23
0.0
 33
0.0
 40
0.0
 40
0.0
 40
0.0
 40
0.0
 40
1.0
 40
1.0
 40
1.0
 40
2.0
 40
2.0
 40
2.0
 40
3.0
 40
3.0
 40
3.0
 40
4.0
 40
4.0
 40
4.0
 40
5.0
 40
5.0
 40
5.0
 40
5.0
 10
39.17499999920496
 20
-42.54760936738098
 30
0.0
 10
39.17499927726979
 20
-40.33847036805748
 30
0.0
 10
40.96585969270183
 20
-38.54760878213656
 30
0.0
 10
43.17499869202533
 20
-38.54760806020139
 30
0.0
 10
45.38413769134787
 20
-38.54760733826623
 30
0.0
 10
47.17499927726911
 20
-40.33846775369827
 30
0.0
 10
47.17499999920427
 20
-42.54760675302145
 30
0.0
 10
47.17500072113976
 20
-44.75674575234399
 30
0.0
 10
45.38414030570708
 20
-46.54760733826587
 30
0.0
 10
43.17500130638454
 20
-46.54760806020104
 30
0.0
 10
40.96586230706104
 20
-46.54760878213683
 30
0.0
 10
39.17500072114044
 20
-44.75674836670352
 30
0.0
 10
39.17499999920496
 20
-42.54760936738098
 30
0.0
 10
39.17499999920496
 20
-42.54760936738098
 30
0.0
 10
39.17499999920496
 20
-42.54760936738098
 30
0.0
 10
39.17499999920496
 20
-42.54760936738098
 30
0.0
  0
ENDBLK
  5
34B
330
348
100
AcDbEntity
  8
0
100
AcDbBlockEnd
  0
BLOCK
  5
34F
330
34D
100
AcDbEntity
  8
0
100
AcDbBlockBegin
  2
block 42
 70
     0
 10
0.0
 20
0.0
 30
0.0
  3
block 42
  1

  0
POLYLINE
  5
351
330
34D
100
AcDbEntity
  8
Capa 1
 62
     7
370
    25
100
AcDb2dPolyline
 66
     1
 10
0.0
 20
0.0
 30
0.0
  0
VERTEX
  5
352
330
351
100
AcDbEntity
  8
Capa 1
 62
     7
370
    25
100
AcDbVertex
100
AcDb2dVertex
 10
86.67500490112602
 20
-57.54759384462271
 30
0.0
  0
VERTEX
  5
353
330
351
100
AcDbEntity
  8
Capa 1
 62
     7
370
    25
100
AcDbVertex
100
AcDb2dVertex
 10
86.67500163317709
 20
-47.54759384462236
 30
0.0
  0
VERTEX
  5
354
330
351
100
AcDbEntity
  8
Capa 1
 62
     7
370
    25
100
AcDbVertex
100
AcDb2dVertex
 10
89.67500163317655
 20
-47.54759286423745
 30
0.0
  0
VERTEX
  5
355
330
351
100
AcDbEntity
  8
Capa 1
 62
     7
370
    25
100
AcDbVertex
100
AcDb2dVertex
 10
89.67500490112549
 20
-57.54759286423748
 30
0.0
  0
VERTEX
  5
356
330
351
100
AcDbEntity
  8
Capa 1
 62
     7
370
    25
100
AcDbVertex
100
AcDb2dVertex
 10
86.67500490112602
 20
-57.54759384462271
 30
0.0
  0
SEQEND
  5
357
330
351
100
AcDbEntity
  8
Capa 1
 62
     7
370
    25
  0
ENDBLK
  5
350
330
34D
100
AcDbEntity
  8
0
100
AcDbBlockEnd
  0
BLOCK
  5
35A
330
358
100
AcDbEntity
  8
0
100
AcDbBlockBegin
  2
block 43
 70
     0
 10
0.0
 20
0.0
 30
0.0
  3
block 43
  1

  0
POLYLINE
  5
35C
330
358
100
AcDbEntity
  8
Capa 1
 62
     7
370
    25
100
AcDb2dPolyline
 66
     1
 10
0.0
 20
0.0
 30
0.0
  0
VERTEX
  5
35D
330
35C
100
AcDbEntity
  8
Capa 1
 62
     7
370
    25
100
AcDbVertex
100
AcDb2dVertex
 10
86.67499836522815
 20
-37.54759384462265
 30
0.0
  0
VERTEX
  5
35E
330
35C
100
AcDbEntity
  8
Capa 1
 62
     7
370
    25
100
AcDbVertex
100
AcDb2dVertex
 10
86.67499509727922
 20
-27.54759384462422
 30
0.0
  0
VERTEX
  5
35F
330
35C
100
AcDbEntity
  8
Capa 1
 62
     7
370
    25
100
AcDbVertex
100
AcDb2dVertex
 10
89.67499509727837
 20
-27.54759286423899
 30
0.0
  0
VERTEX
  5
360
330
35C
100
AcDbEntity
  8
Capa 1
 62
     7
370
    25
100
AcDbVertex
100
AcDb2dVertex
 10
89.67499836522762
 20
-37.54759286423806
 30
0.0
  0
VERTEX
  5
361
330
35C
100
AcDbEntity
  8
Capa 1
 62
     7
370
    25
100
AcDbVertex
100
AcDb2dVertex
 10
86.67499836522815
 20
-37.54759384462265
 30
0.0
  0
SEQEND
  5
362
330
35C
100
AcDbEntity
  8
Capa 1
 62
     7
370
    25
  0
ENDBLK
  5
35B
330
358
100
AcDbEntity
  8
0
100
AcDbBlockEnd
  0
BLOCK
  5
365
330
363
100
AcDbEntity
  8
0
100
AcDbBlockBegin
  2
block 44
 70
     0
 10
0.0
 20
0.0
 30
0.0
  3
block 44
  1

  0
SPLINE
  5
367
330
363
100
AcDbEntity
  8
Capa 1
 62
     7
370
    25
100
AcDbSpline
210
0.0
220
0.0
230
1.0
 70
    11
 71
     3
 72
    50
 73
    46
 74
     0
 42
0.0000000001
 43
0.0000000001
 12
1.0
 22
0.0
 32
0.0
 13
1.0
 23
0.0
 33
0.0
 40
0.0
 40
0.0
 40
0.0
 40
0.0
 40
1.0
 40
1.0
 40
1.0
 40
2.0
 40
2.0
 40
2.0
 40
3.0
 40
3.0
 40
3.0
 40
4.0
 40
4.0
 40
4.0
 40
5.0
 40
5.0
 40
5.0
 40
6.0
 40
6.0
 40
6.0
 40
7.0
 40
7.0
 40
7.0
 40
8.0
 40
8.0
 40
8.0
 40
9.0
 40
9.0
 40
9.0
 40
10.0
 40
10.0
 40
10.0
 40
11.0
 40
11.0
 40
11.0
 40
12.0
 40
12.0
 40
12.0
 40
13.0
 40
13.0
 40
13.0
 40
14.0
 40
14.0
 40
14.0
 40
15.0
 40
15.0
 40
15.0
 40
15.0
 10
6.094012465630271
 20
-57.54762017807977
 30
0.0
 10
6.094012465630271
 20
-57.54762017807977
 30
0.0
 10
8.675004901130006
 20
-57.54761933462478
 30
0.0
 10
8.675004901130006
 20
-57.54761933462478
 30
0.0
 10
8.675004901130006
 20
-57.54761933462478
 30
0.0
 10
8.675001633181072
 20
-47.54761933462475
 30
0.0
 10
8.675001633181072
 20
-47.54761933462475
 30
0.0
 10
8.675001633181072
 20
-47.54761933462475
 30
0.0
 10
5.675001633181287
 20
-47.54762031500933
 30
0.0
 10
5.675001633181287
 20
-47.54762031500933
 30
0.0
 10
5.675001633181287
 20
-47.54762031500933
 30
0.0
 10
5.675004547999068
 20
-56.46703122210942
 30
0.0
 10
5.675004547999068
 20
-56.46703122210942
 30
0.0
 10
2.341668279963187
 20
-47.48676721005771
 30
0.0
 10
2.341665051787722
 20
-37.60847559859493
 30
0.0
 10
5.67499545041425
 20
-28.62820940796023
 30
0.0
 10
5.67499545041425
 20
-28.62820940796023
 30
0.0
 10
5.674998365232352
 20
-37.54762031500962
 30
0.0
 10
5.674998365232352
 20
-37.54762031500962
 30
0.0
 10
5.674998365232352
 20
-37.54762031500962
 30
0.0
 10
8.674998365232138
 20
-37.54761933462439
 30
0.0
 10
8.674998365232138
 20
-37.54761933462439
 30
0.0
 10
8.674998365232138
 20
-37.54761933462439
 30
0.0
 10
8.674995097283205
 20
-27.54761933462597
 30
0.0
 10
8.674995097283205
 20
-27.54761933462597
 30
0.0
 10
8.674995097283205
 20
-27.54761933462597
 30
0.0
 10
6.094002661793415
 20
-27.54762017810791
 30
0.0
 10
6.094002661793415
 20
-27.54762017810791
 30
0.0
 10
12.99899345744137
 20
-10.47801003436227
 30
0.0
 10
30.66480784646098
 20
-0.3274045949298608
 30
0.0
 10
48.88927277573172
 20
-2.95787344840344
 30
0.0
 10
48.88927277573172
 20
-2.95787344840344
 30
0.0
 10
186.0321363874656
 20
-22.7526950029988
 30
0.0
 10
186.0321363874656
 20
-22.7526950029988
 30
0.0
 10
194.8085916319899
 20
-24.01946427462946
 30
0.0
 10
201.7030904298826
 20
-30.91395856634916
 30
0.0
 10
202.9698654377142
 20
-39.69041298292503
 30
0.0
 10
204.5478254384478
 20
-50.62281528956966
 30
0.0
 10
196.9645516318339
 20
-60.76446774669852
 30
0.0
 10
186.0321493251578
 20
-62.34242774746488
 30
0.0
 10
186.0321493251578
 20
-62.34242774746488
 30
0.0
 10
48.88929865118604
 20
-82.13733893723422
 30
0.0
 10
48.88929865118604
 20
-82.13733893723422
 30
0.0
 10
30.66483544115762
 20
-84.76781970199724
 30
0.0
 10
12.99901441780959
 20
-74.6172258087628
 30
0.0
 10
6.094012465630271
 20
-57.54762017807977
 30
0.0
  0
ENDBLK
  5
366
330
363
100
AcDbEntity
  8
0
100
AcDbBlockEnd
  0
BLOCK
  5
36A
330
368
100
AcDbEntity
  8
0
100
AcDbBlockBegin
  2
block 45
 70
     0
 10
0.0
 20
0.0
 30
0.0
  3
block 45
  1

  0
SPLINE
  5
36C
330
368
100
AcDbEntity
  8
Capa 1
 62
     7
370
    25
100
AcDbSpline
210
0.0
220
0.0
230
1.0
 70
    11
 71
     3
 72
    17
 73
    13
 74
     0
 42
0.0000000001
 43
0.0000000001
 12
1.0
 22
0.0
 32
0.0
 13
1.0
 23
0.0
 33
0.0
 40
0.0
 40
0.0
 40
0.0
 40
0.0
 40
1.0
 40
1.0
 40
1.0
 40
2.0
 40
2.0
 40
2.0
 40
3.0
 40
3.0
 40
3.0
 40
4.0
 40
4.0
 40
4.0
 40
4.0
 10
37.99999999050002
 20
22.17499999445642
 30
0.0
 10
37.99999999050002
 20
11.68158975087965
 30
0.0
 10
29.49341023882566
 20
3.17499999920625
 30
0.0
 10
18.99999999524985
 20
3.17499999920625
 30
0.0
 10
8.506589751672761
 20
3.17499999920625
 30
0.0
 10
0.0
 20
11.68158975087965
 30
0.0
 10
0.0
 20
22.17499999445642
 30
0.0
 10
0.0
 20
32.66841023803319
 30
0.0
 10
8.506589751672761
 20
41.17499998970627
 30
0.0
 10
18.99999999524985
 20
41.17499998970627
 30
0.0
 10
29.49341023882566
 20
41.17499998970627
 30
0.0
 10
37.99999999050002
 20
32.66841023803319
 30
0.0
 10
37.99999999050002
 20
22.17499999445642
 30
0.0
  0
SPLINE
  5
36D
330
368
100
AcDbEntity
  8
Capa 1
 62
     7
370
    25
100
AcDbSpline
210
0.0
220
0.0
230
1.0
 70
    11
 71
     3
 72
    17
 73
    13
 74
     0
 42
0.0000000001
 43
0.0000000001
 12
1.0
 22
0.0
 32
0.0
 13
1.0
 23
0.0
 33
0.0
 40
0.0
 40
0.0
 40
0.0
 40
0.0
 40
1.0
 40
1.0
 40
1.0
 40
2.0
 40
2.0
 40
2.0
 40
3.0
 40
3.0
 40
3.0
 40
4.0
 40
4.0
 40
4.0
 40
4.0
 10
22.9999999942499
 20
22.17499999445674
 30
0.0
 10
22.9999999942499
 20
19.96586099580863
 30
0.0
 10
21.20913899389764
 20
18.17499999545637
 30
0.0
 10
18.99999999524985
 20
18.17499999545637
 30
0.0
 10
16.79086099660206
 20
18.17499999545637
 30
0.0
 10
14.9999999962498
 20
19.96586099580863
 30
0.0
 10
14.9999999962498
 20
22.17499999445674
 30
0.0
 10
14.9999999962498
 20
24.38413899310422
 30
0.0
 10
16.79086099660206
 20
26.17499999345648
 30
0.0
 10
18.99999999524985
 20
26.17499999345648
 30
0.0
 10
21.20913899389764
 20
26.17499999345648
 30
0.0
 10
22.9999999942499
 20
24.38413899310422
 30
0.0
 10
22.9999999942499
 20
22.17499999445674
 30
0.0
  0
ENDBLK
  5
36B
330
368
100
AcDbEntity
  8
0
100
AcDbBlockEnd
  0
BLOCK
  5
370
330
36E
100
AcDbEntity
  8
0
100
AcDbBlockBegin
  2
block 46
 70
     0
 10
0.0
 20
0.0
 30
0.0
  3
block 46
  1

  0
SPLINE
  5
372
330
36E
100
AcDbEntity
  8
Capa 1
 62
     7
370
    25
100
AcDbSpline
210
0.0
220
0.0
230
1.0
 70
    11
 71
     3
 72
    17
 73
    13
 74
     0
 42
0.0000000001
 43
0.0000000001
 12
1.0
 22
0.0
 32
0.0
 13
1.0
 23
0.0
 33
0.0
 40
0.0
 40
0.0
 40
0.0
 40
0.0
 40
1.0
 40
1.0
 40
1.0
 40
2.0
 40
2.0
 40
2.0
 40
3.0
 40
3.0
 40
3.0
 40
4.0
 40
4.0
 40
4.0
 40
4.0
 10
-3.224999999193578
 20
21.39999999464963
 30
0.0
 10
-3.224999999193578
 20
10.90658975107318
 30
0.0
 10
-11.73158975086859
 20
2.399999999399455
 30
0.0
 10
-22.22499999444375
 20
2.399999999399455
 30
0.0
 10
-32.71841023802116
 20
2.399999999399455
 30
0.0
 10
-41.22499998969393
 20
10.90658975107318
 30
0.0
 10
-41.22499998969393
 20
21.39999999464963
 30
0.0
 10
-41.22499998969393
 20
31.89341023822607
 30
0.0
 10
-32.71841023802116
 20
40.39999998990012
 30
0.0
 10
-22.22499999444375
 20
40.39999998990012
 30
0.0
 10
-11.73158975086859
 20
40.39999998990012
 30
0.0
 10
-3.224999999193578
 20
31.89341023822607
 30
0.0
 10
-3.224999999193578
 20
21.39999999464963
 30
0.0
  0
SPLINE
  5
373
330
36E
100
AcDbEntity
  8
Capa 1
 62
     7
370
    25
100
AcDbSpline
210
0.0
220
0.0
230
1.0
 70
    11
 71
     3
 72
    17
 73
    13
 74
     0
 42
0.0000000001
 43
0.0000000001
 12
1.0
 22
0.0
 32
0.0
 13
1.0
 23
0.0
 33
0.0
 40
0.0
 40
0.0
 40
0.0
 40
0.0
 40
1.0
 40
1.0
 40
1.0
 40
2.0
 40
2.0
 40
2.0
 40
3.0
 40
3.0
 40
3.0
 40
4.0
 40
4.0
 40
4.0
 40
4.0
 10
-18.22499999544402
 20
21.39999999464963
 30
0.0
 10
-18.22499999544402
 20
19.19086099600216
 30
0.0
 10
-20.01586099579628
 20
17.39999999564925
 30
0.0
 10
-22.22499999444375
 20
17.39999999564925
 30
0.0
 10
-24.43413899309186
 20
17.39999999564925
 30
0.0
 10
-26.22499999344413
 20
19.19086099600216
 30
0.0
 10
-26.22499999344413
 20
21.39999999464963
 30
0.0
 10
-26.22499999344413
 20
23.6091389932971
 30
0.0
 10
-24.43413899309186
 20
25.39999999365
 30
0.0
 10
-22.22499999444375
 20
25.39999999365
 30
0.0
 10
-20.01586099579628
 20
25.39999999365
 30
0.0
 10
-18.22499999544402
 20
23.6091389932971
 30
0.0
 10
-18.22499999544402
 20
21.39999999464963
 30
0.0
  0
ENDBLK
  5
371
330
36E
100
AcDbEntity
  8
0
100
AcDbBlockEnd
  0
ENDSEC
  0
SECTION
  2
ENTITIES
  0
INSERT
  5
42
330
1F
100
AcDbEntity
  8
Capa 1
100
AcDbBlockReference
  2
block 2
 10
0.0
 20
0.0
 30
0.0
  0
INSERT
  5
4D
330
1F
100
AcDbEntity
  8
Capa 1
100
AcDbBlockReference
  2
block 3
 10
0.0
 20
0.0
 30
0.0
  0
INSERT
  5
F6
330
1F
100
AcDbEntity
  8
Capa 1
100
AcDbBlockReference
  2
block 19
 10
0.0
 20
0.0
 30
0.0
  0
INSERT
  5
16A
330
1F
100
AcDbEntity
  8
Capa 1
100
AcDbBlockReference
  2
block 20
 10
0.0
 20
0.0
 30
0.0
  0
INSERT
  5
1FE
330
1F
100
AcDbEntity
  8
Capa 1
100
AcDbBlockReference
  2
block 21
 10
0.0
 20
0.0
 30
0.0
  0
INSERT
  5
292
330
1F
100
AcDbEntity
  8
Capa 1
100
AcDbBlockReference
  2
block 22
 10
0.0
 20
0.0
 30
0.0
  0
INSERT
  5
2AD
330
1F
100
AcDbEntity
  8
Capa 1
100
AcDbBlockReference
  2
block 23
 10
0.0
 20
0.0
 30
0.0
  0
INSERT
  5
2C8
330
1F
100
AcDbEntity
  8
Capa 1
100
AcDbBlockReference
  2
block 24
 10
0.0
 20
0.0
 30
0.0
  0
INSERT
  5
2F1
330
1F
100
AcDbEntity
  8
Capa 1
100
AcDbBlockReference
  2
block 25
 10
0.0
 20
0.0
 30
0.0
  0
INSERT
  5
304
330
1F
100
AcDbEntity
  8
Capa 1
100
AcDbBlockReference
  2
block 29
 10
0.0
 20
0.0
 30
0.0
  0
INSERT
  5
317
330
1F
100
AcDbEntity
  8
Capa 1
100
AcDbBlockReference
  2
block 33
 10
0.0
 20
0.0
 30
0.0
  0
INSERT
  5
340
330
1F
100
AcDbEntity
  8
Capa 1
100
AcDbBlockReference
  2
block 39
 10
0.0
 20
0.0
 30
0.0
  0
INSERT
  5
369
330
1F
100
AcDbEntity
  8
Capa 1
100
AcDbBlockReference
  2
block 45
 10
0.0
 20
0.0
 30
0.0
  0
INSERT
  5
36F
330
1F
100
AcDbEntity
  8
Capa 1
100
AcDbBlockReference
  2
block 46
 10
0.0
 20
0.0
 30
0.0
  0
ENDSEC
  0
SECTION
  2
OBJECTS
  0
DICTIONARY
  5
C
330
0
100
AcDbDictionary
281
     1
  3
ACAD_GROUP
350
D
  3
ACAD_LAYOUT
350
1A
  3
ACAD_MATERIAL
350
3B
  3
ACAD_MLEADERSTYLE
350
39B
  3
ACAD_MLINESTYLE
350
17
  3
ACAD_PLOTSETTINGS
350
19
  3
ACAD_PLOTSTYLENAME
350
E
  3
ACAD_TABLESTYLE
350
39A
  3
ACAD_VISUALSTYLE
350
2A
  0
DICTIONARY
  5
D
102
{ACAD_REACTORS
330
C
102
}
330
C
100
AcDbDictionary
281
     1
  0
DICTIONARY
  5
1A
102
{ACAD_REACTORS
330
C
102
}
330
C
100
AcDbDictionary
281
     1
  3
Layout1
350
1E
  3
Layout2
350
26
  3
Model
350
22
  0
DICTIONARY
  5
3B
102
{ACAD_REACTORS
330
C
102
}
330
C
100
AcDbDictionary
281
     1
  3
ByBlock
350
3D
  3
ByLayer
350
3C
  3
Global
350
3E
  0
DICTIONARY
  5
39B
102
{ACAD_REACTORS
330
C
102
}
330
C
100
AcDbDictionary
281
     1
  0
DICTIONARY
  5
17
102
{ACAD_REACTORS
330
C
102
}
330
C
100
AcDbDictionary
281
     1
  3
Standard
350
18
  0
DICTIONARY
  5
19
102
{ACAD_REACTORS
330
C
102
}
330
C
100
AcDbDictionary
281
     1
  0
ACDBDICTIONARYWDFLT
  5
E
102
{ACAD_REACTORS
330
C
102
}
330
C
100
AcDbDictionary
281
     1
  3
Normal
350
F
100
AcDbDictionaryWithDefault
340
F
  0
DICTIONARY
  5
39A
102
{ACAD_REACTORS
330
C
102
}
330
C
100
AcDbDictionary
281
     1
  0
DICTIONARY
  5
2A
102
{ACAD_REACTORS
330
C
102
}
330
C
100
AcDbDictionary
281
     1
  3
2dWireframe
350
2F
  3
3D Hidden
350
31
  3
3dWireframe
350
30
  3
Basic
350
32
  3
Brighten
350
36
  3
ColorChange
350
3A
  3
Conceptual
350
34
  3
Dim
350
35
  3
Facepattern
350
39
  3
Flat
350
2B
  3
FlatWithEdges
350
2C
  3
Gouraud
350
2D
  3
GouraudWithEdges
350
2E
  3
Linepattern
350
38
  3
Realistic
350
33
  3
Thicken
350
37
  0
LAYOUT
  5
1E
102
{ACAD_REACTORS
330
1A
102
}
330
1A
100
AcDbPlotSettings
  1

  2
none_device
  4

  6

 40
0.0
 41
0.0
 42
0.0
 43
0.0
 44
0.0
 45
0.0
 46
0.0
 47
0.0
 48
0.0
 49
0.0
140
0.0
141
0.0
142
1.0
143
1.0
 70
   688
 72
     0
 73
     0
 74
     5
  7

 75
    16
 76
     0
 77
     2
 78
   300
147
1.0
148
0.0
149
0.0
100
AcDbLayout
  1
Layout1
 70
     1
 71
     1
 10
0.0
 20
0.0
 11
12.0
 21
9.0
 12
0.0
 22
0.0
 32
0.0
 14
1.000000000000000E+20
 24
1.000000000000000E+20
 34
1.000000000000000E+20
 15
-1.000000000000000E+20
 25
-1.000000000000000E+20
 35
-1.000000000000000E+20
146
0.0
 13
0.0
 23
0.0
 33
0.0
 16
1.0
 26
0.0
 36
0.0
 17
0.0
 27
1.0
 37
0.0
 76
     0
330
1B
  0
LAYOUT
  5
26
102
{ACAD_REACTORS
330
1A
102
}
330
1A
100
AcDbPlotSettings
  1

  2
none_device
  4

  6

 40
0.0
 41
0.0
 42
0.0
 43
0.0
 44
0.0
 45
0.0
 46
0.0
 47
0.0
 48
0.0
 49
0.0
140
0.0
141
0.0
142
1.0
143
1.0
 70
   688
 72
     0
 73
     0
 74
     5
  7

 75
    16
 76
     0
 77
     2
 78
   300
147
1.0
148
0.0
149
0.0
100
AcDbLayout
  1
Layout2
 70
     1
 71
     2
 10
0.0
 20
0.0
 11
0.0
 21
0.0
 12
0.0
 22
0.0
 32
0.0
 14
0.0
 24
0.0
 34
0.0
 15
0.0
 25
0.0
 35
0.0
146
0.0
 13
0.0
 23
0.0
 33
0.0
 16
1.0
 26
0.0
 36
0.0
 17
0.0
 27
1.0
 37
0.0
 76
     0
330
23
  0
LAYOUT
  5
22
102
{ACAD_REACTORS
330
1A
102
}
330
1A
100
AcDbPlotSettings
  1

  2
none_device
  4

  6

 40
0.0
 41
0.0
 42
0.0
 43
0.0
 44
0.0
 45
0.0
 46
0.0
 47
0.0
 48
0.0
 49
0.0
140
0.0
141
0.0
142
1.0
143
1.0
 70
  1712
 72
     0
 73
     0
 74
     0
  7

 75
     0
 76
     0
 77
     2
 78
   300
147
1.0
148
0.0
149
0.0
100
AcDbLayout
  1
Model
 70
     1
 71
     0
 10
0.0
 20
0.0
 11
12.0
 21
9.0
 12
0.0
 22
0.0
 32
0.0
 14
1.000000000000000E+20
 24
1.000000000000000E+20
 34
1.000000000000000E+20
 15
-1.000000000000000E+20
 25
-1.000000000000000E+20
 35
-1.000000000000000E+20
146
0.0
 13
0.0
 23
0.0
 33
0.0
 16
1.0
 26
0.0
 36
0.0
 17
0.0
 27
1.0
 37
0.0
 76
     0
330
1F
331
29
  0
MATERIAL
  5
3D
102
{ACAD_REACTORS
330
3B
102
}
102
{ACAD_XDICTIONARY
360
396
102
}
330
3B
100
AcDbMaterial
  1
ByBlock
  0
MATERIAL
  5
3C
102
{ACAD_REACTORS
330
3B
102
}
102
{ACAD_XDICTIONARY
360
394
102
}
330
3B
100
AcDbMaterial
  1
ByLayer
  0
MATERIAL
  5
3E
102
{ACAD_REACTORS
330
3B
102
}
102
{ACAD_XDICTIONARY
360
398
102
}
330
3B
100
AcDbMaterial
  1
Global
  0
MLINESTYLE
  5
18
102
{ACAD_REACTORS
330
17
102
}
330
17
100
AcDbMlineStyle
  2
Standard
 70
     0
  3

 62
   256
 51
90.0
 52
90.0
 71
     2
 49
0.5
 62
   256
  6
BYLAYER
 49
-0.5
 62
   256
  6
BYLAYER
  0
ACDBPLACEHOLDER
  5
F
102
{ACAD_REACTORS
330
E
102
}
330
E
  0
VISUALSTYLE
  5
2F
102
{ACAD_REACTORS
330
2A
102
}
102
{ACAD_XDICTIONARY
360
37C
102
}
330
2A
100
AcDbVisualStyle
  2
2dWireframe
 70
     4
 71
     0
 72
     2
 73
     0
 90
        0
 40
-0.6
 41
-30.0
 62
     5
 63
     7
421
 16777215
 74
     1
 91
        4
 64
     7
 65
   257
 75
     1
175
     1
 42
1.0
 92
        0
 66
   257
 43
1.0
 76
     1
 77
     6
 78
     2
 67
     7
 79
     5
170
     0
171
     0
290
     0
174
     0
 93
        1
 44
0.0
173
     0
291
     0
 45
0.0
1001
ACAD
1000
AcDbSavedByObjectVersion
1070
     0
  0
VISUALSTYLE
  5
31
102
{ACAD_REACTORS
330
2A
102
}
102
{ACAD_XDICTIONARY
360
380
102
}
330
2A
100
AcDbVisualStyle
  2
3D Hidden
 70
     6
 71
     1
 72
     2
 73
     2
 90
        0
 40
-0.6
 41
-30.0
 62
     5
 63
     7
421
 16777215
 74
     2
 91
        2
 64
     7
 65
   257
 75
     2
175
     1
 42
40.0
 92
        0
 66
   257
 43
1.0
 76
     1
 77
     6
 78
     2
 67
     7
 79
     3
170
     0
171
     0
290
     0
174
     0
 93
        1
 44
0.0
173
     0
291
     0
 45
0.0
1001
ACAD
1000
AcDbSavedByObjectVersion
1070
     0
  0
VISUALSTYLE
  5
30
102
{ACAD_REACTORS
330
2A
102
}
102
{ACAD_XDICTIONARY
360
37E
102
}
330
2A
100
AcDbVisualStyle
  2
3dWireframe
 70
     5
 71
     0
 72
     2
 73
     0
 90
        0
 40
-0.6
 41
-30.0
 62
     5
 63
     7
421
 16777215
 74
     1
 91
        4
 64
     7
 65
   257
 75
     1
175
     1
 42
1.0
 92
        0
 66
   257
 43
1.0
 76
     1
 77
     6
 78
     2
 67
     7
 79
     5
170
     0
171
     0
290
     0
174
     0
 93
        1
 44
0.0
173
     0
291
     0
 45
0.0
1001
ACAD
1000
AcDbSavedByObjectVersion
1070
     0
  0
VISUALSTYLE
  5
32
102
{ACAD_REACTORS
330
2A
102
}
102
{ACAD_XDICTIONARY
360
382
102
}
330
2A
100
AcDbVisualStyle
  2
Basic
 70
     7
 71
     1
 72
     0
 73
     1
 90
        0
 40
-0.6
 41
-30.0
 62
     5
 63
     7
421
 16777215
 74
     0
 91
        4
 64
     7
 65
   257
 75
     1
175
     1
 42
1.0
 92
        8
 66
     7
 43
1.0
 76
     1
 77
     6
 78
     2
 67
     7
 79
     5
170
     0
171
     0
290
     0
174
     0
 93
        1
 44
0.0
173
     0
291
     1
 45
0.0
1001
ACAD
1000
AcDbSavedByObjectVersion
1070
     0
  0
VISUALSTYLE
  5
36
102
{ACAD_REACTORS
330
2A
102
}
102
{ACAD_XDICTIONARY
360
38A
102
}
330
2A
100
AcDbVisualStyle
  2
Brighten
 70
    12
 71
     2
 72
     2
 73
     0
 90
        0
 40
-0.6
 41
-30.0
 62
     5
 63
     7
421
 16777215
 74
     1
 91
        4
 64
     7
 65
   257
 75
     1
175
     1
 42
1.0
 92
        8
 66
     7
 43
1.0
 76
     1
 77
     6
 78
     2
 67
     7
 79
     5
170
     0
171
     0
290
     0
174
     0
 93
        1
 44
50.0
173
     0
291
     1
 45
0.0
1001
ACAD
1000
AcDbSavedByObjectVersion
1070
     0
  0
VISUALSTYLE
  5
3A
102
{ACAD_REACTORS
330
2A
102
}
102
{ACAD_XDICTIONARY
360
392
102
}
330
2A
100
AcDbVisualStyle
  2
ColorChange
 70
    16
 71
     2
 72
     2
 73
     3
 90
        0
 40
-0.6
 41
-30.0
 62
     5
 63
     8
421
  8421504
 74
     1
 91
        4
 64
     7
 65
   257
 75
     1
175
     1
 42
1.0
 92
        8
 66
     8
424
  8421504
 43
1.0
 76
     1
 77
     6
 78
     2
 67
     7
 79
     5
170
     0
171
     0
290
     0
174
     0
 93
        1
 44
0.0
173
     0
291
     1
 45
0.0
1001
ACAD
1000
AcDbSavedByObjectVersion
1070
     0
  0
VISUALSTYLE
  5
34
102
{ACAD_REACTORS
330
2A
102
}
102
{ACAD_XDICTIONARY
360
386
102
}
330
2A
100
AcDbVisualStyle
  2
Conceptual
 70
     9
 71
     3
 72
     2
 73
     0
 90
        0
 40
-0.6
 41
-30.0
 62
     5
 63
     7
421
 16777215
 74
     2
 91
        2
 64
     7
 65
   257
 75
     1
175
     1
 42
40.0
 92
        8
 66
     7
 43
1.0
 76
     1
 77
     6
 78
     2
 67
     7
 79
     3
170
     0
171
     0
290
     0
174
     0
 93
        1
 44
0.0
173
     0
291
     0
 45
0.0
1001
ACAD
1000
AcDbSavedByObjectVersion
1070
     0
  0
VISUALSTYLE
  5
35
102
{ACAD_REACTORS
330
2A
102
}
102
{ACAD_XDICTIONARY
360
388
102
}
330
2A
100
AcDbVisualStyle
  2
Dim
 70
    11
 71
     2
 72
     2
 73
     0
 90
        0
 40
-0.6
 41
-30.0
 62
     5
 63
     7
421
 16777215
 74
     1
 91
        4
 64
     7
 65
   257
 75
     1
175
     1
 42
1.0
 92
        8
 66
     7
 43
1.0
 76
     1
 77
     6
 78
     2
 67
     7
 79
     5
170
     0
171
     0
290
     0
174
     0
 93
        1
 44
-50.0
173
     0
291
     1
 45
0.0
1001
ACAD
1000
AcDbSavedByObjectVersion
1070
     0
  0
VISUALSTYLE
  5
39
102
{ACAD_REACTORS
330
2A
102
}
102
{ACAD_XDICTIONARY
360
390
102
}
330
2A
100
AcDbVisualStyle
  2
Facepattern
 70
    15
 71
     2
 72
     2
 73
     0
 90
        0
 40
-0.6
 41
-30.0
 62
     5
 63
     7
421
 16777215
 74
     1
 91
        4
 64
     7
 65
   257
 75
     1
175
     1
 42
1.0
 92
        8
 66
     7
 43
1.0
 76
     1
 77
     6
 78
     2
 67
     7
 79
     5
170
     0
171
     0
290
     0
174
     0
 93
        1
 44
0.0
173
     0
291
     1
 45
0.0
1001
ACAD
1000
AcDbSavedByObjectVersion
1070
     0
  0
VISUALSTYLE
  5
2B
102
{ACAD_REACTORS
330
2A
102
}
102
{ACAD_XDICTIONARY
360
374
102
}
330
2A
100
AcDbVisualStyle
  2
Flat
 70
     0
 71
     2
 72
     1
 73
     1
 90
        2
 40
-0.6
 41
30.0
 62
     5
 63
     7
421
 16777215
 74
     0
 91
        4
 64
     7
 65
   257
 75
     1
175
     1
 42
1.0
 92
        8
 66
     7
 43
1.0
 76
     1
 77
     6
 78
     2
 67
     7
 79
     5
170
     0
171
     0
290
     0
174
     0
 93
       13
 44
0.0
173
     0
291
     1
 45
0.0
1001
ACAD
1000
AcDbSavedByObjectVersion
1070
     0
  0
VISUALSTYLE
  5
2C
102
{ACAD_REACTORS
330
2A
102
}
102
{ACAD_XDICTIONARY
360
376
102
}
330
2A
100
AcDbVisualStyle
  2
FlatWithEdges
 70
     1
 71
     2
 72
     1
 73
     1
 90
        2
 40
-0.6
 41
30.0
 62
     5
 63
     7
421
 16777215
 74
     1
 91
        4
 64
     7
 65
   257
 75
     1
175
     1
 42
1.0
 92
        0
 66
   257
 43
1.0
 76
     1
 77
     6
 78
     2
 67
     7
 79
     5
170
     0
171
     0
290
     0
174
     0
 93
       13
 44
0.0
173
     0
291
     1
 45
0.0
1001
ACAD
1000
AcDbSavedByObjectVersion
1070
     0
  0
VISUALSTYLE
  5
2D
102
{ACAD_REACTORS
330
2A
102
}
102
{ACAD_XDICTIONARY
360
378
102
}
330
2A
100
AcDbVisualStyle
  2
Gouraud
 70
     2
 71
     2
 72
     2
 73
     1
 90
        2
 40
-0.6
 41
30.0
 62
     5
 63
     7
421
 16777215
 74
     0
 91
        4
 64
     7
 65
   257
 75
     1
175
     1
 42
1.0
 92
        0
 66
     7
 43
1.0
 76
     1
 77
     6
 78
     2
 67
     7
 79
     5
170
     0
171
     0
290
     0
174
     0
 93
       13
 44
0.0
173
     0
291
     1
 45
0.0
1001
ACAD
1000
AcDbSavedByObjectVersion
1070
     0
  0
VISUALSTYLE
  5
2E
102
{ACAD_REACTORS
330
2A
102
}
102
{ACAD_XDICTIONARY
360
37A
102
}
330
2A
100
AcDbVisualStyle
  2
GouraudWithEdges
 70
     3
 71
     2
 72
     2
 73
     1
 90
        2
 40
-0.6
 41
30.0
 62
     5
 63
     7
421
 16777215
 74
     1
 91
        4
 64
     7
 65
   257
 75
     1
175
     1
 42
1.0
 92
        0
 66
   257
 43
1.0
 76
     1
 77
     6
 78
     2
 67
     7
 79
     5
170
     0
171
     0
290
     0
174
     0
 93
       13
 44
0.0
173
     0
291
     1
 45
0.0
1001
ACAD
1000
AcDbSavedByObjectVersion
1070
     0
  0
VISUALSTYLE
  5
38
102
{ACAD_REACTORS
330
2A
102
}
102
{ACAD_XDICTIONARY
360
38E
102
}
330
2A
100
AcDbVisualStyle
  2
Linepattern
 70
    14
 71
     2
 72
     2
 73
     0
 90
        0
 40
-0.6
 41
-30.0
 62
     5
 63
     7
421
 16777215
 74
     1
 91
        4
 64
     7
 65
   257
 75
     7
175
     7
 42
1.0
 92
        8
 66
     7
 43
1.0
 76
     1
 77
     6
 78
     2
 67
     7
 79
     5
170
     0
171
     0
290
     0
174
     0
 93
        1
 44
0.0
173
     0
291
     1
 45
0.0
1001
ACAD
1000
AcDbSavedByObjectVersion
1070
     0
  0
VISUALSTYLE
  5
33
102
{ACAD_REACTORS
330
2A
102
}
102
{ACAD_XDICTIONARY
360
384
102
}
330
2A
100
AcDbVisualStyle
  2
Realistic
 70
     8
 71
     2
 72
     2
 73
     0
 90
        0
 40
-0.6
 41
-30.0
 62
     5
 63
     7
421
 16777215
 74
     1
 91
        0
 64
     7
 65
   257
 75
     1
175
     1
 42
1.0
 92
        8
 66
     8
424
  7895160
 43
1.0
 76
     1
 77
     6
 78
     2
 67
     7
 79
     5
170
     0
171
     0
290
     0
174
     0
 93
       13
 44
0.0
173
     0
291
     0
 45
0.0
1001
ACAD
1000
AcDbSavedByObjectVersion
1070
     0
  0
VISUALSTYLE
  5
37
102
{ACAD_REACTORS
330
2A
102
}
102
{ACAD_XDICTIONARY
360
38C
102
}
330
2A
100
AcDbVisualStyle
  2
Thicken
 70
    13
 71
     2
 72
     2
 73
     0
 90
        0
 40
-0.6
 41
-30.0
 62
     5
 63
     7
421
 16777215
 74
     1
 91
        4
 64
     7
 65
   257
 75
     1
175
     1
 42
1.0
 92
       12
 66
     7
 43
1.0
 76
     1
 77
     6
 78
     2
 67
     7
 79
     5
170
     0
171
     0
290
     0
174
     0
 93
        1
 44
0.0
173
     0
291
     1
 45
0.0
1001
ACAD
1000
AcDbSavedByObjectVersion
1070
     0
  0
DICTIONARY
  5
396
330
3D
100
AcDbDictionary
280
     1
281
     1
  3
ACAD_XREC_ROUNDTRIP
360
397
  0
DICTIONARY
  5
394
330
3C
100
AcDbDictionary
280
     1
281
     1
  3
ACAD_XREC_ROUNDTRIP
360
395
  0
DICTIONARY
  5
398
330
3E
100
AcDbDictionary
280
     1
281
     1
  3
ACAD_XREC_ROUNDTRIP
360
399
  0
DICTIONARY
  5
37C
330
2F
100
AcDbDictionary
280
     1
281
     1
  3
ACAD_XREC_ROUNDTRIP
360
37D
  0
DICTIONARY
  5
380
330
31
100
AcDbDictionary
280
     1
281
     1
  3
ACAD_XREC_ROUNDTRIP
360
381
  0
DICTIONARY
  5
37E
330
30
100
AcDbDictionary
280
     1
281
     1
  3
ACAD_XREC_ROUNDTRIP
360
37F
  0
DICTIONARY
  5
382
330
32
100
AcDbDictionary
280
     1
281
     1
  3
ACAD_XREC_ROUNDTRIP
360
383
  0
DICTIONARY
  5
38A
330
36
100
AcDbDictionary
280
     1
281
     1
  3
ACAD_XREC_ROUNDTRIP
360
38B
  0
DICTIONARY
  5
392
330
3A
100
AcDbDictionary
280
     1
281
     1
  3
ACAD_XREC_ROUNDTRIP
360
393
  0
DICTIONARY
  5
386
330
34
100
AcDbDictionary
280
     1
281
     1
  3
ACAD_XREC_ROUNDTRIP
360
387
  0
DICTIONARY
  5
388
330
35
100
AcDbDictionary
280
     1
281
     1
  3
ACAD_XREC_ROUNDTRIP
360
389
  0
DICTIONARY
  5
390
330
39
100
AcDbDictionary
280
     1
281
     1
  3
ACAD_XREC_ROUNDTRIP
360
391
  0
DICTIONARY
  5
374
330
2B
100
AcDbDictionary
280
     1
281
     1
  3
ACAD_XREC_ROUNDTRIP
360
375
  0
DICTIONARY
  5
376
330
2C
100
AcDbDictionary
280
     1
281
     1
  3
ACAD_XREC_ROUNDTRIP
360
377
  0
DICTIONARY
  5
378
330
2D
100
AcDbDictionary
280
     1
281
     1
  3
ACAD_XREC_ROUNDTRIP
360
379
  0
DICTIONARY
  5
37A
330
2E
100
AcDbDictionary
280
     1
281
     1
  3
ACAD_XREC_ROUNDTRIP
360
37B
  0
DICTIONARY
  5
38E
330
38
100
AcDbDictionary
280
     1
281
     1
  3
ACAD_XREC_ROUNDTRIP
360
38F
  0
DICTIONARY
  5
384
330
33
100
AcDbDictionary
280
     1
281
     1
  3
ACAD_XREC_ROUNDTRIP
360
385
  0
DICTIONARY
  5
38C
330
37
100
AcDbDictionary
280
     1
281
     1
  3
ACAD_XREC_ROUNDTRIP
360
38D
  0
XRECORD
  5
397
102
{ACAD_REACTORS
330
396
102
}
330
396
100
AcDbXrecord
280
     1
102
MATERIAL
148
0.0
149
0.0
149
0.0
 93
        0
 94
      127
282
     0
 72
     1
 77
     1
171
     1
175
     1
179
     1
273
     0
  0
XRECORD
  5
395
102
{ACAD_REACTORS
330
394
102
}
330
394
100
AcDbXrecord
280
     1
102
MATERIAL
148
0.0
149
0.0
149
0.0
 93
        0
 94
      127
282
     0
 72
     1
 77
     1
171
     1
175
     1
179
     1
273
     0
  0
XRECORD
  5
399
102
{ACAD_REACTORS
330
398
102
}
330
398
100
AcDbXrecord
280
     1
102
MATERIAL
148
0.0
149
0.0
149
0.0
 93
        0
 94
      127
282
     0
 72
     1
 77
     1
171
     1
175
     1
179
     1
273
     0
  0
XRECORD
  5
37D
102
{ACAD_REACTORS
330
37C
102
}
330
37C
100
AcDbXrecord
280
     1
102
RTVSPropertyOp0
 70
     1
102
RTVSPropertyOp1
 70
     1
102
RTVSPropertyOp2
 70
     1
102
RTVSPropertyOp3
 70
     1
102
RTVSPropertyOp4
 70
     1
102
RTVSPropertyOp5
 70
     1
102
RTVSPropertyOp6
 70
     1
102
RTVSPropertyOp7
 70
     1
102
RTVSPropertyOp8
 70
     1
102
RTVSPropertyOp9
 70
     1
102
RTVSPropertyOp10
 70
     1
102
RTVSPropertyOp11
 70
     1
102
RTVSPropertyOp12
 70
     1
102
RTVSPropertyOp13
 70
     1
102
RTVSPropertyOp14
 70
     1
102
RTVSPropertyOp15
 70
     1
102
RTVSPropertyOp16
 70
     1
102
RTVSPropertyOp17
 70
     1
102
RTVSPropertyOp18
 70
     1
102
RTVSPropertyOp19
 70
     1
102
RTVSPropertyOp20
 70
     1
102
RTVSPropertyOp21
 70
     1
102
RTVSPropertyOp22
 70
     1
102
RTVSPropertyOp23
 70
     1
102
RTVSPropertyOp24
 70
     1
102
RTVSPropertyOp25
 70
     1
102
RTVSPropertyOp26
 70
     1
102
RTVSPropertyOp27
 70
     1
102
RTVSPropertyOp28
 70
     1
102
RTVSPropertyOp29
 70
     1
102
RTVSPropertyOp30
 70
     1
102
RTVSPropertyOp31
 70
     1
102
RTVSPropertyOp32
 70
     1
  0
XRECORD
  5
381
102
{ACAD_REACTORS
330
380
102
}
330
380
100
AcDbXrecord
280
     1
102
RTVSPropertyOp0
 70
     1
102
RTVSPropertyOp1
 70
     1
102
RTVSPropertyOp2
 70
     1
102
RTVSPropertyOp3
 70
     1
102
RTVSPropertyOp4
 70
     1
102
RTVSPropertyOp5
 70
     1
102
RTVSPropertyOp6
 70
     1
102
RTVSPropertyOp7
 70
     1
102
RTVSPropertyOp8
 70
     1
102
RTVSPropertyOp9
 70
     1
102
RTVSPropertyOp10
 70
     1
102
RTVSPropertyOp11
 70
     1
102
RTVSPropertyOp12
 70
     1
102
RTVSPropertyOp13
 70
     1
102
RTVSPropertyOp14
 70
     1
102
RTVSPropertyOp15
 70
     1
102
RTVSPropertyOp16
 70
     1
102
RTVSPropertyOp17
 70
     1
102
RTVSPropertyOp18
 70
     1
102
RTVSPropertyOp19
 70
     1
102
RTVSPropertyOp20
 70
     1
102
RTVSPropertyOp21
 70
     1
102
RTVSPropertyOp22
 70
     1
102
RTVSPropertyOp23
 70
     1
102
RTVSPropertyOp24
 70
     1
102
RTVSPropertyOp25
 70
     1
102
RTVSPropertyOp26
 70
     1
102
RTVSPropertyOp27
 70
     1
102
RTVSPropertyOp28
 70
     1
102
RTVSPropertyOp29
 70
     1
102
RTVSPropertyOp30
 70
     1
102
RTVSPropertyOp31
 70
     1
102
RTVSPropertyOp32
 70
     1
  0
XRECORD
  5
37F
102
{ACAD_REACTORS
330
37E
102
}
330
37E
100
AcDbXrecord
280
     1
102
RTVSPropertyOp0
 70
     1
102
RTVSPropertyOp1
 70
     1
102
RTVSPropertyOp2
 70
     1
102
RTVSPropertyOp3
 70
     1
102
RTVSPropertyOp4
 70
     1
102
RTVSPropertyOp5
 70
     1
102
RTVSPropertyOp6
 70
     1
102
RTVSPropertyOp7
 70
     1
102
RTVSPropertyOp8
 70
     1
102
RTVSPropertyOp9
 70
     1
102
RTVSPropertyOp10
 70
     1
102
RTVSPropertyOp11
 70
     1
102
RTVSPropertyOp12
 70
     1
102
RTVSPropertyOp13
 70
     1
102
RTVSPropertyOp14
 70
     1
102
RTVSPropertyOp15
 70
     1
102
RTVSPropertyOp16
 70
     1
102
RTVSPropertyOp17
 70
     1
102
RTVSPropertyOp18
 70
     1
102
RTVSPropertyOp19
 70
     1
102
RTVSPropertyOp20
 70
     1
102
RTVSPropertyOp21
 70
     1
102
RTVSPropertyOp22
 70
     1
102
RTVSPropertyOp23
 70
     1
102
RTVSPropertyOp24
 70
     1
102
RTVSPropertyOp25
 70
     1
102
RTVSPropertyOp26
 70
     1
102
RTVSPropertyOp27
 70
     1
102
RTVSPropertyOp28
 70
     1
102
RTVSPropertyOp29
 70
     1
102
RTVSPropertyOp30
 70
     1
102
RTVSPropertyOp31
 70
     1
102
RTVSPropertyOp32
 70
     1
  0
XRECORD
  5
383
102
{ACAD_REACTORS
330
382
102
}
330
382
100
AcDbXrecord
280
     1
102
RTVSPropertyOp0
 70
     1
102
RTVSPropertyOp1
 70
     1
102
RTVSPropertyOp2
 70
     1
102
RTVSPropertyOp3
 70
     1
102
RTVSPropertyOp4
 70
     1
102
RTVSPropertyOp5
 70
     1
102
RTVSPropertyOp6
 70
     1
102
RTVSPropertyOp7
 70
     1
102
RTVSPropertyOp8
 70
     1
102
RTVSPropertyOp9
 70
     1
102
RTVSPropertyOp10
 70
     1
102
RTVSPropertyOp11
 70
     1
102
RTVSPropertyOp12
 70
     1
102
RTVSPropertyOp13
 70
     1
102
RTVSPropertyOp14
 70
     1
102
RTVSPropertyOp15
 70
     1
102
RTVSPropertyOp16
 70
     1
102
RTVSPropertyOp17
 70
     1
102
RTVSPropertyOp18
 70
     1
102
RTVSPropertyOp19
 70
     1
102
RTVSPropertyOp20
 70
     1
102
RTVSPropertyOp21
 70
     1
102
RTVSPropertyOp22
 70
     1
102
RTVSPropertyOp23
 70
     1
102
RTVSPropertyOp24
 70
     1
102
RTVSPropertyOp25
 70
     1
102
RTVSPropertyOp26
 70
     1
102
RTVSPropertyOp27
 70
     1
102
RTVSPropertyOp28
 70
     1
102
RTVSPropertyOp29
 70
     1
102
RTVSPropertyOp30
 70
     1
102
RTVSPropertyOp31
 70
     1
102
RTVSPropertyOp32
 70
     1
  0
XRECORD
  5
38B
102
{ACAD_REACTORS
330
38A
102
}
330
38A
100
AcDbXrecord
280
     1
102
RTVSPropertyOp0
 70
     1
102
RTVSPropertyOp1
 70
     1
102
RTVSPropertyOp2
 70
     1
102
RTVSPropertyOp3
 70
     1
102
RTVSPropertyOp4
 70
     1
102
RTVSPropertyOp5
 70
     1
102
RTVSPropertyOp6
 70
     1
102
RTVSPropertyOp7
 70
     1
102
RTVSPropertyOp8
 70
     1
102
RTVSPropertyOp9
 70
     1
102
RTVSPropertyOp10
 70
     1
102
RTVSPropertyOp11
 70
     1
102
RTVSPropertyOp12
 70
     1
102
RTVSPropertyOp13
 70
     1
102
RTVSPropertyOp14
 70
     1
102
RTVSPropertyOp15
 70
     1
102
RTVSPropertyOp16
 70
     1
102
RTVSPropertyOp17
 70
     1
102
RTVSPropertyOp18
 70
     1
102
RTVSPropertyOp19
 70
     1
102
RTVSPropertyOp20
 70
     1
102
RTVSPropertyOp21
 70
     1
102
RTVSPropertyOp22
 70
     1
102
RTVSPropertyOp23
 70
     1
102
RTVSPropertyOp24
 70
     1
102
RTVSPropertyOp25
 70
     1
102
RTVSPropertyOp26
 70
     1
102
RTVSPropertyOp27
 70
     1
102
RTVSPropertyOp28
 70
     1
102
RTVSPropertyOp29
 70
     1
102
RTVSPropertyOp30
 70
     1
102
RTVSPropertyOp31
 70
     1
102
RTVSPropertyOp32
 70
     1
  0
XRECORD
  5
393
102
{ACAD_REACTORS
330
392
102
}
330
392
100
AcDbXrecord
280
     1
102
RTVSPropertyOp0
 70
     1
102
RTVSPropertyOp1
 70
     1
102
RTVSPropertyOp2
 70
     1
102
RTVSPropertyOp3
 70
     1
102
RTVSPropertyOp4
 70
     1
102
RTVSPropertyOp5
 70
     1
102
RTVSPropertyOp6
 70
     1
102
RTVSPropertyOp7
 70
     1
102
RTVSPropertyOp8
 70
     1
102
RTVSPropertyOp9
 70
     1
102
RTVSPropertyOp10
 70
     1
102
RTVSPropertyOp11
 70
     1
102
RTVSPropertyOp12
 70
     1
102
RTVSPropertyOp13
 70
     1
102
RTVSPropertyOp14
 70
     1
102
RTVSPropertyOp15
 70
     1
102
RTVSPropertyOp16
 70
     1
102
RTVSPropertyOp17
 70
     1
102
RTVSPropertyOp18
 70
     1
102
RTVSPropertyOp19
 70
     1
102
RTVSPropertyOp20
 70
     1
102
RTVSPropertyOp21
 70
     1
102
RTVSPropertyOp22
 70
     1
102
RTVSPropertyOp23
 70
     1
102
RTVSPropertyOp24
 70
     1
102
RTVSPropertyOp25
 70
     1
102
RTVSPropertyOp26
 70
     1
102
RTVSPropertyOp27
 70
     1
102
RTVSPropertyOp28
 70
     1
102
RTVSPropertyOp29
 70
     1
102
RTVSPropertyOp30
 70
     1
102
RTVSPropertyOp31
 70
     1
102
RTVSPropertyOp32
 70
     1
  0
XRECORD
  5
387
102
{ACAD_REACTORS
330
386
102
}
330
386
100
AcDbXrecord
280
     1
102
RTVSPropertyOp0
 70
     1
102
RTVSPropertyOp1
 70
     1
102
RTVSPropertyOp2
 70
     1
102
RTVSPropertyOp3
 70
     1
102
RTVSPropertyOp4
 70
     1
102
RTVSPropertyOp5
 70
     1
102
RTVSPropertyOp6
 70
     1
102
RTVSPropertyOp7
 70
     1
102
RTVSPropertyOp8
 70
     1
102
RTVSPropertyOp9
 70
     1
102
RTVSPropertyOp10
 70
     1
102
RTVSPropertyOp11
 70
     1
102
RTVSPropertyOp12
 70
     1
102
RTVSPropertyOp13
 70
     1
102
RTVSPropertyOp14
 70
     1
102
RTVSPropertyOp15
 70
     1
102
RTVSPropertyOp16
 70
     1
102
RTVSPropertyOp17
 70
     1
102
RTVSPropertyOp18
 70
     1
102
RTVSPropertyOp19
 70
     1
102
RTVSPropertyOp20
 70
     1
102
RTVSPropertyOp21
 70
     1
102
RTVSPropertyOp22
 70
     1
102
RTVSPropertyOp23
 70
     1
102
RTVSPropertyOp24
 70
     1
102
RTVSPropertyOp25
 70
     1
102
RTVSPropertyOp26
 70
     1
102
RTVSPropertyOp27
 70
     1
102
RTVSPropertyOp28
 70
     1
102
RTVSPropertyOp29
 70
     1
102
RTVSPropertyOp30
 70
     1
102
RTVSPropertyOp31
 70
     1
102
RTVSPropertyOp32
 70
     1
  0
XRECORD
  5
389
102
{ACAD_REACTORS
330
388
102
}
330
388
100
AcDbXrecord
280
     1
102
RTVSPropertyOp0
 70
     1
102
RTVSPropertyOp1
 70
     1
102
RTVSPropertyOp2
 70
     1
102
RTVSPropertyOp3
 70
     1
102
RTVSPropertyOp4
 70
     1
102
RTVSPropertyOp5
 70
     1
102
RTVSPropertyOp6
 70
     1
102
RTVSPropertyOp7
 70
     1
102
RTVSPropertyOp8
 70
     1
102
RTVSPropertyOp9
 70
     1
102
RTVSPropertyOp10
 70
     1
102
RTVSPropertyOp11
 70
     1
102
RTVSPropertyOp12
 70
     1
102
RTVSPropertyOp13
 70
     1
102
RTVSPropertyOp14
 70
     1
102
RTVSPropertyOp15
 70
     1
102
RTVSPropertyOp16
 70
     1
102
RTVSPropertyOp17
 70
     1
102
RTVSPropertyOp18
 70
     1
102
RTVSPropertyOp19
 70
     1
102
RTVSPropertyOp20
 70
     1
102
RTVSPropertyOp21
 70
     1
102
RTVSPropertyOp22
 70
     1
102
RTVSPropertyOp23
 70
     1
102
RTVSPropertyOp24
 70
     1
102
RTVSPropertyOp25
 70
     1
102
RTVSPropertyOp26
 70
     1
102
RTVSPropertyOp27
 70
     1
102
RTVSPropertyOp28
 70
     1
102
RTVSPropertyOp29
 70
     1
102
RTVSPropertyOp30
 70
     1
102
RTVSPropertyOp31
 70
     1
102
RTVSPropertyOp32
 70
     1
  0
XRECORD
  5
391
102
{ACAD_REACTORS
330
390
102
}
330
390
100
AcDbXrecord
280
     1
102
RTVSPropertyOp0
 70
     1
102
RTVSPropertyOp1
 70
     1
102
RTVSPropertyOp2
 70
     1
102
RTVSPropertyOp3
 70
     1
102
RTVSPropertyOp4
 70
     1
102
RTVSPropertyOp5
 70
     1
102
RTVSPropertyOp6
 70
     1
102
RTVSPropertyOp7
 70
     1
102
RTVSPropertyOp8
 70
     1
102
RTVSPropertyOp9
 70
     1
102
RTVSPropertyOp10
 70
     1
102
RTVSPropertyOp11
 70
     1
102
RTVSPropertyOp12
 70
     1
102
RTVSPropertyOp13
 70
     1
102
RTVSPropertyOp14
 70
     1
102
RTVSPropertyOp15
 70
     1
102
RTVSPropertyOp16
 70
     1
102
RTVSPropertyOp17
 70
     1
102
RTVSPropertyOp18
 70
     1
102
RTVSPropertyOp19
 70
     1
102
RTVSPropertyOp20
 70
     1
102
RTVSPropertyOp21
 70
     1
102
RTVSPropertyOp22
 70
     1
102
RTVSPropertyOp23
 70
     1
102
RTVSPropertyOp24
 70
     1
102
RTVSPropertyOp25
 70
     1
102
RTVSPropertyOp26
 70
     1
102
RTVSPropertyOp27
 70
     1
102
RTVSPropertyOp28
 70
     1
102
RTVSPropertyOp29
 70
     1
102
RTVSPropertyOp30
 70
     1
102
RTVSPropertyOp31
 70
     1
102
RTVSPropertyOp32
 70
     1
  0
XRECORD
  5
375
102
{ACAD_REACTORS
330
374
102
}
330
374
100
AcDbXrecord
280
     1
102
RTVSPropertyOp0
 70
     1
102
RTVSPropertyOp1
 70
     1
102
RTVSPropertyOp2
 70
     1
102
RTVSPropertyOp3
 70
     1
102
RTVSPropertyOp4
 70
     1
102
RTVSPropertyOp5
 70
     1
102
RTVSPropertyOp6
 70
     1
102
RTVSPropertyOp7
 70
     1
102
RTVSPropertyOp8
 70
     1
102
RTVSPropertyOp9
 70
     1
102
RTVSPropertyOp10
 70
     1
102
RTVSPropertyOp11
 70
     1
102
RTVSPropertyOp12
 70
     1
102
RTVSPropertyOp13
 70
     1
102
RTVSPropertyOp14
 70
     1
102
RTVSPropertyOp15
 70
     1
102
RTVSPropertyOp16
 70
     1
102
RTVSPropertyOp17
 70
     1
102
RTVSPropertyOp18
 70
     1
102
RTVSPropertyOp19
 70
     1
102
RTVSPropertyOp20
 70
     1
102
RTVSPropertyOp21
 70
     1
102
RTVSPropertyOp22
 70
     1
102
RTVSPropertyOp23
 70
     1
102
RTVSPropertyOp24
 70
     1
102
RTVSPropertyOp25
 70
     1
102
RTVSPropertyOp26
 70
     1
102
RTVSPropertyOp27
 70
     1
102
RTVSPropertyOp28
 70
     1
102
RTVSPropertyOp29
 70
     1
102
RTVSPropertyOp30
 70
     1
102
RTVSPropertyOp31
 70
     1
102
RTVSPropertyOp32
 70
     1
  0
XRECORD
  5
377
102
{ACAD_REACTORS
330
376
102
}
330
376
100
AcDbXrecord
280
     1
102
RTVSPropertyOp0
 70
     1
102
RTVSPropertyOp1
 70
     1
102
RTVSPropertyOp2
 70
     1
102
RTVSPropertyOp3
 70
     1
102
RTVSPropertyOp4
 70
     1
102
RTVSPropertyOp5
 70
     1
102
RTVSPropertyOp6
 70
     1
102
RTVSPropertyOp7
 70
     1
102
RTVSPropertyOp8
 70
     1
102
RTVSPropertyOp9
 70
     1
102
RTVSPropertyOp10
 70
     1
102
RTVSPropertyOp11
 70
     1
102
RTVSPropertyOp12
 70
     1
102
RTVSPropertyOp13
 70
     1
102
RTVSPropertyOp14
 70
     1
102
RTVSPropertyOp15
 70
     1
102
RTVSPropertyOp16
 70
     1
102
RTVSPropertyOp17
 70
     1
102
RTVSPropertyOp18
 70
     1
102
RTVSPropertyOp19
 70
     1
102
RTVSPropertyOp20
 70
     1
102
RTVSPropertyOp21
 70
     1
102
RTVSPropertyOp22
 70
     1
102
RTVSPropertyOp23
 70
     1
102
RTVSPropertyOp24
 70
     1
102
RTVSPropertyOp25
 70
     1
102
RTVSPropertyOp26
 70
     1
102
RTVSPropertyOp27
 70
     1
102
RTVSPropertyOp28
 70
     1
102
RTVSPropertyOp29
 70
     1
102
RTVSPropertyOp30
 70
     1
102
RTVSPropertyOp31
 70
     1
102
RTVSPropertyOp32
 70
     1
  0
XRECORD
  5
379
102
{ACAD_REACTORS
330
378
102
}
330
378
100
AcDbXrecord
280
     1
102
RTVSPropertyOp0
 70
     1
102
RTVSPropertyOp1
 70
     1
102
RTVSPropertyOp2
 70
     1
102
RTVSPropertyOp3
 70
     1
102
RTVSPropertyOp4
 70
     1
102
RTVSPropertyOp5
 70
     1
102
RTVSPropertyOp6
 70
     1
102
RTVSPropertyOp7
 70
     1
102
RTVSPropertyOp8
 70
     1
102
RTVSPropertyOp9
 70
     1
102
RTVSPropertyOp10
 70
     1
102
RTVSPropertyOp11
 70
     1
102
RTVSPropertyOp12
 70
     1
102
RTVSPropertyOp13
 70
     1
102
RTVSPropertyOp14
 70
     1
102
RTVSPropertyOp15
 70
     1
102
RTVSPropertyOp16
 70
     1
102
RTVSPropertyOp17
 70
     1
102
RTVSPropertyOp18
 70
     1
102
RTVSPropertyOp19
 70
     1
102
RTVSPropertyOp20
 70
     1
102
RTVSPropertyOp21
 70
     1
102
RTVSPropertyOp22
 70
     1
102
RTVSPropertyOp23
 70
     1
102
RTVSPropertyOp24
 70
     1
102
RTVSPropertyOp25
 70
     1
102
RTVSPropertyOp26
 70
     1
102
RTVSPropertyOp27
 70
     1
102
RTVSPropertyOp28
 70
     1
102
RTVSPropertyOp29
 70
     1
102
RTVSPropertyOp30
 70
     1
102
RTVSPropertyOp31
 70
     1
102
RTVSPropertyOp32
 70
     1
  0
XRECORD
  5
37B
102
{ACAD_REACTORS
330
37A
102
}
330
37A
100
AcDbXrecord
280
     1
102
RTVSPropertyOp0
 70
     1
102
RTVSPropertyOp1
 70
     1
102
RTVSPropertyOp2
 70
     1
102
RTVSPropertyOp3
 70
     1
102
RTVSPropertyOp4
 70
     1
102
RTVSPropertyOp5
 70
     1
102
RTVSPropertyOp6
 70
     1
102
RTVSPropertyOp7
 70
     1
102
RTVSPropertyOp8
 70
     1
102
RTVSPropertyOp9
 70
     1
102
RTVSPropertyOp10
 70
     1
102
RTVSPropertyOp11
 70
     1
102
RTVSPropertyOp12
 70
     1
102
RTVSPropertyOp13
 70
     1
102
RTVSPropertyOp14
 70
     1
102
RTVSPropertyOp15
 70
     1
102
RTVSPropertyOp16
 70
     1
102
RTVSPropertyOp17
 70
     1
102
RTVSPropertyOp18
 70
     1
102
RTVSPropertyOp19
 70
     1
102
RTVSPropertyOp20
 70
     1
102
RTVSPropertyOp21
 70
     1
102
RTVSPropertyOp22
 70
     1
102
RTVSPropertyOp23
 70
     1
102
RTVSPropertyOp24
 70
     1
102
RTVSPropertyOp25
 70
     1
102
RTVSPropertyOp26
 70
     1
102
RTVSPropertyOp27
 70
     1
102
RTVSPropertyOp28
 70
     1
102
RTVSPropertyOp29
 70
     1
102
RTVSPropertyOp30
 70
     1
102
RTVSPropertyOp31
 70
     1
102
RTVSPropertyOp32
 70
     1
  0
XRECORD
  5
38F
102
{ACAD_REACTORS
330
38E
102
}
330
38E
100
AcDbXrecord
280
     1
102
RTVSPropertyOp0
 70
     1
102
RTVSPropertyOp1
 70
     1
102
RTVSPropertyOp2
 70
     1
102
RTVSPropertyOp3
 70
     1
102
RTVSPropertyOp4
 70
     1
102
RTVSPropertyOp5
 70
     1
102
RTVSPropertyOp6
 70
     1
102
RTVSPropertyOp7
 70
     1
102
RTVSPropertyOp8
 70
     1
102
RTVSPropertyOp9
 70
     1
102
RTVSPropertyOp10
 70
     1
102
RTVSPropertyOp11
 70
     1
102
RTVSPropertyOp12
 70
     1
102
RTVSPropertyOp13
 70
     1
102
RTVSPropertyOp14
 70
     1
102
RTVSPropertyOp15
 70
     1
102
RTVSPropertyOp16
 70
     1
102
RTVSPropertyOp17
 70
     1
102
RTVSPropertyOp18
 70
     1
102
RTVSPropertyOp19
 70
     1
102
RTVSPropertyOp20
 70
     1
102
RTVSPropertyOp21
 70
     1
102
RTVSPropertyOp22
 70
     1
102
RTVSPropertyOp23
 70
     1
102
RTVSPropertyOp24
 70
     1
102
RTVSPropertyOp25
 70
     1
102
RTVSPropertyOp26
 70
     1
102
RTVSPropertyOp27
 70
     1
102
RTVSPropertyOp28
 70
     1
102
RTVSPropertyOp29
 70
     1
102
RTVSPropertyOp30
 70
     1
102
RTVSPropertyOp31
 70
     1
102
RTVSPropertyOp32
 70
     1
  0
XRECORD
  5
385
102
{ACAD_REACTORS
330
384
102
}
330
384
100
AcDbXrecord
280
     1
102
RTVSPropertyOp0
 70
     1
102
RTVSPropertyOp1
 70
     1
102
RTVSPropertyOp2
 70
     1
102
RTVSPropertyOp3
 70
     1
102
RTVSPropertyOp4
 70
     1
102
RTVSPropertyOp5
 70
     1
102
RTVSPropertyOp6
 70
     1
102
RTVSPropertyOp7
 70
     1
102
RTVSPropertyOp8
 70
     1
102
RTVSPropertyOp9
 70
     1
102
RTVSPropertyOp10
 70
     1
102
RTVSPropertyOp11
 70
     1
102
RTVSPropertyOp12
 70
     1
102
RTVSPropertyOp13
 70
     1
102
RTVSPropertyOp14
 70
     1
102
RTVSPropertyOp15
 70
     1
102
RTVSPropertyOp16
 70
     1
102
RTVSPropertyOp17
 70
     1
102
RTVSPropertyOp18
 70
     1
102
RTVSPropertyOp19
 70
     1
102
RTVSPropertyOp20
 70
     1
102
RTVSPropertyOp21
 70
     1
102
RTVSPropertyOp22
 70
     1
102
RTVSPropertyOp23
 70
     1
102
RTVSPropertyOp24
 70
     1
102
RTVSPropertyOp25
 70
     1
102
RTVSPropertyOp26
 70
     1
102
RTVSPropertyOp27
 70
     1
102
RTVSPropertyOp28
 70
     1
102
RTVSPropertyOp29
 70
     1
102
RTVSPropertyOp30
 70
     1
102
RTVSPropertyOp31
 70
     1
102
RTVSPropertyOp32
 70
     1
  0
XRECORD
  5
38D
102
{ACAD_REACTORS
330
38C
102
}
330
38C
100
AcDbXrecord
280
     1
102
RTVSPropertyOp0
 70
     1
102
RTVSPropertyOp1
 70
     1
102
RTVSPropertyOp2
 70
     1
102
RTVSPropertyOp3
 70
     1
102
RTVSPropertyOp4
 70
     1
102
RTVSPropertyOp5
 70
     1
102
RTVSPropertyOp6
 70
     1
102
RTVSPropertyOp7
 70
     1
102
RTVSPropertyOp8
 70
     1
102
RTVSPropertyOp9
 70
     1
102
RTVSPropertyOp10
 70
     1
102
RTVSPropertyOp11
 70
     1
102
RTVSPropertyOp12
 70
     1
102
RTVSPropertyOp13
 70
     1
102
RTVSPropertyOp14
 70
     1
102
RTVSPropertyOp15
 70
     1
102
RTVSPropertyOp16
 70
     1
102
RTVSPropertyOp17
 70
     1
102
RTVSPropertyOp18
 70
     1
102
RTVSPropertyOp19
 70
     1
102
RTVSPropertyOp20
 70
     1
102
RTVSPropertyOp21
 70
     1
102
RTVSPropertyOp22
 70
     1
102
RTVSPropertyOp23
 70
     1
102
RTVSPropertyOp24
 70
     1
102
RTVSPropertyOp25
 70
     1
102
RTVSPropertyOp26
 70
     1
102
RTVSPropertyOp27
 70
     1
102
RTVSPropertyOp28
 70
     1
102
RTVSPropertyOp29
 70
     1
102
RTVSPropertyOp30
 70
     1
102
RTVSPropertyOp31
 70
     1
102
RTVSPropertyOp32
 70
     1
  0
ENDSEC
  0
EOF
