0
SECTION
2
HEADER
9
$INSUNITS
70
4
9
$ACADVER
1
AC1014
9
$HANDSEED
5
FFFF
0
ENDSEC
0
SECTION
2
TABLES
0
TABLE
2
VPORT
5
8
100
AcDbSymbolTable
0
ENDTAB
0
TABLE
2
LTYPE
5
5
100
AcDbSymbolTable
0
LTYPE
5
14
100
AcDbSymbolTableRecord
100
AcDbLinetypeTableRecord
2
BYBLOCK
70
0
0
LTYPE
5
15
100
AcDbSymbolTableRecord
100
AcDbLinetypeTableRecord
2
BYLAYER
70
0
0
ENDTAB
0
TABLE
2
LAYER
5
2
100
AcDbSymbolTable
70
2
0
LAYER
5
50
100
AcDbSymbolTableRecord
100
AcDbLayerTableRecord
2
0
70
0
6
CONTINUOUS
0
ENDTAB
0
TABLE
2
STYLE
5
3
100
AcDbSymbolTable
70
1
0
STYLE
5
11
100
AcDbSymbolTableRecord
100
AcDbTextStyleTableRecord
2
STANDARD
70
0
0
ENDTAB
0
TABLE
2
VIEW
5
6
100
AcDbSymbolTable
70
0
0
ENDTAB
0
TABLE
2
UCS
5
7
100
AcDbSymbolTable
70
0
0
ENDTAB
0
TABLE
2
APPID
5
9
100
AcDbSymbolTable
70
2
0
APPID
5
12
100
AcDbSymbolTableRecord
100
AcDbRegAppTableRecord
2
ACAD
70
0
0
ENDTAB
0
TABLE
2
DIMSTYLE
5
A
100
AcDbSymbolTable
70
1
0
ENDTAB
0
TABLE
2
BLOCK_RECORD
5
1
100
AcDbSymbolTable
70
1
0
BLOCK_RECORD
5
1F
100
AcDbSymbolTableRecord
100
AcDbBlockTableRecord
2
*MODEL_SPACE
0
BLOCK_RECORD
5
1B
100
AcDbSymbolTableRecord
100
AcDbBlockTableRecord
2
*PAPER_SPACE
0
ENDTAB
0
ENDSEC
0
SECTION
2
BLOCKS
0
BLOCK
5
20
100
AcDbEntity
100
AcDbBlockBegin
2
*MODEL_SPACE
0
ENDBLK
5
21
100
AcDbEntity
100
AcDbBlockEnd
0
BLOCK
5
1C
100
AcDbEntity
100
AcDbBlockBegin
2
*PAPER_SPACE
0
ENDBLK
5
1D
100
AcDbEntity
100
AcDbBlockEnd
0
ENDSEC
0
SECTION
2
ENTITIES
0
LINE
5
100
100
AcDbEntity
8
0
100
AcDbLine
10
-732.58953542146605
20
197.32221133239528
30
-6.3500000000001933
11
-770.78953542146587
21
197.32221133239528
31
-6.3500000000001933
0
LINE
5
101
100
AcDbEntity
8
0
100
AcDbLine
10
-770.7895354214661
20
197.32219342332195
30
-6.3500000000000512
11
-770.78953542146587
21
559.22318115871826
31
-6.3500000000000512
0
LINE
5
102
100
AcDbEntity
8
0
100
AcDbLine
10
-770.78953542146587
20
559.22318115871826
30
-6.3500000000000512
11
-719.9895354214658
21
559.22318115871826
31
-6.3500000000000512
0
LINE
5
103
100
AcDbEntity
8
0
100
AcDbLine
10
-719.9895354214658
20
559.22318115871826
30
-6.3500000000000512
11
-719.98953542146592
21
197.32219342332201
31
-6.3500000000000512
0
LINE
5
104
100
AcDbEntity
8
0
100
AcDbLine
10
-719.98953542146592
20
197.32219342332201
30
-6.3500000000000512
11
-732.58953542146605
21
197.32219342332195
31
-6.3500000000000512
0
LINE
5
105
100
AcDbEntity
8
0
100
AcDbLine
10
-732.37949143376159
20
-181.00480037325957
30
-6.3500000000001933
11
-770.57949143376152
21
-181.00480037325957
31
-6.3500000000001933
0
LINE
5
106
100
AcDbEntity
8
0
100
AcDbLine
10
-770.57949143376163
20
-181.00481828233291
30
-6.3500000000000512
11
-770.57949143376152
21
180.89616945306346
31
-6.3500000000000512
0
LINE
5
107
100
AcDbEntity
8
0
100
AcDbLine
10
-770.57949143376152
20
180.89616945306346
30
-6.3500000000000512
11
-719.77949143376134
21
180.89616945306346
31
-6.3500000000000512
0
LINE
5
108
100
AcDbEntity
8
0
100
AcDbLine
10
-719.77949143376134
20
180.89616945306346
30
-6.3500000000000512
11
-719.77949143376145
21
-181.00481828233285
31
-6.3500000000000512
0
LINE
5
109
100
AcDbEntity
8
0
100
AcDbLine
10
-719.77949143376145
20
-181.00481828233285
30
-6.3500000000000512
11
-732.37949143376159
21
-181.00481828233288
31
-6.3500000000000512
0
LINE
5
110
100
AcDbEntity
8
0
100
AcDbLine
10
-591.65609799583638
20
-179.49507597054279
30
-6.3499999999999801
11
-629.85609799583631
21
-179.49507597054279
31
-6.3499999999999801
0
LINE
5
111
100
AcDbEntity
8
0
100
AcDbLine
10
-629.85609799583619
20
-179.49509387961604
30
-6.3499999999999801
11
-629.85609799583608
21
527.6945931655921
31
-6.3499999999999801
0
LINE
5
112
100
AcDbEntity
8
0
100
AcDbLine
10
-629.85609799583608
20
527.6945931655921
30
-6.3499999999999801
11
-579.05609799583601
21
527.6945931655921
31
-6.3499999999999801
0
LINE
5
113
100
AcDbEntity
8
0
100
AcDbLine
10
-579.05609799583601
20
527.6945931655921
30
-6.3499999999999801
11
-579.05609799583624
21
-179.49509387961612
31
-6.3499999999999801
0
LINE
5
114
100
AcDbEntity
8
0
100
AcDbLine
10
-579.05609799583624
20
-179.49509387961612
30
-6.3499999999999801
11
-591.65609799583626
21
-179.49509387961604
31
-6.3499999999999801
0
LINE
5
115
100
AcDbEntity
8
0
100
AcDbLine
10
-654.67320672734786
20
-179.49507597054279
30
-6.3499999999999801
11
-692.87320672734779
21
-179.49507597054279
31
-6.3499999999999801
0
LINE
5
116
100
AcDbEntity
8
0
100
AcDbLine
10
-692.87320672734779
20
-179.49509387961604
30
-6.3499999999999801
11
-692.87320672734768
21
527.6945931655921
31
-6.3499999999999801
0
LINE
5
117
100
AcDbEntity
8
0
100
AcDbLine
10
-692.87320672734768
20
527.6945931655921
30
-6.3499999999999801
11
-642.0732067273475
21
527.6945931655921
31
-6.3499999999999801
0
LINE
5
118
100
AcDbEntity
8
0
100
AcDbLine
10
-642.0732067273475
20
527.6945931655921
30
-6.3499999999999801
11
-642.07320672734784
21
-179.49509387961612
31
-6.3499999999999801
0
LINE
5
119
100
AcDbEntity
8
0
100
AcDbLine
10
-642.07320672734784
20
-179.49509387961612
30
-6.3499999999999801
11
-654.67320672734786
21
-179.49509387961604
31
-6.3499999999999801
0
ENDSEC
0
SECTION
2
OBJECTS
0
DICTIONARY
5
C
100
AcDbDictionary
3
ACAD_GROUP
350
D
3
ACAD_MLINESTYLE
350
17
0
DICTIONARY
5
D
100
AcDbDictionary
0
DICTIONARY
5
1A
330
C
100
AcDbDictionary
0
DICTIONARY
5
17
100
AcDbDictionary
0
ENDSEC
0
EOF
