0
SECTION
2
HEADER
9
$INSUNITS
70
4
9
$ACADVER
1
AC1014
9
$HANDSEED
5
FFFF
0
ENDSEC
0
SECTION
2
TABLES
0
TABLE
2
VPORT
5
8
100
AcDbSymbolTable
0
ENDTAB
0
TABLE
2
LTYPE
5
5
100
AcDbSymbolTable
0
LTYPE
5
14
100
AcDbSymbolTableRecord
100
AcDbLinetypeTableRecord
2
BYBLOCK
70
0
0
LTYPE
5
15
100
AcDbSymbolTableRecord
100
AcDbLinetypeTableRecord
2
BYLAYER
70
0
0
ENDTAB
0
TABLE
2
LAYER
5
2
100
AcDbSymbolTable
70
2
0
LAYER
5
50
100
AcDbSymbolTableRecord
100
AcDbLayerTableRecord
2
0
70
0
6
CONTINUOUS
0
ENDTAB
0
TABLE
2
STYLE
5
3
100
AcDbSymbolTable
70
1
0
STYLE
5
11
100
AcDbSymbolTableRecord
100
AcDbTextStyleTableRecord
2
STANDARD
70
0
0
ENDTAB
0
TABLE
2
VIEW
5
6
100
AcDbSymbolTable
70
0
0
ENDTAB
0
TABLE
2
UCS
5
7
100
AcDbSymbolTable
70
0
0
ENDTAB
0
TABLE
2
APPID
5
9
100
AcDbSymbolTable
70
2
0
APPID
5
12
100
AcDbSymbolTableRecord
100
AcDbRegAppTableRecord
2
ACAD
70
0
0
ENDTAB
0
TABLE
2
DIMSTYLE
5
A
100
AcDbSymbolTable
70
1
0
ENDTAB
0
TABLE
2
BLOCK_RECORD
5
1
100
AcDbSymbolTable
70
1
0
BLOCK_RECORD
5
1F
100
AcDbSymbolTableRecord
100
AcDbBlockTableRecord
2
*MODEL_SPACE
0
BLOCK_RECORD
5
1B
100
AcDbSymbolTableRecord
100
AcDbBlockTableRecord
2
*PAPER_SPACE
0
ENDTAB
0
ENDSEC
0
SECTION
2
BLOCKS
0
BLOCK
5
20
100
AcDbEntity
100
AcDbBlockBegin
2
*MODEL_SPACE
0
ENDBLK
5
21
100
AcDbEntity
100
AcDbBlockEnd
0
BLOCK
5
1C
100
AcDbEntity
100
AcDbBlockBegin
2
*PAPER_SPACE
0
ENDBLK
5
1D
100
AcDbEntity
100
AcDbBlockEnd
0
ENDSEC
0
SECTION
2
ENTITIES
0
LWPOLYLINE
5
100
100
AcDbEntity
8
0
100
AcDbPolyline
90
8
70
1
43
0.0
10
-33.770180381922536
20
49
42
-0.4142135623730952
10
-27.770180381922533
20
55
10
27.770180381922533
20
55
42
-0.4142135623730952
10
33.770180381922536
20
49
10
33.770180381922522
20
-49
42
-0.41421356237309548
10
27.770180381922515
20
-55
10
-27.770180381922533
20
-55
42
-0.4142135623730952
10
-33.770180381922536
20
-49
0
CIRCLE
5
101
100
AcDbEntity
8
0
100
AcDbCircle
10
-25.284899007683961
20
46.514718625761432
30
0
40
2.9999999999999982
0
CIRCLE
5
102
100
AcDbEntity
8
0
100
AcDbCircle
10
25.284899007683961
20
46.514718625761432
30
0
40
2.9999999999999978
0
CIRCLE
5
103
100
AcDbEntity
8
0
100
AcDbCircle
10
-25.284899007683958
20
-46.514718625761432
30
0
40
3.0000000000000027
0
CIRCLE
5
104
100
AcDbEntity
8
0
100
AcDbCircle
10
25.28489900768394
20
-46.514718625761418
30
0
40
2.9999999999999982
0
LINE
5
105
100
AcDbEntity
8
0
100
AcDbLine
10
2.2973803124451688
20
31.354469170447004
30
2.3007154508936004e-15
11
2.2973803124451693
21
55.013136414349511
31
5.1980665621273609e-15
0
LINE
5
106
100
AcDbEntity
8
0
100
AcDbLine
10
2.2973803124451688
20
31.354469170447004
30
2.3007154508936004e-15
11
-2.2026196875548187
21
31.354469170447004
31
2.3007154508936004e-15
0
LINE
5
107
100
AcDbEntity
8
0
100
AcDbLine
10
-2.2026196875548183
20
55.002843314180012
30
5.1968060209097728e-15
11
-2.2026196875548183
21
53.002843314179998
31
4.9518766610803017e-15
0
LINE
5
108
100
AcDbEntity
8
0
100
AcDbLine
10
-2.2026196875548187
20
31.354469170447004
30
2.3007154508936004e-15
11
-2.2026196875548183
21
53.002843314179998
31
4.9518766610803017e-15
0
LINE
5
109
100
AcDbEntity
8
0
100
AcDbLine
10
-33.820824720042964
20
7.5000000000000009
30
0
11
-20.8379797302978
21
7.4999999999999964
31
0
0
CIRCLE
5
110
100
AcDbEntity
8
0
100
AcDbCircle
10
0
20
0
30
0
40
22.200000000000003
0
LINE
5
111
100
AcDbEntity
8
0
100
AcDbLine
10
-33.820824720042964
20
-7.4999999999999991
30
0
11
-20.8379797302978
21
-7.5000000000000036
31
0
0
ENDSEC
0
SECTION
2
OBJECTS
0
DICTIONARY
5
C
100
AcDbDictionary
3
ACAD_GROUP
350
D
3
ACAD_MLINESTYLE
350
17
0
DICTIONARY
5
D
100
AcDbDictionary
0
DICTIONARY
5
1A
330
C
100
AcDbDictionary
0
DICTIONARY
5
17
100
AcDbDictionary
0
ENDSEC
0
EOF
