  0
SECTION
  2
HEADER
  9
$ACADVER
  1
AC1014
  9
$HANDSEED
  5
FFFF
  9
$MEASUREMENT
 70
     1
  0
ENDSEC
  0
SECTION
  2
TABLES
  0
TABLE
  2
VPORT
  5
8
330
0
100
AcDbSymbolTable
 70
     4
  0
VPORT
  5
2E
330
8
100
AcDbSymbolTableRecord
100
AcDbViewportTableRecord
  2
*ACTIVE
 70
     0
 10
0.0
 20
0.0
 11
1.0
 21
1.0
 12
210.0
 22
148.5
 13
0.0
 23
0.0
 14
10.0
 24
10.0
 15
10.0
 25
10.0
 16
0.0
 26
0.0
 36
1.0
 17
0.0
 27
0.0
 37
0.0
 40
341.0
 41
1.24
 42
50.0
 43
0.0
 44
0.0
 50
0.0
 51
0.0
 71
     0
 72
   100
 73
     1
 74
     3
 75
     0
 76
     0
 77
     0
 78
     0
  0
ENDTAB
  0
TABLE
  2
LTYPE
  5
5
330
0
100
AcDbSymbolTable
 70
     1
  0
LTYPE
  5
14
330
5
100
AcDbSymbolTableRecord
100
AcDbLinetypeTableRecord
  2
BYBLOCK
 70
     0
  3

 72
    65
 73
     0
 40
0.0
  0
LTYPE
  5
15
330
5
100
AcDbSymbolTableRecord
100
AcDbLinetypeTableRecord
  2
BYLAYER
 70
     0
  3

 72
    65
 73
     0
 40
0.0
  0
LTYPE
  5
16
330
5
100
AcDbSymbolTableRecord
100
AcDbLinetypeTableRecord
  2
CONTINUOUS
 70
     0
  3
Solid line
 72
    65
 73
     0
 40
0.0
  0
ENDTAB
  0
TABLE
  2
LAYER
  5
2
100
AcDbSymbolTable
 70
2
  0
LAYER
  5
50
100
AcDbSymbolTableRecord
100
AcDbLayerTableRecord
  2
0
 70
0
  6
CONTINUOUS
  0
LAYER
  5
51
100
AcDbSymbolTableRecord
100
AcDbLayerTableRecord
  2
Unique_Pieces
 70
0
  6
CONTINUOUS
  0
ENDTAB
  0
TABLE
  2
STYLE
  5
3
330
0
100
AcDbSymbolTable
 70
     1
  0
STYLE
  5
11
330
3
100
AcDbSymbolTableRecord
100
AcDbTextStyleTableRecord
  2
STANDARD
 70
     0
 40
0.0
 41
1.0
 50
0.0
 71
     0
 42
2.5
  3
txt
  4

  0
ENDTAB
  0
TABLE
  2
VIEW
  5
6
330
0
100
AcDbSymbolTable
 70
     0
  0
ENDTAB
  0
TABLE
  2
UCS
  5
7
330
0
100
AcDbSymbolTable
 70
     0
  0
ENDTAB
  0
TABLE
  2
APPID
  5
9
330
0
100
AcDbSymbolTable
 70
     2
  0
APPID
  5
12
330
9
100
AcDbSymbolTableRecord
100
AcDbRegAppTableRecord
  2
ACAD
 70
     0
  0
ENDTAB
  0
TABLE
  2
DIMSTYLE
  5
A
330
0
100
AcDbSymbolTable
 70
     1
  0
DIMSTYLE
105
27
330
A
100
AcDbSymbolTableRecord
100
AcDbDimStyleTableRecord
  2
ISO-25
 70
     0
  3

  4

  5

  6

  7

 40
1.0
 41
2.5
 42
0.625
 43
3.75
 44
1.25
 45
0.0
 46
0.0
 47
0.0
 48
0.0
140
2.5
141
2.5
142
0.0
143
0.03937007874016
144
1.0
145
0.0
146
1.0
147
0.625
 71
     0
 72
     0
 73
     0
 74
     0
 75
     0
 76
     0
 77
     1
 78
     8
170
     0
171
     3
172
     1
173
     0
174
     0
175
     0
176
     0
177
     0
178
     0
270
     2
271
     2
272
     2
273
     2
274
     3
340
11
275
     0
280
     0
281
     0
282
     0
283
     0
284
     8
285
     0
286
     0
287
     3
288
     0
  0
ENDTAB
  0
TABLE
  2
BLOCK_RECORD
  5
1
330
0
100
AcDbSymbolTable
 70
     1
  0
BLOCK_RECORD
  5
1F
330
1
100
AcDbSymbolTableRecord
100
AcDbBlockTableRecord
  2
*MODEL_SPACE
  0
BLOCK_RECORD
  5
1B
330
1
100
AcDbSymbolTableRecord
100
AcDbBlockTableRecord
  2
*PAPER_SPACE
  0
ENDTAB
  0
ENDSEC
  0
SECTION
  2
BLOCKS
  0
BLOCK
  5
20
330
1F
100
AcDbEntity
  8
0
100
AcDbBlockBegin
  2
*MODEL_SPACE
 70
     0
 10
0.0
 20
0.0
 30
0.0
  3
*MODEL_SPACE
  1

  0
ENDBLK
  5
21
330
1F
100
AcDbEntity
  8
0
100
AcDbBlockEnd
  0
BLOCK
  5
1C
330
1B
100
AcDbEntity
 67
     1
  8
0
100
AcDbBlockBegin
  2
*PAPER_SPACE
  1

  0
ENDBLK
  5
1D
330
1B
100
AcDbEntity
 67
     1
  8
0
100
AcDbBlockEnd
  0
ENDSEC
  0
SECTION
  2
ENTITIES
  0
LINE
  5
100
100
AcDbEntity
  8
Unique_Pieces
 62
1
100
AcDbLine
 10
-560.400903
 20
512.023380
 30
0.0
 11
-554.812903
 21
512.023380
 31
0.0
  0
LINE
  5
101
100
AcDbEntity
  8
Unique_Pieces
 62
1
100
AcDbLine
 10
-554.812903
 20
512.023380
 30
0.0
 11
-554.812903
 21
506.435380
 31
0.0
  0
LINE
  5
102
100
AcDbEntity
  8
Unique_Pieces
 62
1
100
AcDbLine
 10
-554.812903
 20
506.435380
 30
0.0
 11
-527.888904
 21
506.435380
 31
0.0
  0
LINE
  5
103
100
AcDbEntity
  8
Unique_Pieces
 62
1
100
AcDbLine
 10
-527.888904
 20
506.435380
 30
0.0
 11
-527.888904
 21
500.847380
 31
0.0
  0
LINE
  5
104
100
AcDbEntity
  8
Unique_Pieces
 62
1
100
AcDbLine
 10
-527.888904
 20
500.847380
 30
0.0
 11
-489.788904
 21
500.847380
 31
0.0
  0
LINE
  5
105
100
AcDbEntity
  8
Unique_Pieces
 62
1
100
AcDbLine
 10
-489.788904
 20
500.847380
 30
0.0
 11
-489.788904
 21
506.435380
 31
0.0
  0
LINE
  5
106
100
AcDbEntity
  8
Unique_Pieces
 62
1
100
AcDbLine
 10
-489.788904
 20
506.435380
 30
0.0
 11
-451.688905
 21
506.435380
 31
0.0
  0
LINE
  5
107
100
AcDbEntity
  8
Unique_Pieces
 62
1
100
AcDbLine
 10
-451.688905
 20
506.435380
 30
0.0
 11
-451.688905
 21
500.847380
 31
0.0
  0
LINE
  5
108
100
AcDbEntity
  8
Unique_Pieces
 62
1
100
AcDbLine
 10
-451.688905
 20
500.847380
 30
0.0
 11
-413.588900
 21
500.847380
 31
0.0
  0
LINE
  5
109
100
AcDbEntity
  8
Unique_Pieces
 62
1
100
AcDbLine
 10
-413.588900
 20
500.847380
 30
0.0
 11
-413.588900
 21
647.659378
 31
0.0
  0
LINE
  5
10a
100
AcDbEntity
  8
Unique_Pieces
 62
1
100
AcDbLine
 10
-413.588900
 20
647.659378
 30
0.0
 11
-451.688905
 21
647.659378
 31
0.0
  0
LINE
  5
10b
100
AcDbEntity
  8
Unique_Pieces
 62
1
100
AcDbLine
 10
-451.688905
 20
647.659378
 30
0.0
 11
-451.688905
 21
653.247378
 31
0.0
  0
LINE
  5
10c
100
AcDbEntity
  8
Unique_Pieces
 62
1
100
AcDbLine
 10
-451.688905
 20
653.247378
 30
0.0
 11
-489.788904
 21
653.247378
 31
0.0
  0
LINE
  5
10d
100
AcDbEntity
  8
Unique_Pieces
 62
1
100
AcDbLine
 10
-489.788904
 20
653.247378
 30
0.0
 11
-489.788904
 21
647.659378
 31
0.0
  0
LINE
  5
10e
100
AcDbEntity
  8
Unique_Pieces
 62
1
100
AcDbLine
 10
-489.788904
 20
647.659378
 30
0.0
 11
-527.888904
 21
647.659378
 31
0.0
  0
LINE
  5
10f
100
AcDbEntity
  8
Unique_Pieces
 62
1
100
AcDbLine
 10
-527.888904
 20
647.659378
 30
0.0
 11
-527.888904
 21
653.247378
 31
0.0
  0
LINE
  5
110
100
AcDbEntity
  8
Unique_Pieces
 62
1
100
AcDbLine
 10
-527.888904
 20
653.247378
 30
0.0
 11
-565.988903
 21
653.247378
 31
0.0
  0
LINE
  5
111
100
AcDbEntity
  8
Unique_Pieces
 62
1
100
AcDbLine
 10
-565.988903
 20
653.247378
 30
0.0
 11
-565.988903
 21
615.147379
 31
0.0
  0
LINE
  5
112
100
AcDbEntity
  8
Unique_Pieces
 62
1
100
AcDbLine
 10
-565.988903
 20
615.147379
 30
0.0
 11
-560.400903
 21
615.147379
 31
0.0
  0
LINE
  5
113
100
AcDbEntity
  8
Unique_Pieces
 62
1
100
AcDbLine
 10
-560.400903
 20
615.147379
 30
0.0
 11
-560.400903
 21
577.047379
 31
0.0
  0
LINE
  5
114
100
AcDbEntity
  8
Unique_Pieces
 62
1
100
AcDbLine
 10
-560.400903
 20
577.047379
 30
0.0
 11
-565.988903
 21
577.047379
 31
0.0
  0
LINE
  5
115
100
AcDbEntity
  8
Unique_Pieces
 62
1
100
AcDbLine
 10
-565.988903
 20
577.047379
 30
0.0
 11
-565.988903
 21
538.947380
 31
0.0
  0
LINE
  5
116
100
AcDbEntity
  8
Unique_Pieces
 62
1
100
AcDbLine
 10
-565.988903
 20
538.947380
 30
0.0
 11
-560.400903
 21
538.947380
 31
0.0
  0
LINE
  5
117
100
AcDbEntity
  8
Unique_Pieces
 62
1
100
AcDbLine
 10
-560.400903
 20
538.947380
 30
0.0
 11
-560.400903
 21
512.023380
 31
0.0
  0
LINE
  5
118
100
AcDbEntity
  8
Unique_Pieces
 62
1
100
AcDbLine
 10
-554.812903
 20
642.071378
 30
0.0
 11
-560.400903
 21
642.071378
 31
0.0
  0
LINE
  5
119
100
AcDbEntity
  8
Unique_Pieces
 62
1
100
AcDbLine
 10
-560.400903
 20
642.071378
 30
0.0
 11
-560.400903
 21
647.659378
 31
0.0
  0
LINE
  5
11a
100
AcDbEntity
  8
Unique_Pieces
 62
1
100
AcDbLine
 10
-560.400903
 20
647.659378
 30
0.0
 11
-554.812903
 21
647.659378
 31
0.0
  0
LINE
  5
11b
100
AcDbEntity
  8
Unique_Pieces
 62
1
100
AcDbLine
 10
-554.812903
 20
647.659378
 30
0.0
 11
-554.812903
 21
642.071378
 31
0.0
  0
LINE
  5
11c
100
AcDbEntity
  8
Unique_Pieces
 62
1
100
AcDbLine
 10
-408.000900
 20
512.023380
 30
0.0
 11
-402.412900
 21
512.023380
 31
0.0
  0
LINE
  5
11d
100
AcDbEntity
  8
Unique_Pieces
 62
1
100
AcDbLine
 10
-402.412900
 20
512.023380
 30
0.0
 11
-402.412900
 21
506.435380
 31
0.0
  0
LINE
  5
11e
100
AcDbEntity
  8
Unique_Pieces
 62
1
100
AcDbLine
 10
-402.412900
 20
506.435380
 30
0.0
 11
-375.488900
 21
506.435380
 31
0.0
  0
LINE
  5
11f
100
AcDbEntity
  8
Unique_Pieces
 62
1
100
AcDbLine
 10
-375.488900
 20
506.435380
 30
0.0
 11
-375.488900
 21
500.847380
 31
0.0
  0
LINE
  5
120
100
AcDbEntity
  8
Unique_Pieces
 62
1
100
AcDbLine
 10
-375.488900
 20
500.847380
 30
0.0
 11
-337.388900
 21
500.847380
 31
0.0
  0
LINE
  5
121
100
AcDbEntity
  8
Unique_Pieces
 62
1
100
AcDbLine
 10
-337.388900
 20
500.847380
 30
0.0
 11
-337.388900
 21
506.435380
 31
0.0
  0
LINE
  5
122
100
AcDbEntity
  8
Unique_Pieces
 62
1
100
AcDbLine
 10
-337.388900
 20
506.435380
 30
0.0
 11
-299.288900
 21
506.435380
 31
0.0
  0
LINE
  5
123
100
AcDbEntity
  8
Unique_Pieces
 62
1
100
AcDbLine
 10
-299.288900
 20
506.435380
 30
0.0
 11
-299.288900
 21
500.847380
 31
0.0
  0
LINE
  5
124
100
AcDbEntity
  8
Unique_Pieces
 62
1
100
AcDbLine
 10
-299.288900
 20
500.847380
 30
0.0
 11
-261.188900
 21
500.847380
 31
0.0
  0
LINE
  5
125
100
AcDbEntity
  8
Unique_Pieces
 62
1
100
AcDbLine
 10
-261.188900
 20
500.847380
 30
0.0
 11
-261.188900
 21
653.247380
 31
0.0
  0
LINE
  5
126
100
AcDbEntity
  8
Unique_Pieces
 62
1
100
AcDbLine
 10
-261.188900
 20
653.247380
 30
0.0
 11
-299.288900
 21
653.247380
 31
0.0
  0
LINE
  5
127
100
AcDbEntity
  8
Unique_Pieces
 62
1
100
AcDbLine
 10
-299.288900
 20
653.247380
 30
0.0
 11
-299.288900
 21
658.835380
 31
0.0
  0
LINE
  5
128
100
AcDbEntity
  8
Unique_Pieces
 62
1
100
AcDbLine
 10
-299.288900
 20
658.835380
 30
0.0
 11
-337.388900
 21
658.835380
 31
0.0
  0
LINE
  5
129
100
AcDbEntity
  8
Unique_Pieces
 62
1
100
AcDbLine
 10
-337.388900
 20
658.835380
 30
0.0
 11
-337.388900
 21
653.247380
 31
0.0
  0
LINE
  5
12a
100
AcDbEntity
  8
Unique_Pieces
 62
1
100
AcDbLine
 10
-337.388900
 20
653.247380
 30
0.0
 11
-375.488900
 21
653.247380
 31
0.0
  0
LINE
  5
12b
100
AcDbEntity
  8
Unique_Pieces
 62
1
100
AcDbLine
 10
-375.488900
 20
653.247380
 30
0.0
 11
-375.488900
 21
658.835380
 31
0.0
  0
LINE
  5
12c
100
AcDbEntity
  8
Unique_Pieces
 62
1
100
AcDbLine
 10
-375.488900
 20
658.835380
 30
0.0
 11
-413.588900
 21
658.835380
 31
0.0
  0
LINE
  5
12d
100
AcDbEntity
  8
Unique_Pieces
 62
1
100
AcDbLine
 10
-413.588900
 20
658.835380
 30
0.0
 11
-413.588900
 21
620.735380
 31
0.0
  0
LINE
  5
12e
100
AcDbEntity
  8
Unique_Pieces
 62
1
100
AcDbLine
 10
-413.588900
 20
620.735380
 30
0.0
 11
-408.000900
 21
620.735380
 31
0.0
  0
LINE
  5
12f
100
AcDbEntity
  8
Unique_Pieces
 62
1
100
AcDbLine
 10
-408.000900
 20
620.735380
 30
0.0
 11
-408.000900
 21
582.635380
 31
0.0
  0
LINE
  5
130
100
AcDbEntity
  8
Unique_Pieces
 62
1
100
AcDbLine
 10
-408.000900
 20
582.635380
 30
0.0
 11
-413.588900
 21
582.635380
 31
0.0
  0
LINE
  5
131
100
AcDbEntity
  8
Unique_Pieces
 62
1
100
AcDbLine
 10
-413.588900
 20
582.635380
 30
0.0
 11
-413.588900
 21
544.535380
 31
0.0
  0
LINE
  5
132
100
AcDbEntity
  8
Unique_Pieces
 62
1
100
AcDbLine
 10
-413.588900
 20
544.535380
 30
0.0
 11
-408.000900
 21
544.535380
 31
0.0
  0
LINE
  5
133
100
AcDbEntity
  8
Unique_Pieces
 62
1
100
AcDbLine
 10
-408.000900
 20
544.535380
 30
0.0
 11
-408.000900
 21
512.023380
 31
0.0
  0
LINE
  5
134
100
AcDbEntity
  8
Unique_Pieces
 62
1
100
AcDbLine
 10
-402.412900
 20
642.071380
 30
0.0
 11
-408.000900
 21
642.071380
 31
0.0
  0
LINE
  5
135
100
AcDbEntity
  8
Unique_Pieces
 62
1
100
AcDbLine
 10
-408.000900
 20
642.071380
 30
0.0
 11
-408.000900
 21
647.659380
 31
0.0
  0
LINE
  5
136
100
AcDbEntity
  8
Unique_Pieces
 62
1
100
AcDbLine
 10
-408.000900
 20
647.659380
 30
0.0
 11
-402.412900
 21
647.659380
 31
0.0
  0
LINE
  5
137
100
AcDbEntity
  8
Unique_Pieces
 62
1
100
AcDbLine
 10
-402.412900
 20
647.659380
 30
0.0
 11
-402.412900
 21
642.071380
 31
0.0
  0
LINE
  5
138
100
AcDbEntity
  8
Unique_Pieces
 62
1
100
AcDbLine
 10
-255.600903
 20
512.023380
 30
0.0
 11
-250.012903
 21
512.023380
 31
0.0
  0
LINE
  5
139
100
AcDbEntity
  8
Unique_Pieces
 62
1
100
AcDbLine
 10
-250.012903
 20
512.023380
 30
0.0
 11
-250.012903
 21
506.435380
 31
0.0
  0
LINE
  5
13a
100
AcDbEntity
  8
Unique_Pieces
 62
1
100
AcDbLine
 10
-250.012903
 20
506.435380
 30
0.0
 11
-223.088904
 21
506.435380
 31
0.0
  0
LINE
  5
13b
100
AcDbEntity
  8
Unique_Pieces
 62
1
100
AcDbLine
 10
-223.088904
 20
506.435380
 30
0.0
 11
-223.088904
 21
500.847380
 31
0.0
  0
LINE
  5
13c
100
AcDbEntity
  8
Unique_Pieces
 62
1
100
AcDbLine
 10
-223.088904
 20
500.847380
 30
0.0
 11
-184.988904
 21
500.847380
 31
0.0
  0
LINE
  5
13d
100
AcDbEntity
  8
Unique_Pieces
 62
1
100
AcDbLine
 10
-184.988904
 20
500.847380
 30
0.0
 11
-184.988904
 21
506.435380
 31
0.0
  0
LINE
  5
13e
100
AcDbEntity
  8
Unique_Pieces
 62
1
100
AcDbLine
 10
-184.988904
 20
506.435380
 30
0.0
 11
-146.888905
 21
506.435380
 31
0.0
  0
LINE
  5
13f
100
AcDbEntity
  8
Unique_Pieces
 62
1
100
AcDbLine
 10
-146.888905
 20
506.435380
 30
0.0
 11
-146.888905
 21
500.847380
 31
0.0
  0
LINE
  5
140
100
AcDbEntity
  8
Unique_Pieces
 62
1
100
AcDbLine
 10
-146.888905
 20
500.847380
 30
0.0
 11
-108.788900
 21
500.847380
 31
0.0
  0
LINE
  5
141
100
AcDbEntity
  8
Unique_Pieces
 62
1
100
AcDbLine
 10
-108.788900
 20
500.847380
 30
0.0
 11
-108.788900
 21
800.059376
 31
0.0
  0
LINE
  5
142
100
AcDbEntity
  8
Unique_Pieces
 62
1
100
AcDbLine
 10
-108.788900
 20
800.059376
 30
0.0
 11
-146.888905
 21
800.059376
 31
0.0
  0
LINE
  5
143
100
AcDbEntity
  8
Unique_Pieces
 62
1
100
AcDbLine
 10
-146.888905
 20
800.059376
 30
0.0
 11
-146.888905
 21
805.647376
 31
0.0
  0
LINE
  5
144
100
AcDbEntity
  8
Unique_Pieces
 62
1
100
AcDbLine
 10
-146.888905
 20
805.647376
 30
0.0
 11
-184.988904
 21
805.647376
 31
0.0
  0
LINE
  5
145
100
AcDbEntity
  8
Unique_Pieces
 62
1
100
AcDbLine
 10
-184.988904
 20
805.647376
 30
0.0
 11
-184.988904
 21
800.059376
 31
0.0
  0
LINE
  5
146
100
AcDbEntity
  8
Unique_Pieces
 62
1
100
AcDbLine
 10
-184.988904
 20
800.059376
 30
0.0
 11
-223.088904
 21
800.059376
 31
0.0
  0
LINE
  5
147
100
AcDbEntity
  8
Unique_Pieces
 62
1
100
AcDbLine
 10
-223.088904
 20
800.059376
 30
0.0
 11
-223.088904
 21
805.647376
 31
0.0
  0
LINE
  5
148
100
AcDbEntity
  8
Unique_Pieces
 62
1
100
AcDbLine
 10
-223.088904
 20
805.647376
 30
0.0
 11
-261.188903
 21
805.647376
 31
0.0
  0
LINE
  5
149
100
AcDbEntity
  8
Unique_Pieces
 62
1
100
AcDbLine
 10
-261.188903
 20
805.647376
 30
0.0
 11
-261.188903
 21
767.547377
 31
0.0
  0
LINE
  5
14a
100
AcDbEntity
  8
Unique_Pieces
 62
1
100
AcDbLine
 10
-261.188903
 20
767.547377
 30
0.0
 11
-255.600903
 21
767.547377
 31
0.0
  0
LINE
  5
14b
100
AcDbEntity
  8
Unique_Pieces
 62
1
100
AcDbLine
 10
-255.600903
 20
767.547377
 30
0.0
 11
-255.600903
 21
729.447377
 31
0.0
  0
LINE
  5
14c
100
AcDbEntity
  8
Unique_Pieces
 62
1
100
AcDbLine
 10
-255.600903
 20
729.447377
 30
0.0
 11
-261.188903
 21
729.447377
 31
0.0
  0
LINE
  5
14d
100
AcDbEntity
  8
Unique_Pieces
 62
1
100
AcDbLine
 10
-261.188903
 20
729.447377
 30
0.0
 11
-261.188903
 21
691.347378
 31
0.0
  0
LINE
  5
14e
100
AcDbEntity
  8
Unique_Pieces
 62
1
100
AcDbLine
 10
-261.188903
 20
691.347378
 30
0.0
 11
-255.600903
 21
691.347378
 31
0.0
  0
LINE
  5
14f
100
AcDbEntity
  8
Unique_Pieces
 62
1
100
AcDbLine
 10
-255.600903
 20
691.347378
 30
0.0
 11
-255.600903
 21
653.247378
 31
0.0
  0
LINE
  5
150
100
AcDbEntity
  8
Unique_Pieces
 62
1
100
AcDbLine
 10
-255.600903
 20
653.247378
 30
0.0
 11
-261.188903
 21
653.247378
 31
0.0
  0
LINE
  5
151
100
AcDbEntity
  8
Unique_Pieces
 62
1
100
AcDbLine
 10
-261.188903
 20
653.247378
 30
0.0
 11
-261.188903
 21
615.147379
 31
0.0
  0
LINE
  5
152
100
AcDbEntity
  8
Unique_Pieces
 62
1
100
AcDbLine
 10
-261.188903
 20
615.147379
 30
0.0
 11
-255.600903
 21
615.147379
 31
0.0
  0
LINE
  5
153
100
AcDbEntity
  8
Unique_Pieces
 62
1
100
AcDbLine
 10
-255.600903
 20
615.147379
 30
0.0
 11
-255.600903
 21
577.047379
 31
0.0
  0
LINE
  5
154
100
AcDbEntity
  8
Unique_Pieces
 62
1
100
AcDbLine
 10
-255.600903
 20
577.047379
 30
0.0
 11
-261.188903
 21
577.047379
 31
0.0
  0
LINE
  5
155
100
AcDbEntity
  8
Unique_Pieces
 62
1
100
AcDbLine
 10
-261.188903
 20
577.047379
 30
0.0
 11
-261.188903
 21
538.947380
 31
0.0
  0
LINE
  5
156
100
AcDbEntity
  8
Unique_Pieces
 62
1
100
AcDbLine
 10
-261.188903
 20
538.947380
 30
0.0
 11
-255.600903
 21
538.947380
 31
0.0
  0
LINE
  5
157
100
AcDbEntity
  8
Unique_Pieces
 62
1
100
AcDbLine
 10
-255.600903
 20
538.947380
 30
0.0
 11
-255.600903
 21
512.023380
 31
0.0
  0
LINE
  5
158
100
AcDbEntity
  8
Unique_Pieces
 62
1
100
AcDbLine
 10
-250.012903
 20
794.471376
 30
0.0
 11
-255.600903
 21
794.471376
 31
0.0
  0
LINE
  5
159
100
AcDbEntity
  8
Unique_Pieces
 62
1
100
AcDbLine
 10
-255.600903
 20
794.471376
 30
0.0
 11
-255.600903
 21
800.059376
 31
0.0
  0
LINE
  5
15a
100
AcDbEntity
  8
Unique_Pieces
 62
1
100
AcDbLine
 10
-255.600903
 20
800.059376
 30
0.0
 11
-250.012903
 21
800.059376
 31
0.0
  0
LINE
  5
15b
100
AcDbEntity
  8
Unique_Pieces
 62
1
100
AcDbLine
 10
-250.012903
 20
800.059376
 30
0.0
 11
-250.012903
 21
794.471376
 31
0.0
  0
LINE
  5
15c
100
AcDbEntity
  8
Unique_Pieces
 62
1
100
AcDbLine
 10
-103.200900
 20
512.023380
 30
0.0
 11
-97.612900
 21
512.023380
 31
0.0
  0
LINE
  5
15d
100
AcDbEntity
  8
Unique_Pieces
 62
1
100
AcDbLine
 10
-97.612900
 20
512.023380
 30
0.0
 11
-97.612900
 21
506.435380
 31
0.0
  0
LINE
  5
15e
100
AcDbEntity
  8
Unique_Pieces
 62
1
100
AcDbLine
 10
-97.612900
 20
506.435380
 30
0.0
 11
-70.688900
 21
506.435380
 31
0.0
  0
LINE
  5
15f
100
AcDbEntity
  8
Unique_Pieces
 62
1
100
AcDbLine
 10
-70.688900
 20
506.435380
 30
0.0
 11
-70.688900
 21
500.847380
 31
0.0
  0
LINE
  5
160
100
AcDbEntity
  8
Unique_Pieces
 62
1
100
AcDbLine
 10
-70.688900
 20
500.847380
 30
0.0
 11
-32.588900
 21
500.847380
 31
0.0
  0
LINE
  5
161
100
AcDbEntity
  8
Unique_Pieces
 62
1
100
AcDbLine
 10
-32.588900
 20
500.847380
 30
0.0
 11
-32.588900
 21
506.435380
 31
0.0
  0
LINE
  5
162
100
AcDbEntity
  8
Unique_Pieces
 62
1
100
AcDbLine
 10
-32.588900
 20
506.435380
 30
0.0
 11
5.511100
 21
506.435380
 31
0.0
  0
LINE
  5
163
100
AcDbEntity
  8
Unique_Pieces
 62
1
100
AcDbLine
 10
5.511100
 20
506.435380
 30
0.0
 11
5.511100
 21
500.847380
 31
0.0
  0
LINE
  5
164
100
AcDbEntity
  8
Unique_Pieces
 62
1
100
AcDbLine
 10
5.511100
 20
500.847380
 30
0.0
 11
43.611100
 21
500.847380
 31
0.0
  0
LINE
  5
165
100
AcDbEntity
  8
Unique_Pieces
 62
1
100
AcDbLine
 10
43.611100
 20
500.847380
 30
0.0
 11
43.611100
 21
805.647380
 31
0.0
  0
LINE
  5
166
100
AcDbEntity
  8
Unique_Pieces
 62
1
100
AcDbLine
 10
43.611100
 20
805.647380
 30
0.0
 11
5.511100
 21
805.647380
 31
0.0
  0
LINE
  5
167
100
AcDbEntity
  8
Unique_Pieces
 62
1
100
AcDbLine
 10
5.511100
 20
805.647380
 30
0.0
 11
5.511100
 21
811.235380
 31
0.0
  0
LINE
  5
168
100
AcDbEntity
  8
Unique_Pieces
 62
1
100
AcDbLine
 10
5.511100
 20
811.235380
 30
0.0
 11
-32.588900
 21
811.235380
 31
0.0
  0
LINE
  5
169
100
AcDbEntity
  8
Unique_Pieces
 62
1
100
AcDbLine
 10
-32.588900
 20
811.235380
 30
0.0
 11
-32.588900
 21
805.647380
 31
0.0
  0
LINE
  5
16a
100
AcDbEntity
  8
Unique_Pieces
 62
1
100
AcDbLine
 10
-32.588900
 20
805.647380
 30
0.0
 11
-70.688900
 21
805.647380
 31
0.0
  0
LINE
  5
16b
100
AcDbEntity
  8
Unique_Pieces
 62
1
100
AcDbLine
 10
-70.688900
 20
805.647380
 30
0.0
 11
-70.688900
 21
811.235380
 31
0.0
  0
LINE
  5
16c
100
AcDbEntity
  8
Unique_Pieces
 62
1
100
AcDbLine
 10
-70.688900
 20
811.235380
 30
0.0
 11
-108.788900
 21
811.235380
 31
0.0
  0
LINE
  5
16d
100
AcDbEntity
  8
Unique_Pieces
 62
1
100
AcDbLine
 10
-108.788900
 20
811.235380
 30
0.0
 11
-108.788900
 21
773.135380
 31
0.0
  0
LINE
  5
16e
100
AcDbEntity
  8
Unique_Pieces
 62
1
100
AcDbLine
 10
-108.788900
 20
773.135380
 30
0.0
 11
-103.200900
 21
773.135380
 31
0.0
  0
LINE
  5
16f
100
AcDbEntity
  8
Unique_Pieces
 62
1
100
AcDbLine
 10
-103.200900
 20
773.135380
 30
0.0
 11
-103.200900
 21
735.035380
 31
0.0
  0
LINE
  5
170
100
AcDbEntity
  8
Unique_Pieces
 62
1
100
AcDbLine
 10
-103.200900
 20
735.035380
 30
0.0
 11
-108.788900
 21
735.035380
 31
0.0
  0
LINE
  5
171
100
AcDbEntity
  8
Unique_Pieces
 62
1
100
AcDbLine
 10
-108.788900
 20
735.035380
 30
0.0
 11
-108.788900
 21
696.935380
 31
0.0
  0
LINE
  5
172
100
AcDbEntity
  8
Unique_Pieces
 62
1
100
AcDbLine
 10
-108.788900
 20
696.935380
 30
0.0
 11
-103.200900
 21
696.935380
 31
0.0
  0
LINE
  5
173
100
AcDbEntity
  8
Unique_Pieces
 62
1
100
AcDbLine
 10
-103.200900
 20
696.935380
 30
0.0
 11
-103.200900
 21
658.835380
 31
0.0
  0
LINE
  5
174
100
AcDbEntity
  8
Unique_Pieces
 62
1
100
AcDbLine
 10
-103.200900
 20
658.835380
 30
0.0
 11
-108.788900
 21
658.835380
 31
0.0
  0
LINE
  5
175
100
AcDbEntity
  8
Unique_Pieces
 62
1
100
AcDbLine
 10
-108.788900
 20
658.835380
 30
0.0
 11
-108.788900
 21
620.735380
 31
0.0
  0
LINE
  5
176
100
AcDbEntity
  8
Unique_Pieces
 62
1
100
AcDbLine
 10
-108.788900
 20
620.735380
 30
0.0
 11
-103.200900
 21
620.735380
 31
0.0
  0
LINE
  5
177
100
AcDbEntity
  8
Unique_Pieces
 62
1
100
AcDbLine
 10
-103.200900
 20
620.735380
 30
0.0
 11
-103.200900
 21
582.635380
 31
0.0
  0
LINE
  5
178
100
AcDbEntity
  8
Unique_Pieces
 62
1
100
AcDbLine
 10
-103.200900
 20
582.635380
 30
0.0
 11
-108.788900
 21
582.635380
 31
0.0
  0
LINE
  5
179
100
AcDbEntity
  8
Unique_Pieces
 62
1
100
AcDbLine
 10
-108.788900
 20
582.635380
 30
0.0
 11
-108.788900
 21
544.535380
 31
0.0
  0
LINE
  5
17a
100
AcDbEntity
  8
Unique_Pieces
 62
1
100
AcDbLine
 10
-108.788900
 20
544.535380
 30
0.0
 11
-103.200900
 21
544.535380
 31
0.0
  0
LINE
  5
17b
100
AcDbEntity
  8
Unique_Pieces
 62
1
100
AcDbLine
 10
-103.200900
 20
544.535380
 30
0.0
 11
-103.200900
 21
512.023380
 31
0.0
  0
LINE
  5
17c
100
AcDbEntity
  8
Unique_Pieces
 62
1
100
AcDbLine
 10
-97.612900
 20
794.471380
 30
0.0
 11
-103.200900
 21
794.471380
 31
0.0
  0
LINE
  5
17d
100
AcDbEntity
  8
Unique_Pieces
 62
1
100
AcDbLine
 10
-103.200900
 20
794.471380
 30
0.0
 11
-103.200900
 21
800.059380
 31
0.0
  0
LINE
  5
17e
100
AcDbEntity
  8
Unique_Pieces
 62
1
100
AcDbLine
 10
-103.200900
 20
800.059380
 30
0.0
 11
-97.612900
 21
800.059380
 31
0.0
  0
LINE
  5
17f
100
AcDbEntity
  8
Unique_Pieces
 62
1
100
AcDbLine
 10
-97.612900
 20
800.059380
 30
0.0
 11
-97.612900
 21
794.471380
 31
0.0
  0
LINE
  5
180
100
AcDbEntity
  8
Unique_Pieces
 62
1
100
AcDbLine
 10
49.199097
 20
512.023380
 30
0.0
 11
54.787097
 21
512.023380
 31
0.0
  0
LINE
  5
181
100
AcDbEntity
  8
Unique_Pieces
 62
1
100
AcDbLine
 10
54.787097
 20
512.023380
 30
0.0
 11
54.787097
 21
506.435380
 31
0.0
  0
LINE
  5
182
100
AcDbEntity
  8
Unique_Pieces
 62
1
100
AcDbLine
 10
54.787097
 20
506.435380
 30
0.0
 11
81.711096
 21
506.435380
 31
0.0
  0
LINE
  5
183
100
AcDbEntity
  8
Unique_Pieces
 62
1
100
AcDbLine
 10
81.711096
 20
506.435380
 30
0.0
 11
81.711096
 21
500.847380
 31
0.0
  0
LINE
  5
184
100
AcDbEntity
  8
Unique_Pieces
 62
1
100
AcDbLine
 10
81.711096
 20
500.847380
 30
0.0
 11
119.811096
 21
500.847380
 31
0.0
  0
LINE
  5
185
100
AcDbEntity
  8
Unique_Pieces
 62
1
100
AcDbLine
 10
119.811096
 20
500.847380
 30
0.0
 11
119.811096
 21
506.435380
 31
0.0
  0
LINE
  5
186
100
AcDbEntity
  8
Unique_Pieces
 62
1
100
AcDbLine
 10
119.811096
 20
506.435380
 30
0.0
 11
157.911095
 21
506.435380
 31
0.0
  0
LINE
  5
187
100
AcDbEntity
  8
Unique_Pieces
 62
1
100
AcDbLine
 10
157.911095
 20
506.435380
 30
0.0
 11
157.911095
 21
500.847380
 31
0.0
  0
LINE
  5
188
100
AcDbEntity
  8
Unique_Pieces
 62
1
100
AcDbLine
 10
157.911095
 20
500.847380
 30
0.0
 11
196.011100
 21
500.847380
 31
0.0
  0
LINE
  5
189
100
AcDbEntity
  8
Unique_Pieces
 62
1
100
AcDbLine
 10
196.011100
 20
500.847380
 30
0.0
 11
196.011100
 21
952.459374
 31
0.0
  0
LINE
  5
18a
100
AcDbEntity
  8
Unique_Pieces
 62
1
100
AcDbLine
 10
196.011100
 20
952.459374
 30
0.0
 11
157.911095
 21
952.459374
 31
0.0
  0
LINE
  5
18b
100
AcDbEntity
  8
Unique_Pieces
 62
1
100
AcDbLine
 10
157.911095
 20
952.459374
 30
0.0
 11
157.911095
 21
958.047374
 31
0.0
  0
LINE
  5
18c
100
AcDbEntity
  8
Unique_Pieces
 62
1
100
AcDbLine
 10
157.911095
 20
958.047374
 30
0.0
 11
119.811096
 21
958.047374
 31
0.0
  0
LINE
  5
18d
100
AcDbEntity
  8
Unique_Pieces
 62
1
100
AcDbLine
 10
119.811096
 20
958.047374
 30
0.0
 11
119.811096
 21
952.459374
 31
0.0
  0
LINE
  5
18e
100
AcDbEntity
  8
Unique_Pieces
 62
1
100
AcDbLine
 10
119.811096
 20
952.459374
 30
0.0
 11
81.711096
 21
952.459374
 31
0.0
  0
LINE
  5
18f
100
AcDbEntity
  8
Unique_Pieces
 62
1
100
AcDbLine
 10
81.711096
 20
952.459374
 30
0.0
 11
81.711096
 21
958.047374
 31
0.0
  0
LINE
  5
190
100
AcDbEntity
  8
Unique_Pieces
 62
1
100
AcDbLine
 10
81.711096
 20
958.047374
 30
0.0
 11
43.611097
 21
958.047374
 31
0.0
  0
LINE
  5
191
100
AcDbEntity
  8
Unique_Pieces
 62
1
100
AcDbLine
 10
43.611097
 20
958.047374
 30
0.0
 11
43.611097
 21
919.947375
 31
0.0
  0
LINE
  5
192
100
AcDbEntity
  8
Unique_Pieces
 62
1
100
AcDbLine
 10
43.611097
 20
919.947375
 30
0.0
 11
49.199097
 21
919.947375
 31
0.0
  0
LINE
  5
193
100
AcDbEntity
  8
Unique_Pieces
 62
1
100
AcDbLine
 10
49.199097
 20
919.947375
 30
0.0
 11
49.199097
 21
881.847375
 31
0.0
  0
LINE
  5
194
100
AcDbEntity
  8
Unique_Pieces
 62
1
100
AcDbLine
 10
49.199097
 20
881.847375
 30
0.0
 11
43.611097
 21
881.847375
 31
0.0
  0
LINE
  5
195
100
AcDbEntity
  8
Unique_Pieces
 62
1
100
AcDbLine
 10
43.611097
 20
881.847375
 30
0.0
 11
43.611097
 21
843.747376
 31
0.0
  0
LINE
  5
196
100
AcDbEntity
  8
Unique_Pieces
 62
1
100
AcDbLine
 10
43.611097
 20
843.747376
 30
0.0
 11
49.199097
 21
843.747376
 31
0.0
  0
LINE
  5
197
100
AcDbEntity
  8
Unique_Pieces
 62
1
100
AcDbLine
 10
49.199097
 20
843.747376
 30
0.0
 11
49.199097
 21
805.647376
 31
0.0
  0
LINE
  5
198
100
AcDbEntity
  8
Unique_Pieces
 62
1
100
AcDbLine
 10
49.199097
 20
805.647376
 30
0.0
 11
43.611097
 21
805.647376
 31
0.0
  0
LINE
  5
199
100
AcDbEntity
  8
Unique_Pieces
 62
1
100
AcDbLine
 10
43.611097
 20
805.647376
 30
0.0
 11
43.611097
 21
767.547377
 31
0.0
  0
LINE
  5
19a
100
AcDbEntity
  8
Unique_Pieces
 62
1
100
AcDbLine
 10
43.611097
 20
767.547377
 30
0.0
 11
49.199097
 21
767.547377
 31
0.0
  0
LINE
  5
19b
100
AcDbEntity
  8
Unique_Pieces
 62
1
100
AcDbLine
 10
49.199097
 20
767.547377
 30
0.0
 11
49.199097
 21
729.447377
 31
0.0
  0
LINE
  5
19c
100
AcDbEntity
  8
Unique_Pieces
 62
1
100
AcDbLine
 10
49.199097
 20
729.447377
 30
0.0
 11
43.611097
 21
729.447377
 31
0.0
  0
LINE
  5
19d
100
AcDbEntity
  8
Unique_Pieces
 62
1
100
AcDbLine
 10
43.611097
 20
729.447377
 30
0.0
 11
43.611097
 21
691.347378
 31
0.0
  0
LINE
  5
19e
100
AcDbEntity
  8
Unique_Pieces
 62
1
100
AcDbLine
 10
43.611097
 20
691.347378
 30
0.0
 11
49.199097
 21
691.347378
 31
0.0
  0
LINE
  5
19f
100
AcDbEntity
  8
Unique_Pieces
 62
1
100
AcDbLine
 10
49.199097
 20
691.347378
 30
0.0
 11
49.199097
 21
653.247378
 31
0.0
  0
LINE
  5
1a0
100
AcDbEntity
  8
Unique_Pieces
 62
1
100
AcDbLine
 10
49.199097
 20
653.247378
 30
0.0
 11
43.611097
 21
653.247378
 31
0.0
  0
LINE
  5
1a1
100
AcDbEntity
  8
Unique_Pieces
 62
1
100
AcDbLine
 10
43.611097
 20
653.247378
 30
0.0
 11
43.611097
 21
615.147379
 31
0.0
  0
LINE
  5
1a2
100
AcDbEntity
  8
Unique_Pieces
 62
1
100
AcDbLine
 10
43.611097
 20
615.147379
 30
0.0
 11
49.199097
 21
615.147379
 31
0.0
  0
LINE
  5
1a3
100
AcDbEntity
  8
Unique_Pieces
 62
1
100
AcDbLine
 10
49.199097
 20
615.147379
 30
0.0
 11
49.199097
 21
577.047379
 31
0.0
  0
LINE
  5
1a4
100
AcDbEntity
  8
Unique_Pieces
 62
1
100
AcDbLine
 10
49.199097
 20
577.047379
 30
0.0
 11
43.611097
 21
577.047379
 31
0.0
  0
LINE
  5
1a5
100
AcDbEntity
  8
Unique_Pieces
 62
1
100
AcDbLine
 10
43.611097
 20
577.047379
 30
0.0
 11
43.611097
 21
538.947380
 31
0.0
  0
LINE
  5
1a6
100
AcDbEntity
  8
Unique_Pieces
 62
1
100
AcDbLine
 10
43.611097
 20
538.947380
 30
0.0
 11
49.199097
 21
538.947380
 31
0.0
  0
LINE
  5
1a7
100
AcDbEntity
  8
Unique_Pieces
 62
1
100
AcDbLine
 10
49.199097
 20
538.947380
 30
0.0
 11
49.199097
 21
512.023380
 31
0.0
  0
LINE
  5
1a8
100
AcDbEntity
  8
Unique_Pieces
 62
1
100
AcDbLine
 10
54.787097
 20
946.871374
 30
0.0
 11
49.199097
 21
946.871374
 31
0.0
  0
LINE
  5
1a9
100
AcDbEntity
  8
Unique_Pieces
 62
1
100
AcDbLine
 10
49.199097
 20
946.871374
 30
0.0
 11
49.199097
 21
952.459374
 31
0.0
  0
LINE
  5
1aa
100
AcDbEntity
  8
Unique_Pieces
 62
1
100
AcDbLine
 10
49.199097
 20
952.459374
 30
0.0
 11
54.787097
 21
952.459374
 31
0.0
  0
LINE
  5
1ab
100
AcDbEntity
  8
Unique_Pieces
 62
1
100
AcDbLine
 10
54.787097
 20
952.459374
 30
0.0
 11
54.787097
 21
946.871374
 31
0.0
  0
LINE
  5
1ac
100
AcDbEntity
  8
Unique_Pieces
 62
1
100
AcDbLine
 10
201.599102
 20
512.023380
 30
0.0
 11
207.187102
 21
512.023380
 31
0.0
  0
LINE
  5
1ad
100
AcDbEntity
  8
Unique_Pieces
 62
1
100
AcDbLine
 10
207.187102
 20
512.023380
 30
0.0
 11
207.187102
 21
506.435380
 31
0.0
  0
LINE
  5
1ae
100
AcDbEntity
  8
Unique_Pieces
 62
1
100
AcDbLine
 10
207.187102
 20
506.435380
 30
0.0
 11
234.111101
 21
506.435380
 31
0.0
  0
LINE
  5
1af
100
AcDbEntity
  8
Unique_Pieces
 62
1
100
AcDbLine
 10
234.111101
 20
506.435380
 30
0.0
 11
234.111101
 21
500.847380
 31
0.0
  0
LINE
  5
1b0
100
AcDbEntity
  8
Unique_Pieces
 62
1
100
AcDbLine
 10
234.111101
 20
500.847380
 30
0.0
 11
272.211101
 21
500.847380
 31
0.0
  0
LINE
  5
1b1
100
AcDbEntity
  8
Unique_Pieces
 62
1
100
AcDbLine
 10
272.211101
 20
500.847380
 30
0.0
 11
272.211101
 21
506.435380
 31
0.0
  0
LINE
  5
1b2
100
AcDbEntity
  8
Unique_Pieces
 62
1
100
AcDbLine
 10
272.211101
 20
506.435380
 30
0.0
 11
310.311100
 21
506.435380
 31
0.0
  0
LINE
  5
1b3
100
AcDbEntity
  8
Unique_Pieces
 62
1
100
AcDbLine
 10
310.311100
 20
506.435380
 30
0.0
 11
310.311100
 21
500.847380
 31
0.0
  0
LINE
  5
1b4
100
AcDbEntity
  8
Unique_Pieces
 62
1
100
AcDbLine
 10
310.311100
 20
500.847380
 30
0.0
 11
348.411105
 21
500.847380
 31
0.0
  0
LINE
  5
1b5
100
AcDbEntity
  8
Unique_Pieces
 62
1
100
AcDbLine
 10
348.411105
 20
500.847380
 30
0.0
 11
348.411105
 21
1104.859372
 31
0.0
  0
LINE
  5
1b6
100
AcDbEntity
  8
Unique_Pieces
 62
1
100
AcDbLine
 10
348.411105
 20
1104.859372
 30
0.0
 11
310.311100
 21
1104.859372
 31
0.0
  0
LINE
  5
1b7
100
AcDbEntity
  8
Unique_Pieces
 62
1
100
AcDbLine
 10
310.311100
 20
1104.859372
 30
0.0
 11
310.311100
 21
1110.447372
 31
0.0
  0
LINE
  5
1b8
100
AcDbEntity
  8
Unique_Pieces
 62
1
100
AcDbLine
 10
310.311100
 20
1110.447372
 30
0.0
 11
272.211101
 21
1110.447372
 31
0.0
  0
LINE
  5
1b9
100
AcDbEntity
  8
Unique_Pieces
 62
1
100
AcDbLine
 10
272.211101
 20
1110.447372
 30
0.0
 11
272.211101
 21
1104.859372
 31
0.0
  0
LINE
  5
1ba
100
AcDbEntity
  8
Unique_Pieces
 62
1
100
AcDbLine
 10
272.211101
 20
1104.859372
 30
0.0
 11
234.111101
 21
1104.859372
 31
0.0
  0
LINE
  5
1bb
100
AcDbEntity
  8
Unique_Pieces
 62
1
100
AcDbLine
 10
234.111101
 20
1104.859372
 30
0.0
 11
234.111101
 21
1110.447372
 31
0.0
  0
LINE
  5
1bc
100
AcDbEntity
  8
Unique_Pieces
 62
1
100
AcDbLine
 10
234.111101
 20
1110.447372
 30
0.0
 11
196.011102
 21
1110.447372
 31
0.0
  0
LINE
  5
1bd
100
AcDbEntity
  8
Unique_Pieces
 62
1
100
AcDbLine
 10
196.011102
 20
1110.447372
 30
0.0
 11
196.011102
 21
1072.347373
 31
0.0
  0
LINE
  5
1be
100
AcDbEntity
  8
Unique_Pieces
 62
1
100
AcDbLine
 10
196.011102
 20
1072.347373
 30
0.0
 11
201.599102
 21
1072.347373
 31
0.0
  0
LINE
  5
1bf
100
AcDbEntity
  8
Unique_Pieces
 62
1
100
AcDbLine
 10
201.599102
 20
1072.347373
 30
0.0
 11
201.599102
 21
1034.247373
 31
0.0
  0
LINE
  5
1c0
100
AcDbEntity
  8
Unique_Pieces
 62
1
100
AcDbLine
 10
201.599102
 20
1034.247373
 30
0.0
 11
196.011102
 21
1034.247373
 31
0.0
  0
LINE
  5
1c1
100
AcDbEntity
  8
Unique_Pieces
 62
1
100
AcDbLine
 10
196.011102
 20
1034.247373
 30
0.0
 11
196.011102
 21
996.147374
 31
0.0
  0
LINE
  5
1c2
100
AcDbEntity
  8
Unique_Pieces
 62
1
100
AcDbLine
 10
196.011102
 20
996.147374
 30
0.0
 11
201.599102
 21
996.147374
 31
0.0
  0
LINE
  5
1c3
100
AcDbEntity
  8
Unique_Pieces
 62
1
100
AcDbLine
 10
201.599102
 20
996.147374
 30
0.0
 11
201.599102
 21
958.047374
 31
0.0
  0
LINE
  5
1c4
100
AcDbEntity
  8
Unique_Pieces
 62
1
100
AcDbLine
 10
201.599102
 20
958.047374
 30
0.0
 11
196.011102
 21
958.047374
 31
0.0
  0
LINE
  5
1c5
100
AcDbEntity
  8
Unique_Pieces
 62
1
100
AcDbLine
 10
196.011102
 20
958.047374
 30
0.0
 11
196.011102
 21
919.947375
 31
0.0
  0
LINE
  5
1c6
100
AcDbEntity
  8
Unique_Pieces
 62
1
100
AcDbLine
 10
196.011102
 20
919.947375
 30
0.0
 11
201.599102
 21
919.947375
 31
0.0
  0
LINE
  5
1c7
100
AcDbEntity
  8
Unique_Pieces
 62
1
100
AcDbLine
 10
201.599102
 20
919.947375
 30
0.0
 11
201.599102
 21
881.847375
 31
0.0
  0
LINE
  5
1c8
100
AcDbEntity
  8
Unique_Pieces
 62
1
100
AcDbLine
 10
201.599102
 20
881.847375
 30
0.0
 11
196.011102
 21
881.847375
 31
0.0
  0
LINE
  5
1c9
100
AcDbEntity
  8
Unique_Pieces
 62
1
100
AcDbLine
 10
196.011102
 20
881.847375
 30
0.0
 11
196.011102
 21
843.747376
 31
0.0
  0
LINE
  5
1ca
100
AcDbEntity
  8
Unique_Pieces
 62
1
100
AcDbLine
 10
196.011102
 20
843.747376
 30
0.0
 11
201.599102
 21
843.747376
 31
0.0
  0
LINE
  5
1cb
100
AcDbEntity
  8
Unique_Pieces
 62
1
100
AcDbLine
 10
201.599102
 20
843.747376
 30
0.0
 11
201.599102
 21
805.647376
 31
0.0
  0
LINE
  5
1cc
100
AcDbEntity
  8
Unique_Pieces
 62
1
100
AcDbLine
 10
201.599102
 20
805.647376
 30
0.0
 11
196.011102
 21
805.647376
 31
0.0
  0
LINE
  5
1cd
100
AcDbEntity
  8
Unique_Pieces
 62
1
100
AcDbLine
 10
196.011102
 20
805.647376
 30
0.0
 11
196.011102
 21
767.547377
 31
0.0
  0
LINE
  5
1ce
100
AcDbEntity
  8
Unique_Pieces
 62
1
100
AcDbLine
 10
196.011102
 20
767.547377
 30
0.0
 11
201.599102
 21
767.547377
 31
0.0
  0
LINE
  5
1cf
100
AcDbEntity
  8
Unique_Pieces
 62
1
100
AcDbLine
 10
201.599102
 20
767.547377
 30
0.0
 11
201.599102
 21
729.447377
 31
0.0
  0
LINE
  5
1d0
100
AcDbEntity
  8
Unique_Pieces
 62
1
100
AcDbLine
 10
201.599102
 20
729.447377
 30
0.0
 11
196.011102
 21
729.447377
 31
0.0
  0
LINE
  5
1d1
100
AcDbEntity
  8
Unique_Pieces
 62
1
100
AcDbLine
 10
196.011102
 20
729.447377
 30
0.0
 11
196.011102
 21
691.347378
 31
0.0
  0
LINE
  5
1d2
100
AcDbEntity
  8
Unique_Pieces
 62
1
100
AcDbLine
 10
196.011102
 20
691.347378
 30
0.0
 11
201.599102
 21
691.347378
 31
0.0
  0
LINE
  5
1d3
100
AcDbEntity
  8
Unique_Pieces
 62
1
100
AcDbLine
 10
201.599102
 20
691.347378
 30
0.0
 11
201.599102
 21
653.247378
 31
0.0
  0
LINE
  5
1d4
100
AcDbEntity
  8
Unique_Pieces
 62
1
100
AcDbLine
 10
201.599102
 20
653.247378
 30
0.0
 11
196.011102
 21
653.247378
 31
0.0
  0
LINE
  5
1d5
100
AcDbEntity
  8
Unique_Pieces
 62
1
100
AcDbLine
 10
196.011102
 20
653.247378
 30
0.0
 11
196.011102
 21
615.147379
 31
0.0
  0
LINE
  5
1d6
100
AcDbEntity
  8
Unique_Pieces
 62
1
100
AcDbLine
 10
196.011102
 20
615.147379
 30
0.0
 11
201.599102
 21
615.147379
 31
0.0
  0
LINE
  5
1d7
100
AcDbEntity
  8
Unique_Pieces
 62
1
100
AcDbLine
 10
201.599102
 20
615.147379
 30
0.0
 11
201.599102
 21
577.047379
 31
0.0
  0
LINE
  5
1d8
100
AcDbEntity
  8
Unique_Pieces
 62
1
100
AcDbLine
 10
201.599102
 20
577.047379
 30
0.0
 11
196.011102
 21
577.047379
 31
0.0
  0
LINE
  5
1d9
100
AcDbEntity
  8
Unique_Pieces
 62
1
100
AcDbLine
 10
196.011102
 20
577.047379
 30
0.0
 11
196.011102
 21
538.947380
 31
0.0
  0
LINE
  5
1da
100
AcDbEntity
  8
Unique_Pieces
 62
1
100
AcDbLine
 10
196.011102
 20
538.947380
 30
0.0
 11
201.599102
 21
538.947380
 31
0.0
  0
LINE
  5
1db
100
AcDbEntity
  8
Unique_Pieces
 62
1
100
AcDbLine
 10
201.599102
 20
538.947380
 30
0.0
 11
201.599102
 21
512.023380
 31
0.0
  0
LINE
  5
1dc
100
AcDbEntity
  8
Unique_Pieces
 62
1
100
AcDbLine
 10
207.187102
 20
1099.271372
 30
0.0
 11
201.599102
 21
1099.271372
 31
0.0
  0
LINE
  5
1dd
100
AcDbEntity
  8
Unique_Pieces
 62
1
100
AcDbLine
 10
201.599102
 20
1099.271372
 30
0.0
 11
201.599102
 21
1104.859372
 31
0.0
  0
LINE
  5
1de
100
AcDbEntity
  8
Unique_Pieces
 62
1
100
AcDbLine
 10
201.599102
 20
1104.859372
 30
0.0
 11
207.187102
 21
1104.859372
 31
0.0
  0
LINE
  5
1df
100
AcDbEntity
  8
Unique_Pieces
 62
1
100
AcDbLine
 10
207.187102
 20
1104.859372
 30
0.0
 11
207.187102
 21
1099.271372
 31
0.0
  0
LINE
  5
1e0
100
AcDbEntity
  8
Unique_Pieces
 62
1
100
AcDbLine
 10
-916.667901
 20
-39.611918
 30
0.0
 11
-916.667901
 21
-34.023918
 31
0.0
  0
LINE
  5
1e1
100
AcDbEntity
  8
Unique_Pieces
 62
1
100
AcDbLine
 10
-916.667901
 20
-34.023918
 30
0.0
 11
-878.567902
 21
-34.023918
 31
0.0
  0
LINE
  5
1e2
100
AcDbEntity
  8
Unique_Pieces
 62
1
100
AcDbLine
 10
-878.567902
 20
-34.023918
 30
0.0
 11
-878.567902
 21
-1.511913
 31
0.0
  0
LINE
  5
1e3
100
AcDbEntity
  8
Unique_Pieces
 62
1
100
AcDbLine
 10
-878.567902
 20
-1.511913
 30
0.0
 11
-884.155902
 21
-1.511913
 31
0.0
  0
LINE
  5
1e4
100
AcDbEntity
  8
Unique_Pieces
 62
1
100
AcDbLine
 10
-884.155902
 20
-1.511913
 30
0.0
 11
-884.155902
 21
36.588086
 31
0.0
  0
LINE
  5
1e5
100
AcDbEntity
  8
Unique_Pieces
 62
1
100
AcDbLine
 10
-884.155902
 20
36.588086
 30
0.0
 11
-878.567902
 21
36.588086
 31
0.0
  0
LINE
  5
1e6
100
AcDbEntity
  8
Unique_Pieces
 62
1
100
AcDbLine
 10
-878.567902
 20
36.588086
 30
0.0
 11
-878.567902
 21
74.688086
 31
0.0
  0
LINE
  5
1e7
100
AcDbEntity
  8
Unique_Pieces
 62
1
100
AcDbLine
 10
-878.567902
 20
74.688086
 30
0.0
 11
-884.155902
 21
74.688086
 31
0.0
  0
LINE
  5
1e8
100
AcDbEntity
  8
Unique_Pieces
 62
1
100
AcDbLine
 10
-884.155902
 20
74.688086
 30
0.0
 11
-884.155902
 21
112.788085
 31
0.0
  0
LINE
  5
1e9
100
AcDbEntity
  8
Unique_Pieces
 62
1
100
AcDbLine
 10
-884.155902
 20
112.788085
 30
0.0
 11
-878.567902
 21
112.788085
 31
0.0
  0
LINE
  5
1ea
100
AcDbEntity
  8
Unique_Pieces
 62
1
100
AcDbLine
 10
-878.567902
 20
112.788085
 30
0.0
 11
-878.567902
 21
150.888085
 31
0.0
  0
LINE
  5
1eb
100
AcDbEntity
  8
Unique_Pieces
 62
1
100
AcDbLine
 10
-878.567902
 20
150.888085
 30
0.0
 11
-884.155902
 21
150.888085
 31
0.0
  0
LINE
  5
1ec
100
AcDbEntity
  8
Unique_Pieces
 62
1
100
AcDbLine
 10
-884.155902
 20
150.888085
 30
0.0
 11
-884.155902
 21
188.988084
 31
0.0
  0
LINE
  5
1ed
100
AcDbEntity
  8
Unique_Pieces
 62
1
100
AcDbLine
 10
-884.155902
 20
188.988084
 30
0.0
 11
-878.567902
 21
188.988084
 31
0.0
  0
LINE
  5
1ee
100
AcDbEntity
  8
Unique_Pieces
 62
1
100
AcDbLine
 10
-878.567902
 20
188.988084
 30
0.0
 11
-878.567902
 21
227.088084
 31
0.0
  0
LINE
  5
1ef
100
AcDbEntity
  8
Unique_Pieces
 62
1
100
AcDbLine
 10
-878.567902
 20
227.088084
 30
0.0
 11
-884.155902
 21
227.088084
 31
0.0
  0
LINE
  5
1f0
100
AcDbEntity
  8
Unique_Pieces
 62
1
100
AcDbLine
 10
-884.155902
 20
227.088084
 30
0.0
 11
-884.155902
 21
265.188082
 31
0.0
  0
LINE
  5
1f1
100
AcDbEntity
  8
Unique_Pieces
 62
1
100
AcDbLine
 10
-884.155902
 20
265.188082
 30
0.0
 11
-878.567902
 21
265.188082
 31
0.0
  0
LINE
  5
1f2
100
AcDbEntity
  8
Unique_Pieces
 62
1
100
AcDbLine
 10
-878.567902
 20
265.188082
 30
0.0
 11
-878.567902
 21
303.288083
 31
0.0
  0
LINE
  5
1f3
100
AcDbEntity
  8
Unique_Pieces
 62
1
100
AcDbLine
 10
-878.567902
 20
303.288083
 30
0.0
 11
-884.155902
 21
303.288083
 31
0.0
  0
LINE
  5
1f4
100
AcDbEntity
  8
Unique_Pieces
 62
1
100
AcDbLine
 10
-884.155902
 20
303.288083
 30
0.0
 11
-884.155902
 21
341.388082
 31
0.0
  0
LINE
  5
1f5
100
AcDbEntity
  8
Unique_Pieces
 62
1
100
AcDbLine
 10
-884.155902
 20
341.388082
 30
0.0
 11
-878.567902
 21
341.388082
 31
0.0
  0
LINE
  5
1f6
100
AcDbEntity
  8
Unique_Pieces
 62
1
100
AcDbLine
 10
-878.567902
 20
341.388082
 30
0.0
 11
-878.567902
 21
379.488082
 31
0.0
  0
LINE
  5
1f7
100
AcDbEntity
  8
Unique_Pieces
 62
1
100
AcDbLine
 10
-878.567902
 20
379.488082
 30
0.0
 11
-884.155902
 21
379.488082
 31
0.0
  0
LINE
  5
1f8
100
AcDbEntity
  8
Unique_Pieces
 62
1
100
AcDbLine
 10
-884.155902
 20
379.488082
 30
0.0
 11
-884.155902
 21
417.588081
 31
0.0
  0
LINE
  5
1f9
100
AcDbEntity
  8
Unique_Pieces
 62
1
100
AcDbLine
 10
-884.155902
 20
417.588081
 30
0.0
 11
-878.567902
 21
417.588081
 31
0.0
  0
LINE
  5
1fa
100
AcDbEntity
  8
Unique_Pieces
 62
1
100
AcDbLine
 10
-878.567902
 20
417.588081
 30
0.0
 11
-878.567902
 21
455.688081
 31
0.0
  0
LINE
  5
1fb
100
AcDbEntity
  8
Unique_Pieces
 62
1
100
AcDbLine
 10
-878.567902
 20
455.688081
 30
0.0
 11
-884.155902
 21
455.688081
 31
0.0
  0
LINE
  5
1fc
100
AcDbEntity
  8
Unique_Pieces
 62
1
100
AcDbLine
 10
-884.155902
 20
455.688081
 30
0.0
 11
-884.155902
 21
493.788080
 31
0.0
  0
LINE
  5
1fd
100
AcDbEntity
  8
Unique_Pieces
 62
1
100
AcDbLine
 10
-884.155902
 20
493.788080
 30
0.0
 11
-878.567902
 21
493.788080
 31
0.0
  0
LINE
  5
1fe
100
AcDbEntity
  8
Unique_Pieces
 62
1
100
AcDbLine
 10
-878.567902
 20
493.788080
 30
0.0
 11
-878.567902
 21
531.888075
 31
0.0
  0
LINE
  5
1ff
100
AcDbEntity
  8
Unique_Pieces
 62
1
100
AcDbLine
 10
-878.567902
 20
531.888075
 30
0.0
 11
-884.155902
 21
531.888075
 31
0.0
  0
LINE
  5
200
100
AcDbEntity
  8
Unique_Pieces
 62
1
100
AcDbLine
 10
-884.155902
 20
531.888075
 30
0.0
 11
-884.155902
 21
569.988074
 31
0.0
  0
LINE
  5
201
100
AcDbEntity
  8
Unique_Pieces
 62
1
100
AcDbLine
 10
-884.155902
 20
569.988074
 30
0.0
 11
-916.667901
 21
569.988074
 31
0.0
  0
LINE
  5
202
100
AcDbEntity
  8
Unique_Pieces
 62
1
100
AcDbLine
 10
-916.667901
 20
569.988074
 30
0.0
 11
-916.667901
 21
564.400074
 31
0.0
  0
LINE
  5
203
100
AcDbEntity
  8
Unique_Pieces
 62
1
100
AcDbLine
 10
-916.667901
 20
564.400074
 30
0.0
 11
-954.767901
 21
564.400074
 31
0.0
  0
LINE
  5
204
100
AcDbEntity
  8
Unique_Pieces
 62
1
100
AcDbLine
 10
-954.767901
 20
564.400074
 30
0.0
 11
-954.767901
 21
569.988074
 31
0.0
  0
LINE
  5
205
100
AcDbEntity
  8
Unique_Pieces
 62
1
100
AcDbLine
 10
-954.767901
 20
569.988074
 30
0.0
 11
-992.867900
 21
569.988074
 31
0.0
  0
LINE
  5
206
100
AcDbEntity
  8
Unique_Pieces
 62
1
100
AcDbLine
 10
-992.867900
 20
569.988074
 30
0.0
 11
-992.867900
 21
564.400074
 31
0.0
  0
LINE
  5
207
100
AcDbEntity
  8
Unique_Pieces
 62
1
100
AcDbLine
 10
-992.867900
 20
564.400074
 30
0.0
 11
-1030.967900
 21
564.400074
 31
0.0
  0
LINE
  5
208
100
AcDbEntity
  8
Unique_Pieces
 62
1
100
AcDbLine
 10
-1030.967900
 20
564.400074
 30
0.0
 11
-1030.967900
 21
531.888075
 31
0.0
  0
LINE
  5
209
100
AcDbEntity
  8
Unique_Pieces
 62
1
100
AcDbLine
 10
-1030.967900
 20
531.888075
 30
0.0
 11
-1025.379900
 21
531.888075
 31
0.0
  0
LINE
  5
20a
100
AcDbEntity
  8
Unique_Pieces
 62
1
100
AcDbLine
 10
-1025.379900
 20
531.888075
 30
0.0
 11
-1025.379900
 21
493.788080
 31
0.0
  0
LINE
  5
20b
100
AcDbEntity
  8
Unique_Pieces
 62
1
100
AcDbLine
 10
-1025.379900
 20
493.788080
 30
0.0
 11
-1030.967900
 21
493.788080
 31
0.0
  0
LINE
  5
20c
100
AcDbEntity
  8
Unique_Pieces
 62
1
100
AcDbLine
 10
-1030.967900
 20
493.788080
 30
0.0
 11
-1030.967900
 21
455.688081
 31
0.0
  0
LINE
  5
20d
100
AcDbEntity
  8
Unique_Pieces
 62
1
100
AcDbLine
 10
-1030.967900
 20
455.688081
 30
0.0
 11
-1025.379900
 21
455.688081
 31
0.0
  0
LINE
  5
20e
100
AcDbEntity
  8
Unique_Pieces
 62
1
100
AcDbLine
 10
-1025.379900
 20
455.688081
 30
0.0
 11
-1025.379900
 21
417.588081
 31
0.0
  0
LINE
  5
20f
100
AcDbEntity
  8
Unique_Pieces
 62
1
100
AcDbLine
 10
-1025.379900
 20
417.588081
 30
0.0
 11
-1030.967900
 21
417.588081
 31
0.0
  0
LINE
  5
210
100
AcDbEntity
  8
Unique_Pieces
 62
1
100
AcDbLine
 10
-1030.967900
 20
417.588081
 30
0.0
 11
-1030.967900
 21
379.488082
 31
0.0
  0
LINE
  5
211
100
AcDbEntity
  8
Unique_Pieces
 62
1
100
AcDbLine
 10
-1030.967900
 20
379.488082
 30
0.0
 11
-1025.379900
 21
379.488082
 31
0.0
  0
LINE
  5
212
100
AcDbEntity
  8
Unique_Pieces
 62
1
100
AcDbLine
 10
-1025.379900
 20
379.488082
 30
0.0
 11
-1025.379900
 21
341.388082
 31
0.0
  0
LINE
  5
213
100
AcDbEntity
  8
Unique_Pieces
 62
1
100
AcDbLine
 10
-1025.379900
 20
341.388082
 30
0.0
 11
-1030.967900
 21
341.388082
 31
0.0
  0
LINE
  5
214
100
AcDbEntity
  8
Unique_Pieces
 62
1
100
AcDbLine
 10
-1030.967900
 20
341.388082
 30
0.0
 11
-1030.967900
 21
303.288083
 31
0.0
  0
LINE
  5
215
100
AcDbEntity
  8
Unique_Pieces
 62
1
100
AcDbLine
 10
-1030.967900
 20
303.288083
 30
0.0
 11
-1025.379900
 21
303.288083
 31
0.0
  0
LINE
  5
216
100
AcDbEntity
  8
Unique_Pieces
 62
1
100
AcDbLine
 10
-1025.379900
 20
303.288083
 30
0.0
 11
-1025.379900
 21
265.188082
 31
0.0
  0
LINE
  5
217
100
AcDbEntity
  8
Unique_Pieces
 62
1
100
AcDbLine
 10
-1025.379900
 20
265.188082
 30
0.0
 11
-1030.967900
 21
265.188082
 31
0.0
  0
LINE
  5
218
100
AcDbEntity
  8
Unique_Pieces
 62
1
100
AcDbLine
 10
-1030.967900
 20
265.188082
 30
0.0
 11
-1030.967900
 21
227.088084
 31
0.0
  0
LINE
  5
219
100
AcDbEntity
  8
Unique_Pieces
 62
1
100
AcDbLine
 10
-1030.967900
 20
227.088084
 30
0.0
 11
-1025.379900
 21
227.088084
 31
0.0
  0
LINE
  5
21a
100
AcDbEntity
  8
Unique_Pieces
 62
1
100
AcDbLine
 10
-1025.379900
 20
227.088084
 30
0.0
 11
-1025.379900
 21
188.988084
 31
0.0
  0
LINE
  5
21b
100
AcDbEntity
  8
Unique_Pieces
 62
1
100
AcDbLine
 10
-1025.379900
 20
188.988084
 30
0.0
 11
-1030.967900
 21
188.988084
 31
0.0
  0
LINE
  5
21c
100
AcDbEntity
  8
Unique_Pieces
 62
1
100
AcDbLine
 10
-1030.967900
 20
188.988084
 30
0.0
 11
-1030.967900
 21
150.888085
 31
0.0
  0
LINE
  5
21d
100
AcDbEntity
  8
Unique_Pieces
 62
1
100
AcDbLine
 10
-1030.967900
 20
150.888085
 30
0.0
 11
-1025.379900
 21
150.888085
 31
0.0
  0
LINE
  5
21e
100
AcDbEntity
  8
Unique_Pieces
 62
1
100
AcDbLine
 10
-1025.379900
 20
150.888085
 30
0.0
 11
-1025.379900
 21
112.788085
 31
0.0
  0
LINE
  5
21f
100
AcDbEntity
  8
Unique_Pieces
 62
1
100
AcDbLine
 10
-1025.379900
 20
112.788085
 30
0.0
 11
-1030.967900
 21
112.788085
 31
0.0
  0
LINE
  5
220
100
AcDbEntity
  8
Unique_Pieces
 62
1
100
AcDbLine
 10
-1030.967900
 20
112.788085
 30
0.0
 11
-1030.967900
 21
74.688086
 31
0.0
  0
LINE
  5
221
100
AcDbEntity
  8
Unique_Pieces
 62
1
100
AcDbLine
 10
-1030.967900
 20
74.688086
 30
0.0
 11
-1025.379900
 21
74.688086
 31
0.0
  0
LINE
  5
222
100
AcDbEntity
  8
Unique_Pieces
 62
1
100
AcDbLine
 10
-1025.379900
 20
74.688086
 30
0.0
 11
-1025.379900
 21
36.588086
 31
0.0
  0
LINE
  5
223
100
AcDbEntity
  8
Unique_Pieces
 62
1
100
AcDbLine
 10
-1025.379900
 20
36.588086
 30
0.0
 11
-1030.967900
 21
36.588086
 31
0.0
  0
LINE
  5
224
100
AcDbEntity
  8
Unique_Pieces
 62
1
100
AcDbLine
 10
-1030.967900
 20
36.588086
 30
0.0
 11
-1030.967900
 21
-1.511913
 31
0.0
  0
LINE
  5
225
100
AcDbEntity
  8
Unique_Pieces
 62
1
100
AcDbLine
 10
-1030.967900
 20
-1.511913
 30
0.0
 11
-1025.379900
 21
-1.511913
 31
0.0
  0
LINE
  5
226
100
AcDbEntity
  8
Unique_Pieces
 62
1
100
AcDbLine
 10
-1025.379900
 20
-1.511913
 30
0.0
 11
-1025.379900
 21
-39.611918
 31
0.0
  0
LINE
  5
227
100
AcDbEntity
  8
Unique_Pieces
 62
1
100
AcDbLine
 10
-1025.379900
 20
-39.611918
 30
0.0
 11
-992.867900
 21
-39.611918
 31
0.0
  0
LINE
  5
228
100
AcDbEntity
  8
Unique_Pieces
 62
1
100
AcDbLine
 10
-992.867900
 20
-39.611918
 30
0.0
 11
-992.867900
 21
-34.023918
 31
0.0
  0
LINE
  5
229
100
AcDbEntity
  8
Unique_Pieces
 62
1
100
AcDbLine
 10
-992.867900
 20
-34.023918
 30
0.0
 11
-954.767901
 21
-34.023918
 31
0.0
  0
LINE
  5
22a
100
AcDbEntity
  8
Unique_Pieces
 62
1
100
AcDbLine
 10
-954.767901
 20
-34.023918
 30
0.0
 11
-954.767901
 21
-39.611918
 31
0.0
  0
LINE
  5
22b
100
AcDbEntity
  8
Unique_Pieces
 62
1
100
AcDbLine
 10
-954.767901
 20
-39.611918
 30
0.0
 11
-916.667901
 21
-39.611918
 31
0.0
  0
LINE
  5
22c
100
AcDbEntity
  8
Unique_Pieces
 62
1
100
AcDbLine
 10
-878.567898
 20
36.588085
 30
0.0
 11
-878.567898
 21
-1.511915
 31
0.0
  0
LINE
  5
22d
100
AcDbEntity
  8
Unique_Pieces
 62
1
100
AcDbLine
 10
-878.567898
 20
-1.511915
 30
0.0
 11
-872.979898
 21
-1.511915
 31
0.0
  0
LINE
  5
22e
100
AcDbEntity
  8
Unique_Pieces
 62
1
100
AcDbLine
 10
-872.979898
 20
-1.511915
 30
0.0
 11
-872.979898
 21
-39.611914
 31
0.0
  0
LINE
  5
22f
100
AcDbEntity
  8
Unique_Pieces
 62
1
100
AcDbLine
 10
-872.979898
 20
-39.611914
 30
0.0
 11
-840.467899
 21
-39.611914
 31
0.0
  0
LINE
  5
230
100
AcDbEntity
  8
Unique_Pieces
 62
1
100
AcDbLine
 10
-840.467899
 20
-39.611914
 30
0.0
 11
-840.467899
 21
-34.023914
 31
0.0
  0
LINE
  5
231
100
AcDbEntity
  8
Unique_Pieces
 62
1
100
AcDbLine
 10
-840.467899
 20
-34.023914
 30
0.0
 11
-802.367899
 21
-34.023914
 31
0.0
  0
LINE
  5
232
100
AcDbEntity
  8
Unique_Pieces
 62
1
100
AcDbLine
 10
-802.367899
 20
-34.023914
 30
0.0
 11
-802.367899
 21
-39.611914
 31
0.0
  0
LINE
  5
233
100
AcDbEntity
  8
Unique_Pieces
 62
1
100
AcDbLine
 10
-802.367899
 20
-39.611914
 30
0.0
 11
-764.267900
 21
-39.611914
 31
0.0
  0
LINE
  5
234
100
AcDbEntity
  8
Unique_Pieces
 62
1
100
AcDbLine
 10
-764.267900
 20
-39.611914
 30
0.0
 11
-764.267900
 21
-34.023914
 31
0.0
  0
LINE
  5
235
100
AcDbEntity
  8
Unique_Pieces
 62
1
100
AcDbLine
 10
-764.267900
 20
-34.023914
 30
0.0
 11
-726.167900
 21
-34.023914
 31
0.0
  0
LINE
  5
236
100
AcDbEntity
  8
Unique_Pieces
 62
1
100
AcDbLine
 10
-726.167900
 20
-34.023914
 30
0.0
 11
-726.167900
 21
-39.611914
 31
0.0
  0
LINE
  5
237
100
AcDbEntity
  8
Unique_Pieces
 62
1
100
AcDbLine
 10
-726.167900
 20
-39.611914
 30
0.0
 11
-688.067895
 21
-39.611914
 31
0.0
  0
LINE
  5
238
100
AcDbEntity
  8
Unique_Pieces
 62
1
100
AcDbLine
 10
-688.067895
 20
-39.611914
 30
0.0
 11
-688.067895
 21
-34.023914
 31
0.0
  0
LINE
  5
239
100
AcDbEntity
  8
Unique_Pieces
 62
1
100
AcDbLine
 10
-688.067895
 20
-34.023914
 30
0.0
 11
-649.967896
 21
-34.023914
 31
0.0
  0
LINE
  5
23a
100
AcDbEntity
  8
Unique_Pieces
 62
1
100
AcDbLine
 10
-649.967896
 20
-34.023914
 30
0.0
 11
-649.967896
 21
-39.611914
 31
0.0
  0
LINE
  5
23b
100
AcDbEntity
  8
Unique_Pieces
 62
1
100
AcDbLine
 10
-649.967896
 20
-39.611914
 30
0.0
 11
-611.867896
 21
-39.611914
 31
0.0
  0
LINE
  5
23c
100
AcDbEntity
  8
Unique_Pieces
 62
1
100
AcDbLine
 10
-611.867896
 20
-39.611914
 30
0.0
 11
-611.867896
 21
-34.023914
 31
0.0
  0
LINE
  5
23d
100
AcDbEntity
  8
Unique_Pieces
 62
1
100
AcDbLine
 10
-611.867896
 20
-34.023914
 30
0.0
 11
-573.767897
 21
-34.023914
 31
0.0
  0
LINE
  5
23e
100
AcDbEntity
  8
Unique_Pieces
 62
1
100
AcDbLine
 10
-573.767897
 20
-34.023914
 30
0.0
 11
-573.767897
 21
-1.511915
 31
0.0
  0
LINE
  5
23f
100
AcDbEntity
  8
Unique_Pieces
 62
1
100
AcDbLine
 10
-573.767897
 20
-1.511915
 30
0.0
 11
-579.355897
 21
-1.511915
 31
0.0
  0
LINE
  5
240
100
AcDbEntity
  8
Unique_Pieces
 62
1
100
AcDbLine
 10
-579.355897
 20
-1.511915
 30
0.0
 11
-579.355897
 21
36.588085
 31
0.0
  0
LINE
  5
241
100
AcDbEntity
  8
Unique_Pieces
 62
1
100
AcDbLine
 10
-579.355897
 20
36.588085
 30
0.0
 11
-573.767897
 21
36.588085
 31
0.0
  0
LINE
  5
242
100
AcDbEntity
  8
Unique_Pieces
 62
1
100
AcDbLine
 10
-573.767897
 20
36.588085
 30
0.0
 11
-573.767897
 21
74.688084
 31
0.0
  0
LINE
  5
243
100
AcDbEntity
  8
Unique_Pieces
 62
1
100
AcDbLine
 10
-573.767897
 20
74.688084
 30
0.0
 11
-579.355897
 21
74.688084
 31
0.0
  0
LINE
  5
244
100
AcDbEntity
  8
Unique_Pieces
 62
1
100
AcDbLine
 10
-579.355897
 20
74.688084
 30
0.0
 11
-579.355897
 21
112.788084
 31
0.0
  0
LINE
  5
245
100
AcDbEntity
  8
Unique_Pieces
 62
1
100
AcDbLine
 10
-579.355897
 20
112.788084
 30
0.0
 11
-573.767897
 21
112.788084
 31
0.0
  0
LINE
  5
246
100
AcDbEntity
  8
Unique_Pieces
 62
1
100
AcDbLine
 10
-573.767897
 20
112.788084
 30
0.0
 11
-573.767897
 21
150.888083
 31
0.0
  0
LINE
  5
247
100
AcDbEntity
  8
Unique_Pieces
 62
1
100
AcDbLine
 10
-573.767897
 20
150.888083
 30
0.0
 11
-579.355897
 21
150.888083
 31
0.0
  0
LINE
  5
248
100
AcDbEntity
  8
Unique_Pieces
 62
1
100
AcDbLine
 10
-579.355897
 20
150.888083
 30
0.0
 11
-579.355897
 21
188.988083
 31
0.0
  0
LINE
  5
249
100
AcDbEntity
  8
Unique_Pieces
 62
1
100
AcDbLine
 10
-579.355897
 20
188.988083
 30
0.0
 11
-573.767897
 21
188.988083
 31
0.0
  0
LINE
  5
24a
100
AcDbEntity
  8
Unique_Pieces
 62
1
100
AcDbLine
 10
-573.767897
 20
188.988083
 30
0.0
 11
-573.767897
 21
227.088082
 31
0.0
  0
LINE
  5
24b
100
AcDbEntity
  8
Unique_Pieces
 62
1
100
AcDbLine
 10
-573.767897
 20
227.088082
 30
0.0
 11
-579.355897
 21
227.088082
 31
0.0
  0
LINE
  5
24c
100
AcDbEntity
  8
Unique_Pieces
 62
1
100
AcDbLine
 10
-579.355897
 20
227.088082
 30
0.0
 11
-579.355897
 21
265.188082
 31
0.0
  0
LINE
  5
24d
100
AcDbEntity
  8
Unique_Pieces
 62
1
100
AcDbLine
 10
-579.355897
 20
265.188082
 30
0.0
 11
-573.767897
 21
265.188082
 31
0.0
  0
LINE
  5
24e
100
AcDbEntity
  8
Unique_Pieces
 62
1
100
AcDbLine
 10
-573.767897
 20
265.188082
 30
0.0
 11
-573.767897
 21
303.288081
 31
0.0
  0
LINE
  5
24f
100
AcDbEntity
  8
Unique_Pieces
 62
1
100
AcDbLine
 10
-573.767897
 20
303.288081
 30
0.0
 11
-579.355897
 21
303.288081
 31
0.0
  0
LINE
  5
250
100
AcDbEntity
  8
Unique_Pieces
 62
1
100
AcDbLine
 10
-579.355897
 20
303.288081
 30
0.0
 11
-579.355897
 21
341.388081
 31
0.0
  0
LINE
  5
251
100
AcDbEntity
  8
Unique_Pieces
 62
1
100
AcDbLine
 10
-579.355897
 20
341.388081
 30
0.0
 11
-573.767897
 21
341.388081
 31
0.0
  0
LINE
  5
252
100
AcDbEntity
  8
Unique_Pieces
 62
1
100
AcDbLine
 10
-573.767897
 20
341.388081
 30
0.0
 11
-573.767897
 21
379.488080
 31
0.0
  0
LINE
  5
253
100
AcDbEntity
  8
Unique_Pieces
 62
1
100
AcDbLine
 10
-573.767897
 20
379.488080
 30
0.0
 11
-579.355897
 21
379.488080
 31
0.0
  0
LINE
  5
254
100
AcDbEntity
  8
Unique_Pieces
 62
1
100
AcDbLine
 10
-579.355897
 20
379.488080
 30
0.0
 11
-579.355897
 21
417.588080
 31
0.0
  0
LINE
  5
255
100
AcDbEntity
  8
Unique_Pieces
 62
1
100
AcDbLine
 10
-579.355897
 20
417.588080
 30
0.0
 11
-611.867896
 21
417.588080
 31
0.0
  0
LINE
  5
256
100
AcDbEntity
  8
Unique_Pieces
 62
1
100
AcDbLine
 10
-611.867896
 20
417.588080
 30
0.0
 11
-611.867896
 21
412.000080
 31
0.0
  0
LINE
  5
257
100
AcDbEntity
  8
Unique_Pieces
 62
1
100
AcDbLine
 10
-611.867896
 20
412.000080
 30
0.0
 11
-649.967896
 21
412.000080
 31
0.0
  0
LINE
  5
258
100
AcDbEntity
  8
Unique_Pieces
 62
1
100
AcDbLine
 10
-649.967896
 20
412.000080
 30
0.0
 11
-649.967896
 21
417.588080
 31
0.0
  0
LINE
  5
259
100
AcDbEntity
  8
Unique_Pieces
 62
1
100
AcDbLine
 10
-649.967896
 20
417.588080
 30
0.0
 11
-688.067895
 21
417.588080
 31
0.0
  0
LINE
  5
25a
100
AcDbEntity
  8
Unique_Pieces
 62
1
100
AcDbLine
 10
-688.067895
 20
417.588080
 30
0.0
 11
-688.067895
 21
412.000080
 31
0.0
  0
LINE
  5
25b
100
AcDbEntity
  8
Unique_Pieces
 62
1
100
AcDbLine
 10
-688.067895
 20
412.000080
 30
0.0
 11
-726.167900
 21
412.000080
 31
0.0
  0
LINE
  5
25c
100
AcDbEntity
  8
Unique_Pieces
 62
1
100
AcDbLine
 10
-726.167900
 20
412.000080
 30
0.0
 11
-726.167900
 21
373.900081
 31
0.0
  0
LINE
  5
25d
100
AcDbEntity
  8
Unique_Pieces
 62
1
100
AcDbLine
 10
-726.167900
 20
373.900081
 30
0.0
 11
-720.579900
 21
373.900081
 31
0.0
  0
LINE
  5
25e
100
AcDbEntity
  8
Unique_Pieces
 62
1
100
AcDbLine
 10
-720.579900
 20
373.900081
 30
0.0
 11
-720.579900
 21
335.800081
 31
0.0
  0
LINE
  5
25f
100
AcDbEntity
  8
Unique_Pieces
 62
1
100
AcDbLine
 10
-720.579900
 20
335.800081
 30
0.0
 11
-726.167900
 21
335.800081
 31
0.0
  0
LINE
  5
260
100
AcDbEntity
  8
Unique_Pieces
 62
1
100
AcDbLine
 10
-726.167900
 20
335.800081
 30
0.0
 11
-726.167900
 21
297.700082
 31
0.0
  0
LINE
  5
261
100
AcDbEntity
  8
Unique_Pieces
 62
1
100
AcDbLine
 10
-726.167900
 20
297.700082
 30
0.0
 11
-720.579900
 21
297.700082
 31
0.0
  0
LINE
  5
262
100
AcDbEntity
  8
Unique_Pieces
 62
1
100
AcDbLine
 10
-720.579900
 20
297.700082
 30
0.0
 11
-720.579900
 21
259.600082
 31
0.0
  0
LINE
  5
263
100
AcDbEntity
  8
Unique_Pieces
 62
1
100
AcDbLine
 10
-720.579900
 20
259.600082
 30
0.0
 11
-726.167900
 21
259.600082
 31
0.0
  0
LINE
  5
264
100
AcDbEntity
  8
Unique_Pieces
 62
1
100
AcDbLine
 10
-726.167900
 20
259.600082
 30
0.0
 11
-726.167900
 21
221.500082
 31
0.0
  0
LINE
  5
265
100
AcDbEntity
  8
Unique_Pieces
 62
1
100
AcDbLine
 10
-726.167900
 20
221.500082
 30
0.0
 11
-720.579900
 21
221.500082
 31
0.0
  0
LINE
  5
266
100
AcDbEntity
  8
Unique_Pieces
 62
1
100
AcDbLine
 10
-720.579900
 20
221.500082
 30
0.0
 11
-720.579900
 21
183.400083
 31
0.0
  0
LINE
  5
267
100
AcDbEntity
  8
Unique_Pieces
 62
1
100
AcDbLine
 10
-720.579900
 20
183.400083
 30
0.0
 11
-726.167900
 21
183.400083
 31
0.0
  0
LINE
  5
268
100
AcDbEntity
  8
Unique_Pieces
 62
1
100
AcDbLine
 10
-726.167900
 20
183.400083
 30
0.0
 11
-726.167900
 21
145.300083
 31
0.0
  0
LINE
  5
269
100
AcDbEntity
  8
Unique_Pieces
 62
1
100
AcDbLine
 10
-726.167900
 20
145.300083
 30
0.0
 11
-720.579900
 21
145.300083
 31
0.0
  0
LINE
  5
26a
100
AcDbEntity
  8
Unique_Pieces
 62
1
100
AcDbLine
 10
-720.579900
 20
145.300083
 30
0.0
 11
-720.579900
 21
107.200084
 31
0.0
  0
LINE
  5
26b
100
AcDbEntity
  8
Unique_Pieces
 62
1
100
AcDbLine
 10
-720.579900
 20
107.200084
 30
0.0
 11
-726.167900
 21
107.200084
 31
0.0
  0
LINE
  5
26c
100
AcDbEntity
  8
Unique_Pieces
 62
1
100
AcDbLine
 10
-726.167900
 20
107.200084
 30
0.0
 11
-726.167900
 21
112.788084
 31
0.0
  0
LINE
  5
26d
100
AcDbEntity
  8
Unique_Pieces
 62
1
100
AcDbLine
 10
-726.167900
 20
112.788084
 30
0.0
 11
-764.267900
 21
112.788084
 31
0.0
  0
LINE
  5
26e
100
AcDbEntity
  8
Unique_Pieces
 62
1
100
AcDbLine
 10
-764.267900
 20
112.788084
 30
0.0
 11
-764.267900
 21
107.200084
 31
0.0
  0
LINE
  5
26f
100
AcDbEntity
  8
Unique_Pieces
 62
1
100
AcDbLine
 10
-764.267900
 20
107.200084
 30
0.0
 11
-802.367899
 21
107.200084
 31
0.0
  0
LINE
  5
270
100
AcDbEntity
  8
Unique_Pieces
 62
1
100
AcDbLine
 10
-802.367899
 20
107.200084
 30
0.0
 11
-802.367899
 21
112.788084
 31
0.0
  0
LINE
  5
271
100
AcDbEntity
  8
Unique_Pieces
 62
1
100
AcDbLine
 10
-802.367899
 20
112.788084
 30
0.0
 11
-840.467899
 21
112.788084
 31
0.0
  0
LINE
  5
272
100
AcDbEntity
  8
Unique_Pieces
 62
1
100
AcDbLine
 10
-840.467899
 20
112.788084
 30
0.0
 11
-840.467899
 21
107.200084
 31
0.0
  0
LINE
  5
273
100
AcDbEntity
  8
Unique_Pieces
 62
1
100
AcDbLine
 10
-840.467899
 20
107.200084
 30
0.0
 11
-878.567898
 21
107.200084
 31
0.0
  0
LINE
  5
274
100
AcDbEntity
  8
Unique_Pieces
 62
1
100
AcDbLine
 10
-878.567898
 20
107.200084
 30
0.0
 11
-878.567898
 21
74.688084
 31
0.0
  0
LINE
  5
275
100
AcDbEntity
  8
Unique_Pieces
 62
1
100
AcDbLine
 10
-878.567898
 20
74.688084
 30
0.0
 11
-872.979898
 21
74.688084
 31
0.0
  0
LINE
  5
276
100
AcDbEntity
  8
Unique_Pieces
 62
1
100
AcDbLine
 10
-872.979898
 20
74.688084
 30
0.0
 11
-872.979898
 21
36.588085
 31
0.0
  0
LINE
  5
277
100
AcDbEntity
  8
Unique_Pieces
 62
1
100
AcDbLine
 10
-872.979898
 20
36.588085
 30
0.0
 11
-878.567898
 21
36.588085
 31
0.0
  0
LINE
  5
278
100
AcDbEntity
  8
Unique_Pieces
 62
1
100
AcDbLine
 10
-268.967900
 20
74.688079
 30
0.0
 11
-274.555900
 21
74.688079
 31
0.0
  0
LINE
  5
279
100
AcDbEntity
  8
Unique_Pieces
 62
1
100
AcDbLine
 10
-274.555900
 20
74.688079
 30
0.0
 11
-274.555900
 21
112.788078
 31
0.0
  0
LINE
  5
27a
100
AcDbEntity
  8
Unique_Pieces
 62
1
100
AcDbLine
 10
-274.555900
 20
112.788078
 30
0.0
 11
-312.655905
 21
112.788078
 31
0.0
  0
LINE
  5
27b
100
AcDbEntity
  8
Unique_Pieces
 62
1
100
AcDbLine
 10
-312.655905
 20
112.788078
 30
0.0
 11
-312.655905
 21
107.200078
 31
0.0
  0
LINE
  5
27c
100
AcDbEntity
  8
Unique_Pieces
 62
1
100
AcDbLine
 10
-312.655905
 20
107.200078
 30
0.0
 11
-350.755904
 21
107.200078
 31
0.0
  0
LINE
  5
27d
100
AcDbEntity
  8
Unique_Pieces
 62
1
100
AcDbLine
 10
-350.755904
 20
107.200078
 30
0.0
 11
-350.755904
 21
112.788078
 31
0.0
  0
LINE
  5
27e
100
AcDbEntity
  8
Unique_Pieces
 62
1
100
AcDbLine
 10
-350.755904
 20
112.788078
 30
0.0
 11
-388.855904
 21
112.788078
 31
0.0
  0
LINE
  5
27f
100
AcDbEntity
  8
Unique_Pieces
 62
1
100
AcDbLine
 10
-388.855904
 20
112.788078
 30
0.0
 11
-388.855904
 21
107.200078
 31
0.0
  0
LINE
  5
280
100
AcDbEntity
  8
Unique_Pieces
 62
1
100
AcDbLine
 10
-388.855904
 20
107.200078
 30
0.0
 11
-426.955903
 21
107.200078
 31
0.0
  0
LINE
  5
281
100
AcDbEntity
  8
Unique_Pieces
 62
1
100
AcDbLine
 10
-426.955903
 20
107.200078
 30
0.0
 11
-426.955903
 21
112.788078
 31
0.0
  0
LINE
  5
282
100
AcDbEntity
  8
Unique_Pieces
 62
1
100
AcDbLine
 10
-426.955903
 20
112.788078
 30
0.0
 11
-421.367903
 21
112.788078
 31
0.0
  0
LINE
  5
283
100
AcDbEntity
  8
Unique_Pieces
 62
1
100
AcDbLine
 10
-421.367903
 20
112.788078
 30
0.0
 11
-421.367903
 21
150.888078
 31
0.0
  0
LINE
  5
284
100
AcDbEntity
  8
Unique_Pieces
 62
1
100
AcDbLine
 10
-421.367903
 20
150.888078
 30
0.0
 11
-426.955903
 21
150.888078
 31
0.0
  0
LINE
  5
285
100
AcDbEntity
  8
Unique_Pieces
 62
1
100
AcDbLine
 10
-426.955903
 20
150.888078
 30
0.0
 11
-426.955903
 21
188.988077
 31
0.0
  0
LINE
  5
286
100
AcDbEntity
  8
Unique_Pieces
 62
1
100
AcDbLine
 10
-426.955903
 20
188.988077
 30
0.0
 11
-421.367903
 21
188.988077
 31
0.0
  0
LINE
  5
287
100
AcDbEntity
  8
Unique_Pieces
 62
1
100
AcDbLine
 10
-421.367903
 20
188.988077
 30
0.0
 11
-421.367903
 21
227.088077
 31
0.0
  0
LINE
  5
288
100
AcDbEntity
  8
Unique_Pieces
 62
1
100
AcDbLine
 10
-421.367903
 20
227.088077
 30
0.0
 11
-426.955903
 21
227.088077
 31
0.0
  0
LINE
  5
289
100
AcDbEntity
  8
Unique_Pieces
 62
1
100
AcDbLine
 10
-426.955903
 20
227.088077
 30
0.0
 11
-426.955903
 21
265.188076
 31
0.0
  0
LINE
  5
28a
100
AcDbEntity
  8
Unique_Pieces
 62
1
100
AcDbLine
 10
-426.955903
 20
265.188076
 30
0.0
 11
-421.367903
 21
265.188076
 31
0.0
  0
LINE
  5
28b
100
AcDbEntity
  8
Unique_Pieces
 62
1
100
AcDbLine
 10
-421.367903
 20
265.188076
 30
0.0
 11
-421.367903
 21
303.288076
 31
0.0
  0
LINE
  5
28c
100
AcDbEntity
  8
Unique_Pieces
 62
1
100
AcDbLine
 10
-421.367903
 20
303.288076
 30
0.0
 11
-426.955903
 21
303.288076
 31
0.0
  0
LINE
  5
28d
100
AcDbEntity
  8
Unique_Pieces
 62
1
100
AcDbLine
 10
-426.955903
 20
303.288076
 30
0.0
 11
-426.955903
 21
341.388075
 31
0.0
  0
LINE
  5
28e
100
AcDbEntity
  8
Unique_Pieces
 62
1
100
AcDbLine
 10
-426.955903
 20
341.388075
 30
0.0
 11
-421.367903
 21
341.388075
 31
0.0
  0
LINE
  5
28f
100
AcDbEntity
  8
Unique_Pieces
 62
1
100
AcDbLine
 10
-421.367903
 20
341.388075
 30
0.0
 11
-421.367903
 21
379.488075
 31
0.0
  0
LINE
  5
290
100
AcDbEntity
  8
Unique_Pieces
 62
1
100
AcDbLine
 10
-421.367903
 20
379.488075
 30
0.0
 11
-426.955903
 21
379.488075
 31
0.0
  0
LINE
  5
291
100
AcDbEntity
  8
Unique_Pieces
 62
1
100
AcDbLine
 10
-426.955903
 20
379.488075
 30
0.0
 11
-426.955903
 21
417.588074
 31
0.0
  0
LINE
  5
292
100
AcDbEntity
  8
Unique_Pieces
 62
1
100
AcDbLine
 10
-426.955903
 20
417.588074
 30
0.0
 11
-459.467903
 21
417.588074
 31
0.0
  0
LINE
  5
293
100
AcDbEntity
  8
Unique_Pieces
 62
1
100
AcDbLine
 10
-459.467903
 20
417.588074
 30
0.0
 11
-459.467903
 21
412.000074
 31
0.0
  0
LINE
  5
294
100
AcDbEntity
  8
Unique_Pieces
 62
1
100
AcDbLine
 10
-459.467903
 20
412.000074
 30
0.0
 11
-497.567902
 21
412.000074
 31
0.0
  0
LINE
  5
295
100
AcDbEntity
  8
Unique_Pieces
 62
1
100
AcDbLine
 10
-497.567902
 20
412.000074
 30
0.0
 11
-497.567902
 21
417.588074
 31
0.0
  0
LINE
  5
296
100
AcDbEntity
  8
Unique_Pieces
 62
1
100
AcDbLine
 10
-497.567902
 20
417.588074
 30
0.0
 11
-535.667902
 21
417.588074
 31
0.0
  0
LINE
  5
297
100
AcDbEntity
  8
Unique_Pieces
 62
1
100
AcDbLine
 10
-535.667902
 20
417.588074
 30
0.0
 11
-535.667902
 21
412.000074
 31
0.0
  0
LINE
  5
298
100
AcDbEntity
  8
Unique_Pieces
 62
1
100
AcDbLine
 10
-535.667902
 20
412.000074
 30
0.0
 11
-573.767900
 21
412.000074
 31
0.0
  0
LINE
  5
299
100
AcDbEntity
  8
Unique_Pieces
 62
1
100
AcDbLine
 10
-573.767900
 20
412.000074
 30
0.0
 11
-573.767900
 21
379.488075
 31
0.0
  0
LINE
  5
29a
100
AcDbEntity
  8
Unique_Pieces
 62
1
100
AcDbLine
 10
-573.767900
 20
379.488075
 30
0.0
 11
-568.179900
 21
379.488075
 31
0.0
  0
LINE
  5
29b
100
AcDbEntity
  8
Unique_Pieces
 62
1
100
AcDbLine
 10
-568.179900
 20
379.488075
 30
0.0
 11
-568.179900
 21
341.388075
 31
0.0
  0
LINE
  5
29c
100
AcDbEntity
  8
Unique_Pieces
 62
1
100
AcDbLine
 10
-568.179900
 20
341.388075
 30
0.0
 11
-573.767900
 21
341.388075
 31
0.0
  0
LINE
  5
29d
100
AcDbEntity
  8
Unique_Pieces
 62
1
100
AcDbLine
 10
-573.767900
 20
341.388075
 30
0.0
 11
-573.767900
 21
303.288076
 31
0.0
  0
LINE
  5
29e
100
AcDbEntity
  8
Unique_Pieces
 62
1
100
AcDbLine
 10
-573.767900
 20
303.288076
 30
0.0
 11
-568.179900
 21
303.288076
 31
0.0
  0
LINE
  5
29f
100
AcDbEntity
  8
Unique_Pieces
 62
1
100
AcDbLine
 10
-568.179900
 20
303.288076
 30
0.0
 11
-568.179900
 21
265.188076
 31
0.0
  0
LINE
  5
2a0
100
AcDbEntity
  8
Unique_Pieces
 62
1
100
AcDbLine
 10
-568.179900
 20
265.188076
 30
0.0
 11
-573.767900
 21
265.188076
 31
0.0
  0
LINE
  5
2a1
100
AcDbEntity
  8
Unique_Pieces
 62
1
100
AcDbLine
 10
-573.767900
 20
265.188076
 30
0.0
 11
-573.767900
 21
227.088077
 31
0.0
  0
LINE
  5
2a2
100
AcDbEntity
  8
Unique_Pieces
 62
1
100
AcDbLine
 10
-573.767900
 20
227.088077
 30
0.0
 11
-568.179900
 21
227.088077
 31
0.0
  0
LINE
  5
2a3
100
AcDbEntity
  8
Unique_Pieces
 62
1
100
AcDbLine
 10
-568.179900
 20
227.088077
 30
0.0
 11
-568.179900
 21
188.988077
 31
0.0
  0
LINE
  5
2a4
100
AcDbEntity
  8
Unique_Pieces
 62
1
100
AcDbLine
 10
-568.179900
 20
188.988077
 30
0.0
 11
-573.767900
 21
188.988077
 31
0.0
  0
LINE
  5
2a5
100
AcDbEntity
  8
Unique_Pieces
 62
1
100
AcDbLine
 10
-573.767900
 20
188.988077
 30
0.0
 11
-573.767900
 21
150.888078
 31
0.0
  0
LINE
  5
2a6
100
AcDbEntity
  8
Unique_Pieces
 62
1
100
AcDbLine
 10
-573.767900
 20
150.888078
 30
0.0
 11
-568.179900
 21
150.888078
 31
0.0
  0
LINE
  5
2a7
100
AcDbEntity
  8
Unique_Pieces
 62
1
100
AcDbLine
 10
-568.179900
 20
150.888078
 30
0.0
 11
-568.179900
 21
112.788078
 31
0.0
  0
LINE
  5
2a8
100
AcDbEntity
  8
Unique_Pieces
 62
1
100
AcDbLine
 10
-568.179900
 20
112.788078
 30
0.0
 11
-573.767900
 21
112.788078
 31
0.0
  0
LINE
  5
2a9
100
AcDbEntity
  8
Unique_Pieces
 62
1
100
AcDbLine
 10
-573.767900
 20
112.788078
 30
0.0
 11
-573.767900
 21
74.688079
 31
0.0
  0
LINE
  5
2aa
100
AcDbEntity
  8
Unique_Pieces
 62
1
100
AcDbLine
 10
-573.767900
 20
74.688079
 30
0.0
 11
-568.179900
 21
74.688079
 31
0.0
  0
LINE
  5
2ab
100
AcDbEntity
  8
Unique_Pieces
 62
1
100
AcDbLine
 10
-568.179900
 20
74.688079
 30
0.0
 11
-568.179900
 21
36.588079
 31
0.0
  0
LINE
  5
2ac
100
AcDbEntity
  8
Unique_Pieces
 62
1
100
AcDbLine
 10
-568.179900
 20
36.588079
 30
0.0
 11
-573.767900
 21
36.588079
 31
0.0
  0
LINE
  5
2ad
100
AcDbEntity
  8
Unique_Pieces
 62
1
100
AcDbLine
 10
-573.767900
 20
36.588079
 30
0.0
 11
-573.767900
 21
-1.511920
 31
0.0
  0
LINE
  5
2ae
100
AcDbEntity
  8
Unique_Pieces
 62
1
100
AcDbLine
 10
-573.767900
 20
-1.511920
 30
0.0
 11
-568.179900
 21
-1.511920
 31
0.0
  0
LINE
  5
2af
100
AcDbEntity
  8
Unique_Pieces
 62
1
100
AcDbLine
 10
-568.179900
 20
-1.511920
 30
0.0
 11
-568.179900
 21
-39.611920
 31
0.0
  0
LINE
  5
2b0
100
AcDbEntity
  8
Unique_Pieces
 62
1
100
AcDbLine
 10
-568.179900
 20
-39.611920
 30
0.0
 11
-535.667902
 21
-39.611920
 31
0.0
  0
LINE
  5
2b1
100
AcDbEntity
  8
Unique_Pieces
 62
1
100
AcDbLine
 10
-535.667902
 20
-39.611920
 30
0.0
 11
-535.667902
 21
-34.023920
 31
0.0
  0
LINE
  5
2b2
100
AcDbEntity
  8
Unique_Pieces
 62
1
100
AcDbLine
 10
-535.667902
 20
-34.023920
 30
0.0
 11
-497.567902
 21
-34.023920
 31
0.0
  0
LINE
  5
2b3
100
AcDbEntity
  8
Unique_Pieces
 62
1
100
AcDbLine
 10
-497.567902
 20
-34.023920
 30
0.0
 11
-497.567902
 21
-39.611920
 31
0.0
  0
LINE
  5
2b4
100
AcDbEntity
  8
Unique_Pieces
 62
1
100
AcDbLine
 10
-497.567902
 20
-39.611920
 30
0.0
 11
-459.467903
 21
-39.611920
 31
0.0
  0
LINE
  5
2b5
100
AcDbEntity
  8
Unique_Pieces
 62
1
100
AcDbLine
 10
-459.467903
 20
-39.611920
 30
0.0
 11
-459.467903
 21
-34.023920
 31
0.0
  0
LINE
  5
2b6
100
AcDbEntity
  8
Unique_Pieces
 62
1
100
AcDbLine
 10
-459.467903
 20
-34.023920
 30
0.0
 11
-421.367903
 21
-34.023920
 31
0.0
  0
LINE
  5
2b7
100
AcDbEntity
  8
Unique_Pieces
 62
1
100
AcDbLine
 10
-421.367903
 20
-34.023920
 30
0.0
 11
-421.367903
 21
-39.611920
 31
0.0
  0
LINE
  5
2b8
100
AcDbEntity
  8
Unique_Pieces
 62
1
100
AcDbLine
 10
-421.367903
 20
-39.611920
 30
0.0
 11
-383.267904
 21
-39.611920
 31
0.0
  0
LINE
  5
2b9
100
AcDbEntity
  8
Unique_Pieces
 62
1
100
AcDbLine
 10
-383.267904
 20
-39.611920
 30
0.0
 11
-383.267904
 21
-34.023920
 31
0.0
  0
LINE
  5
2ba
100
AcDbEntity
  8
Unique_Pieces
 62
1
100
AcDbLine
 10
-383.267904
 20
-34.023920
 30
0.0
 11
-345.167904
 21
-34.023920
 31
0.0
  0
LINE
  5
2bb
100
AcDbEntity
  8
Unique_Pieces
 62
1
100
AcDbLine
 10
-345.167904
 20
-34.023920
 30
0.0
 11
-345.167904
 21
-39.611920
 31
0.0
  0
LINE
  5
2bc
100
AcDbEntity
  8
Unique_Pieces
 62
1
100
AcDbLine
 10
-345.167904
 20
-39.611920
 30
0.0
 11
-307.067905
 21
-39.611920
 31
0.0
  0
LINE
  5
2bd
100
AcDbEntity
  8
Unique_Pieces
 62
1
100
AcDbLine
 10
-307.067905
 20
-39.611920
 30
0.0
 11
-307.067905
 21
-34.023920
 31
0.0
  0
LINE
  5
2be
100
AcDbEntity
  8
Unique_Pieces
 62
1
100
AcDbLine
 10
-307.067905
 20
-34.023920
 30
0.0
 11
-268.967900
 21
-34.023920
 31
0.0
  0
LINE
  5
2bf
100
AcDbEntity
  8
Unique_Pieces
 62
1
100
AcDbLine
 10
-268.967900
 20
-34.023920
 30
0.0
 11
-268.967900
 21
-1.511920
 31
0.0
  0
LINE
  5
2c0
100
AcDbEntity
  8
Unique_Pieces
 62
1
100
AcDbLine
 10
-268.967900
 20
-1.511920
 30
0.0
 11
-274.555900
 21
-1.511920
 31
0.0
  0
LINE
  5
2c1
100
AcDbEntity
  8
Unique_Pieces
 62
1
100
AcDbLine
 10
-274.555900
 20
-1.511920
 30
0.0
 11
-274.555900
 21
36.588079
 31
0.0
  0
LINE
  5
2c2
100
AcDbEntity
  8
Unique_Pieces
 62
1
100
AcDbLine
 10
-274.555900
 20
36.588079
 30
0.0
 11
-268.967900
 21
36.588079
 31
0.0
  0
LINE
  5
2c3
100
AcDbEntity
  8
Unique_Pieces
 62
1
100
AcDbLine
 10
-268.967900
 20
36.588079
 30
0.0
 11
-268.967900
 21
74.688079
 31
0.0
  0
LINE
  5
2c4
100
AcDbEntity
  8
Unique_Pieces
 62
1
100
AcDbLine
 10
-110.979902
 20
4.076081
 30
0.0
 11
-116.567902
 21
4.076081
 31
0.0
  0
LINE
  5
2c5
100
AcDbEntity
  8
Unique_Pieces
 62
1
100
AcDbLine
 10
-116.567902
 20
4.076081
 30
0.0
 11
-116.567902
 21
-34.023918
 31
0.0
  0
LINE
  5
2c6
100
AcDbEntity
  8
Unique_Pieces
 62
1
100
AcDbLine
 10
-116.567902
 20
-34.023918
 30
0.0
 11
-78.467902
 21
-34.023918
 31
0.0
  0
LINE
  5
2c7
100
AcDbEntity
  8
Unique_Pieces
 62
1
100
AcDbLine
 10
-78.467902
 20
-34.023918
 30
0.0
 11
-78.467902
 21
-39.611918
 31
0.0
  0
LINE
  5
2c8
100
AcDbEntity
  8
Unique_Pieces
 62
1
100
AcDbLine
 10
-78.467902
 20
-39.611918
 30
0.0
 11
-40.367903
 21
-39.611918
 31
0.0
  0
LINE
  5
2c9
100
AcDbEntity
  8
Unique_Pieces
 62
1
100
AcDbLine
 10
-40.367903
 20
-39.611918
 30
0.0
 11
-40.367903
 21
-34.023918
 31
0.0
  0
LINE
  5
2ca
100
AcDbEntity
  8
Unique_Pieces
 62
1
100
AcDbLine
 10
-40.367903
 20
-34.023918
 30
0.0
 11
-2.267903
 21
-34.023918
 31
0.0
  0
LINE
  5
2cb
100
AcDbEntity
  8
Unique_Pieces
 62
1
100
AcDbLine
 10
-2.267903
 20
-34.023918
 30
0.0
 11
-2.267903
 21
-39.611918
 31
0.0
  0
LINE
  5
2cc
100
AcDbEntity
  8
Unique_Pieces
 62
1
100
AcDbLine
 10
-2.267903
 20
-39.611918
 30
0.0
 11
30.244096
 21
-39.611918
 31
0.0
  0
LINE
  5
2cd
100
AcDbEntity
  8
Unique_Pieces
 62
1
100
AcDbLine
 10
30.244096
 20
-39.611918
 30
0.0
 11
30.244096
 21
-1.511919
 31
0.0
  0
LINE
  5
2ce
100
AcDbEntity
  8
Unique_Pieces
 62
1
100
AcDbLine
 10
30.244096
 20
-1.511919
 30
0.0
 11
35.832096
 21
-1.511919
 31
0.0
  0
LINE
  5
2cf
100
AcDbEntity
  8
Unique_Pieces
 62
1
100
AcDbLine
 10
35.832096
 20
-1.511919
 30
0.0
 11
35.832096
 21
36.588081
 31
0.0
  0
LINE
  5
2d0
100
AcDbEntity
  8
Unique_Pieces
 62
1
100
AcDbLine
 10
35.832096
 20
36.588081
 30
0.0
 11
30.244096
 21
36.588081
 31
0.0
  0
LINE
  5
2d1
100
AcDbEntity
  8
Unique_Pieces
 62
1
100
AcDbLine
 10
30.244096
 20
36.588081
 30
0.0
 11
30.244096
 21
74.688080
 31
0.0
  0
LINE
  5
2d2
100
AcDbEntity
  8
Unique_Pieces
 62
1
100
AcDbLine
 10
30.244096
 20
74.688080
 30
0.0
 11
35.832096
 21
74.688080
 31
0.0
  0
LINE
  5
2d3
100
AcDbEntity
  8
Unique_Pieces
 62
1
100
AcDbLine
 10
35.832096
 20
74.688080
 30
0.0
 11
35.832096
 21
112.788080
 31
0.0
  0
LINE
  5
2d4
100
AcDbEntity
  8
Unique_Pieces
 62
1
100
AcDbLine
 10
35.832096
 20
112.788080
 30
0.0
 11
30.244096
 21
112.788080
 31
0.0
  0
LINE
  5
2d5
100
AcDbEntity
  8
Unique_Pieces
 62
1
100
AcDbLine
 10
30.244096
 20
112.788080
 30
0.0
 11
30.244096
 21
150.888080
 31
0.0
  0
LINE
  5
2d6
100
AcDbEntity
  8
Unique_Pieces
 62
1
100
AcDbLine
 10
30.244096
 20
150.888080
 30
0.0
 11
35.832096
 21
150.888080
 31
0.0
  0
LINE
  5
2d7
100
AcDbEntity
  8
Unique_Pieces
 62
1
100
AcDbLine
 10
35.832096
 20
150.888080
 30
0.0
 11
35.832096
 21
188.988079
 31
0.0
  0
LINE
  5
2d8
100
AcDbEntity
  8
Unique_Pieces
 62
1
100
AcDbLine
 10
35.832096
 20
188.988079
 30
0.0
 11
30.244096
 21
188.988079
 31
0.0
  0
LINE
  5
2d9
100
AcDbEntity
  8
Unique_Pieces
 62
1
100
AcDbLine
 10
30.244096
 20
188.988079
 30
0.0
 11
30.244096
 21
227.088079
 31
0.0
  0
LINE
  5
2da
100
AcDbEntity
  8
Unique_Pieces
 62
1
100
AcDbLine
 10
30.244096
 20
227.088079
 30
0.0
 11
35.832096
 21
227.088079
 31
0.0
  0
LINE
  5
2db
100
AcDbEntity
  8
Unique_Pieces
 62
1
100
AcDbLine
 10
35.832096
 20
227.088079
 30
0.0
 11
35.832096
 21
259.600078
 31
0.0
  0
LINE
  5
2dc
100
AcDbEntity
  8
Unique_Pieces
 62
1
100
AcDbLine
 10
35.832096
 20
259.600078
 30
0.0
 11
-2.267903
 21
259.600078
 31
0.0
  0
LINE
  5
2dd
100
AcDbEntity
  8
Unique_Pieces
 62
1
100
AcDbLine
 10
-2.267903
 20
259.600078
 30
0.0
 11
-2.267903
 21
265.188078
 31
0.0
  0
LINE
  5
2de
100
AcDbEntity
  8
Unique_Pieces
 62
1
100
AcDbLine
 10
-2.267903
 20
265.188078
 30
0.0
 11
-40.367903
 21
265.188078
 31
0.0
  0
LINE
  5
2df
100
AcDbEntity
  8
Unique_Pieces
 62
1
100
AcDbLine
 10
-40.367903
 20
265.188078
 30
0.0
 11
-40.367903
 21
259.600078
 31
0.0
  0
LINE
  5
2e0
100
AcDbEntity
  8
Unique_Pieces
 62
1
100
AcDbLine
 10
-40.367903
 20
259.600078
 30
0.0
 11
-78.467902
 21
259.600078
 31
0.0
  0
LINE
  5
2e1
100
AcDbEntity
  8
Unique_Pieces
 62
1
100
AcDbLine
 10
-78.467902
 20
259.600078
 30
0.0
 11
-78.467902
 21
265.188078
 31
0.0
  0
LINE
  5
2e2
100
AcDbEntity
  8
Unique_Pieces
 62
1
100
AcDbLine
 10
-78.467902
 20
265.188078
 30
0.0
 11
-116.567902
 21
265.188078
 31
0.0
  0
LINE
  5
2e3
100
AcDbEntity
  8
Unique_Pieces
 62
1
100
AcDbLine
 10
-116.567902
 20
265.188078
 30
0.0
 11
-116.567902
 21
259.600078
 31
0.0
  0
LINE
  5
2e4
100
AcDbEntity
  8
Unique_Pieces
 62
1
100
AcDbLine
 10
-116.567902
 20
259.600078
 30
0.0
 11
-122.155902
 21
259.600078
 31
0.0
  0
LINE
  5
2e5
100
AcDbEntity
  8
Unique_Pieces
 62
1
100
AcDbLine
 10
-122.155902
 20
259.600078
 30
0.0
 11
-122.155902
 21
297.700078
 31
0.0
  0
LINE
  5
2e6
100
AcDbEntity
  8
Unique_Pieces
 62
1
100
AcDbLine
 10
-122.155902
 20
297.700078
 30
0.0
 11
-116.567902
 21
297.700078
 31
0.0
  0
LINE
  5
2e7
100
AcDbEntity
  8
Unique_Pieces
 62
1
100
AcDbLine
 10
-116.567902
 20
297.700078
 30
0.0
 11
-116.567902
 21
335.800077
 31
0.0
  0
LINE
  5
2e8
100
AcDbEntity
  8
Unique_Pieces
 62
1
100
AcDbLine
 10
-116.567902
 20
335.800077
 30
0.0
 11
-122.155902
 21
335.800077
 31
0.0
  0
LINE
  5
2e9
100
AcDbEntity
  8
Unique_Pieces
 62
1
100
AcDbLine
 10
-122.155902
 20
335.800077
 30
0.0
 11
-122.155902
 21
373.900077
 31
0.0
  0
LINE
  5
2ea
100
AcDbEntity
  8
Unique_Pieces
 62
1
100
AcDbLine
 10
-122.155902
 20
373.900077
 30
0.0
 11
-116.567902
 21
373.900077
 31
0.0
  0
LINE
  5
2eb
100
AcDbEntity
  8
Unique_Pieces
 62
1
100
AcDbLine
 10
-116.567902
 20
373.900077
 30
0.0
 11
-116.567902
 21
412.000076
 31
0.0
  0
LINE
  5
2ec
100
AcDbEntity
  8
Unique_Pieces
 62
1
100
AcDbLine
 10
-116.567902
 20
412.000076
 30
0.0
 11
-154.667901
 21
412.000076
 31
0.0
  0
LINE
  5
2ed
100
AcDbEntity
  8
Unique_Pieces
 62
1
100
AcDbLine
 10
-154.667901
 20
412.000076
 30
0.0
 11
-154.667901
 21
417.588076
 31
0.0
  0
LINE
  5
2ee
100
AcDbEntity
  8
Unique_Pieces
 62
1
100
AcDbLine
 10
-154.667901
 20
417.588076
 30
0.0
 11
-192.767901
 21
417.588076
 31
0.0
  0
LINE
  5
2ef
100
AcDbEntity
  8
Unique_Pieces
 62
1
100
AcDbLine
 10
-192.767901
 20
417.588076
 30
0.0
 11
-192.767901
 21
412.000076
 31
0.0
  0
LINE
  5
2f0
100
AcDbEntity
  8
Unique_Pieces
 62
1
100
AcDbLine
 10
-192.767901
 20
412.000076
 30
0.0
 11
-230.867900
 21
412.000076
 31
0.0
  0
LINE
  5
2f1
100
AcDbEntity
  8
Unique_Pieces
 62
1
100
AcDbLine
 10
-230.867900
 20
412.000076
 30
0.0
 11
-230.867900
 21
417.588076
 31
0.0
  0
LINE
  5
2f2
100
AcDbEntity
  8
Unique_Pieces
 62
1
100
AcDbLine
 10
-230.867900
 20
417.588076
 30
0.0
 11
-263.379900
 21
417.588076
 31
0.0
  0
LINE
  5
2f3
100
AcDbEntity
  8
Unique_Pieces
 62
1
100
AcDbLine
 10
-263.379900
 20
417.588076
 30
0.0
 11
-263.379900
 21
379.488077
 31
0.0
  0
LINE
  5
2f4
100
AcDbEntity
  8
Unique_Pieces
 62
1
100
AcDbLine
 10
-263.379900
 20
379.488077
 30
0.0
 11
-268.967900
 21
379.488077
 31
0.0
  0
LINE
  5
2f5
100
AcDbEntity
  8
Unique_Pieces
 62
1
100
AcDbLine
 10
-268.967900
 20
379.488077
 30
0.0
 11
-268.967900
 21
341.388077
 31
0.0
  0
LINE
  5
2f6
100
AcDbEntity
  8
Unique_Pieces
 62
1
100
AcDbLine
 10
-268.967900
 20
341.388077
 30
0.0
 11
-263.379900
 21
341.388077
 31
0.0
  0
LINE
  5
2f7
100
AcDbEntity
  8
Unique_Pieces
 62
1
100
AcDbLine
 10
-263.379900
 20
341.388077
 30
0.0
 11
-263.379900
 21
303.288078
 31
0.0
  0
LINE
  5
2f8
100
AcDbEntity
  8
Unique_Pieces
 62
1
100
AcDbLine
 10
-263.379900
 20
303.288078
 30
0.0
 11
-268.967900
 21
303.288078
 31
0.0
  0
LINE
  5
2f9
100
AcDbEntity
  8
Unique_Pieces
 62
1
100
AcDbLine
 10
-268.967900
 20
303.288078
 30
0.0
 11
-268.967900
 21
265.188078
 31
0.0
  0
LINE
  5
2fa
100
AcDbEntity
  8
Unique_Pieces
 62
1
100
AcDbLine
 10
-268.967900
 20
265.188078
 30
0.0
 11
-263.379900
 21
265.188078
 31
0.0
  0
LINE
  5
2fb
100
AcDbEntity
  8
Unique_Pieces
 62
1
100
AcDbLine
 10
-263.379900
 20
265.188078
 30
0.0
 11
-263.379900
 21
227.088079
 31
0.0
  0
LINE
  5
2fc
100
AcDbEntity
  8
Unique_Pieces
 62
1
100
AcDbLine
 10
-263.379900
 20
227.088079
 30
0.0
 11
-268.967900
 21
227.088079
 31
0.0
  0
LINE
  5
2fd
100
AcDbEntity
  8
Unique_Pieces
 62
1
100
AcDbLine
 10
-268.967900
 20
227.088079
 30
0.0
 11
-268.967900
 21
188.988079
 31
0.0
  0
LINE
  5
2fe
100
AcDbEntity
  8
Unique_Pieces
 62
1
100
AcDbLine
 10
-268.967900
 20
188.988079
 30
0.0
 11
-263.379900
 21
188.988079
 31
0.0
  0
LINE
  5
2ff
100
AcDbEntity
  8
Unique_Pieces
 62
1
100
AcDbLine
 10
-263.379900
 20
188.988079
 30
0.0
 11
-263.379900
 21
150.888080
 31
0.0
  0
LINE
  5
300
100
AcDbEntity
  8
Unique_Pieces
 62
1
100
AcDbLine
 10
-263.379900
 20
150.888080
 30
0.0
 11
-268.967900
 21
150.888080
 31
0.0
  0
LINE
  5
301
100
AcDbEntity
  8
Unique_Pieces
 62
1
100
AcDbLine
 10
-268.967900
 20
150.888080
 30
0.0
 11
-268.967900
 21
118.376080
 31
0.0
  0
LINE
  5
302
100
AcDbEntity
  8
Unique_Pieces
 62
1
100
AcDbLine
 10
-268.967900
 20
118.376080
 30
0.0
 11
-230.867900
 21
118.376080
 31
0.0
  0
LINE
  5
303
100
AcDbEntity
  8
Unique_Pieces
 62
1
100
AcDbLine
 10
-230.867900
 20
118.376080
 30
0.0
 11
-230.867900
 21
112.788080
 31
0.0
  0
LINE
  5
304
100
AcDbEntity
  8
Unique_Pieces
 62
1
100
AcDbLine
 10
-230.867900
 20
112.788080
 30
0.0
 11
-192.767901
 21
112.788080
 31
0.0
  0
LINE
  5
305
100
AcDbEntity
  8
Unique_Pieces
 62
1
100
AcDbLine
 10
-192.767901
 20
112.788080
 30
0.0
 11
-192.767901
 21
118.376080
 31
0.0
  0
LINE
  5
306
100
AcDbEntity
  8
Unique_Pieces
 62
1
100
AcDbLine
 10
-192.767901
 20
118.376080
 30
0.0
 11
-154.667901
 21
118.376080
 31
0.0
  0
LINE
  5
307
100
AcDbEntity
  8
Unique_Pieces
 62
1
100
AcDbLine
 10
-154.667901
 20
118.376080
 30
0.0
 11
-154.667901
 21
112.788080
 31
0.0
  0
LINE
  5
308
100
AcDbEntity
  8
Unique_Pieces
 62
1
100
AcDbLine
 10
-154.667901
 20
112.788080
 30
0.0
 11
-116.567902
 21
112.788080
 31
0.0
  0
LINE
  5
309
100
AcDbEntity
  8
Unique_Pieces
 62
1
100
AcDbLine
 10
-116.567902
 20
112.788080
 30
0.0
 11
-116.567902
 21
118.376080
 31
0.0
  0
LINE
  5
30a
100
AcDbEntity
  8
Unique_Pieces
 62
1
100
AcDbLine
 10
-116.567902
 20
118.376080
 30
0.0
 11
-110.979902
 21
118.376080
 31
0.0
  0
LINE
  5
30b
100
AcDbEntity
  8
Unique_Pieces
 62
1
100
AcDbLine
 10
-110.979902
 20
118.376080
 30
0.0
 11
-110.979902
 21
80.276080
 31
0.0
  0
LINE
  5
30c
100
AcDbEntity
  8
Unique_Pieces
 62
1
100
AcDbLine
 10
-110.979902
 20
80.276080
 30
0.0
 11
-116.567902
 21
80.276080
 31
0.0
  0
LINE
  5
30d
100
AcDbEntity
  8
Unique_Pieces
 62
1
100
AcDbLine
 10
-116.567902
 20
80.276080
 30
0.0
 11
-116.567902
 21
42.176081
 31
0.0
  0
LINE
  5
30e
100
AcDbEntity
  8
Unique_Pieces
 62
1
100
AcDbLine
 10
-116.567902
 20
42.176081
 30
0.0
 11
-110.979902
 21
42.176081
 31
0.0
  0
LINE
  5
30f
100
AcDbEntity
  8
Unique_Pieces
 62
1
100
AcDbLine
 10
-110.979902
 20
42.176081
 30
0.0
 11
-110.979902
 21
4.076081
 31
0.0
  0
LINE
  5
310
100
AcDbEntity
  8
Unique_Pieces
 62
1
100
AcDbLine
 10
340.632096
 20
379.488077
 30
0.0
 11
335.044096
 21
379.488077
 31
0.0
  0
LINE
  5
311
100
AcDbEntity
  8
Unique_Pieces
 62
1
100
AcDbLine
 10
335.044096
 20
379.488077
 30
0.0
 11
335.044096
 21
417.588076
 31
0.0
  0
LINE
  5
312
100
AcDbEntity
  8
Unique_Pieces
 62
1
100
AcDbLine
 10
335.044096
 20
417.588076
 30
0.0
 11
302.532091
 21
417.588076
 31
0.0
  0
LINE
  5
313
100
AcDbEntity
  8
Unique_Pieces
 62
1
100
AcDbLine
 10
302.532091
 20
417.588076
 30
0.0
 11
302.532091
 21
412.000076
 31
0.0
  0
LINE
  5
314
100
AcDbEntity
  8
Unique_Pieces
 62
1
100
AcDbLine
 10
302.532091
 20
412.000076
 30
0.0
 11
264.432092
 21
412.000076
 31
0.0
  0
LINE
  5
315
100
AcDbEntity
  8
Unique_Pieces
 62
1
100
AcDbLine
 10
264.432092
 20
412.000076
 30
0.0
 11
264.432092
 21
417.588076
 31
0.0
  0
LINE
  5
316
100
AcDbEntity
  8
Unique_Pieces
 62
1
100
AcDbLine
 10
264.432092
 20
417.588076
 30
0.0
 11
226.332092
 21
417.588076
 31
0.0
  0
LINE
  5
317
100
AcDbEntity
  8
Unique_Pieces
 62
1
100
AcDbLine
 10
226.332092
 20
417.588076
 30
0.0
 11
226.332092
 21
412.000076
 31
0.0
  0
LINE
  5
318
100
AcDbEntity
  8
Unique_Pieces
 62
1
100
AcDbLine
 10
226.332092
 20
412.000076
 30
0.0
 11
188.232093
 21
412.000076
 31
0.0
  0
LINE
  5
319
100
AcDbEntity
  8
Unique_Pieces
 62
1
100
AcDbLine
 10
188.232093
 20
412.000076
 30
0.0
 11
188.232093
 21
373.900077
 31
0.0
  0
LINE
  5
31a
100
AcDbEntity
  8
Unique_Pieces
 62
1
100
AcDbLine
 10
188.232093
 20
373.900077
 30
0.0
 11
193.820093
 21
373.900077
 31
0.0
  0
LINE
  5
31b
100
AcDbEntity
  8
Unique_Pieces
 62
1
100
AcDbLine
 10
193.820093
 20
373.900077
 30
0.0
 11
193.820093
 21
335.800077
 31
0.0
  0
LINE
  5
31c
100
AcDbEntity
  8
Unique_Pieces
 62
1
100
AcDbLine
 10
193.820093
 20
335.800077
 30
0.0
 11
188.232093
 21
335.800077
 31
0.0
  0
LINE
  5
31d
100
AcDbEntity
  8
Unique_Pieces
 62
1
100
AcDbLine
 10
188.232093
 20
335.800077
 30
0.0
 11
188.232093
 21
297.700078
 31
0.0
  0
LINE
  5
31e
100
AcDbEntity
  8
Unique_Pieces
 62
1
100
AcDbLine
 10
188.232093
 20
297.700078
 30
0.0
 11
193.820093
 21
297.700078
 31
0.0
  0
LINE
  5
31f
100
AcDbEntity
  8
Unique_Pieces
 62
1
100
AcDbLine
 10
193.820093
 20
297.700078
 30
0.0
 11
193.820093
 21
259.600078
 31
0.0
  0
LINE
  5
320
100
AcDbEntity
  8
Unique_Pieces
 62
1
100
AcDbLine
 10
193.820093
 20
259.600078
 30
0.0
 11
188.232093
 21
259.600078
 31
0.0
  0
LINE
  5
321
100
AcDbEntity
  8
Unique_Pieces
 62
1
100
AcDbLine
 10
188.232093
 20
259.600078
 30
0.0
 11
188.232093
 21
265.188078
 31
0.0
  0
LINE
  5
322
100
AcDbEntity
  8
Unique_Pieces
 62
1
100
AcDbLine
 10
188.232093
 20
265.188078
 30
0.0
 11
150.132093
 21
265.188078
 31
0.0
  0
LINE
  5
323
100
AcDbEntity
  8
Unique_Pieces
 62
1
100
AcDbLine
 10
150.132093
 20
265.188078
 30
0.0
 11
150.132093
 21
259.600078
 31
0.0
  0
LINE
  5
324
100
AcDbEntity
  8
Unique_Pieces
 62
1
100
AcDbLine
 10
150.132093
 20
259.600078
 30
0.0
 11
112.032094
 21
259.600078
 31
0.0
  0
LINE
  5
325
100
AcDbEntity
  8
Unique_Pieces
 62
1
100
AcDbLine
 10
112.032094
 20
259.600078
 30
0.0
 11
112.032094
 21
265.188078
 31
0.0
  0
LINE
  5
326
100
AcDbEntity
  8
Unique_Pieces
 62
1
100
AcDbLine
 10
112.032094
 20
265.188078
 30
0.0
 11
73.932094
 21
265.188078
 31
0.0
  0
LINE
  5
327
100
AcDbEntity
  8
Unique_Pieces
 62
1
100
AcDbLine
 10
73.932094
 20
265.188078
 30
0.0
 11
73.932094
 21
259.600078
 31
0.0
  0
LINE
  5
328
100
AcDbEntity
  8
Unique_Pieces
 62
1
100
AcDbLine
 10
73.932094
 20
259.600078
 30
0.0
 11
35.832096
 21
259.600078
 31
0.0
  0
LINE
  5
329
100
AcDbEntity
  8
Unique_Pieces
 62
1
100
AcDbLine
 10
35.832096
 20
259.600078
 30
0.0
 11
35.832096
 21
227.088079
 31
0.0
  0
LINE
  5
32a
100
AcDbEntity
  8
Unique_Pieces
 62
1
100
AcDbLine
 10
35.832096
 20
227.088079
 30
0.0
 11
41.420096
 21
227.088079
 31
0.0
  0
LINE
  5
32b
100
AcDbEntity
  8
Unique_Pieces
 62
1
100
AcDbLine
 10
41.420096
 20
227.088079
 30
0.0
 11
41.420096
 21
188.988079
 31
0.0
  0
LINE
  5
32c
100
AcDbEntity
  8
Unique_Pieces
 62
1
100
AcDbLine
 10
41.420096
 20
188.988079
 30
0.0
 11
35.832096
 21
188.988079
 31
0.0
  0
LINE
  5
32d
100
AcDbEntity
  8
Unique_Pieces
 62
1
100
AcDbLine
 10
35.832096
 20
188.988079
 30
0.0
 11
35.832096
 21
150.888080
 31
0.0
  0
LINE
  5
32e
100
AcDbEntity
  8
Unique_Pieces
 62
1
100
AcDbLine
 10
35.832096
 20
150.888080
 30
0.0
 11
41.420096
 21
150.888080
 31
0.0
  0
LINE
  5
32f
100
AcDbEntity
  8
Unique_Pieces
 62
1
100
AcDbLine
 10
41.420096
 20
150.888080
 30
0.0
 11
41.420096
 21
112.788080
 31
0.0
  0
LINE
  5
330
100
AcDbEntity
  8
Unique_Pieces
 62
1
100
AcDbLine
 10
41.420096
 20
112.788080
 30
0.0
 11
35.832096
 21
112.788080
 31
0.0
  0
LINE
  5
331
100
AcDbEntity
  8
Unique_Pieces
 62
1
100
AcDbLine
 10
35.832096
 20
112.788080
 30
0.0
 11
35.832096
 21
74.688080
 31
0.0
  0
LINE
  5
332
100
AcDbEntity
  8
Unique_Pieces
 62
1
100
AcDbLine
 10
35.832096
 20
74.688080
 30
0.0
 11
41.420096
 21
74.688080
 31
0.0
  0
LINE
  5
333
100
AcDbEntity
  8
Unique_Pieces
 62
1
100
AcDbLine
 10
41.420096
 20
74.688080
 30
0.0
 11
41.420096
 21
36.588081
 31
0.0
  0
LINE
  5
334
100
AcDbEntity
  8
Unique_Pieces
 62
1
100
AcDbLine
 10
41.420096
 20
36.588081
 30
0.0
 11
35.832096
 21
36.588081
 31
0.0
  0
LINE
  5
335
100
AcDbEntity
  8
Unique_Pieces
 62
1
100
AcDbLine
 10
35.832096
 20
36.588081
 30
0.0
 11
35.832096
 21
-1.511919
 31
0.0
  0
LINE
  5
336
100
AcDbEntity
  8
Unique_Pieces
 62
1
100
AcDbLine
 10
35.832096
 20
-1.511919
 30
0.0
 11
41.420096
 21
-1.511919
 31
0.0
  0
LINE
  5
337
100
AcDbEntity
  8
Unique_Pieces
 62
1
100
AcDbLine
 10
41.420096
 20
-1.511919
 30
0.0
 11
41.420096
 21
-39.611918
 31
0.0
  0
LINE
  5
338
100
AcDbEntity
  8
Unique_Pieces
 62
1
100
AcDbLine
 10
41.420096
 20
-39.611918
 30
0.0
 11
73.932094
 21
-39.611918
 31
0.0
  0
LINE
  5
339
100
AcDbEntity
  8
Unique_Pieces
 62
1
100
AcDbLine
 10
73.932094
 20
-39.611918
 30
0.0
 11
73.932094
 21
-34.023918
 31
0.0
  0
LINE
  5
33a
100
AcDbEntity
  8
Unique_Pieces
 62
1
100
AcDbLine
 10
73.932094
 20
-34.023918
 30
0.0
 11
112.032094
 21
-34.023918
 31
0.0
  0
LINE
  5
33b
100
AcDbEntity
  8
Unique_Pieces
 62
1
100
AcDbLine
 10
112.032094
 20
-34.023918
 30
0.0
 11
112.032094
 21
-39.611918
 31
0.0
  0
LINE
  5
33c
100
AcDbEntity
  8
Unique_Pieces
 62
1
100
AcDbLine
 10
112.032094
 20
-39.611918
 30
0.0
 11
150.132093
 21
-39.611918
 31
0.0
  0
LINE
  5
33d
100
AcDbEntity
  8
Unique_Pieces
 62
1
100
AcDbLine
 10
150.132093
 20
-39.611918
 30
0.0
 11
150.132093
 21
-34.023918
 31
0.0
  0
LINE
  5
33e
100
AcDbEntity
  8
Unique_Pieces
 62
1
100
AcDbLine
 10
150.132093
 20
-34.023918
 30
0.0
 11
188.232093
 21
-34.023918
 31
0.0
  0
LINE
  5
33f
100
AcDbEntity
  8
Unique_Pieces
 62
1
100
AcDbLine
 10
188.232093
 20
-34.023918
 30
0.0
 11
188.232093
 21
4.076081
 31
0.0
  0
LINE
  5
340
100
AcDbEntity
  8
Unique_Pieces
 62
1
100
AcDbLine
 10
188.232093
 20
4.076081
 30
0.0
 11
182.644093
 21
4.076081
 31
0.0
  0
LINE
  5
341
100
AcDbEntity
  8
Unique_Pieces
 62
1
100
AcDbLine
 10
182.644093
 20
4.076081
 30
0.0
 11
182.644093
 21
42.176081
 31
0.0
  0
LINE
  5
342
100
AcDbEntity
  8
Unique_Pieces
 62
1
100
AcDbLine
 10
182.644093
 20
42.176081
 30
0.0
 11
188.232093
 21
42.176081
 31
0.0
  0
LINE
  5
343
100
AcDbEntity
  8
Unique_Pieces
 62
1
100
AcDbLine
 10
188.232093
 20
42.176081
 30
0.0
 11
188.232093
 21
80.276080
 31
0.0
  0
LINE
  5
344
100
AcDbEntity
  8
Unique_Pieces
 62
1
100
AcDbLine
 10
188.232093
 20
80.276080
 30
0.0
 11
182.644093
 21
80.276080
 31
0.0
  0
LINE
  5
345
100
AcDbEntity
  8
Unique_Pieces
 62
1
100
AcDbLine
 10
182.644093
 20
80.276080
 30
0.0
 11
182.644093
 21
118.376080
 31
0.0
  0
LINE
  5
346
100
AcDbEntity
  8
Unique_Pieces
 62
1
100
AcDbLine
 10
182.644093
 20
118.376080
 30
0.0
 11
188.232093
 21
118.376080
 31
0.0
  0
LINE
  5
347
100
AcDbEntity
  8
Unique_Pieces
 62
1
100
AcDbLine
 10
188.232093
 20
118.376080
 30
0.0
 11
188.232093
 21
112.788080
 31
0.0
  0
LINE
  5
348
100
AcDbEntity
  8
Unique_Pieces
 62
1
100
AcDbLine
 10
188.232093
 20
112.788080
 30
0.0
 11
226.332092
 21
112.788080
 31
0.0
  0
LINE
  5
349
100
AcDbEntity
  8
Unique_Pieces
 62
1
100
AcDbLine
 10
226.332092
 20
112.788080
 30
0.0
 11
226.332092
 21
118.376080
 31
0.0
  0
LINE
  5
34a
100
AcDbEntity
  8
Unique_Pieces
 62
1
100
AcDbLine
 10
226.332092
 20
118.376080
 30
0.0
 11
264.432092
 21
118.376080
 31
0.0
  0
LINE
  5
34b
100
AcDbEntity
  8
Unique_Pieces
 62
1
100
AcDbLine
 10
264.432092
 20
118.376080
 30
0.0
 11
264.432092
 21
112.788080
 31
0.0
  0
LINE
  5
34c
100
AcDbEntity
  8
Unique_Pieces
 62
1
100
AcDbLine
 10
264.432092
 20
112.788080
 30
0.0
 11
302.532091
 21
112.788080
 31
0.0
  0
LINE
  5
34d
100
AcDbEntity
  8
Unique_Pieces
 62
1
100
AcDbLine
 10
302.532091
 20
112.788080
 30
0.0
 11
302.532091
 21
118.376080
 31
0.0
  0
LINE
  5
34e
100
AcDbEntity
  8
Unique_Pieces
 62
1
100
AcDbLine
 10
302.532091
 20
118.376080
 30
0.0
 11
340.632096
 21
118.376080
 31
0.0
  0
LINE
  5
34f
100
AcDbEntity
  8
Unique_Pieces
 62
1
100
AcDbLine
 10
340.632096
 20
118.376080
 30
0.0
 11
340.632096
 21
150.888080
 31
0.0
  0
LINE
  5
350
100
AcDbEntity
  8
Unique_Pieces
 62
1
100
AcDbLine
 10
340.632096
 20
150.888080
 30
0.0
 11
335.044096
 21
150.888080
 31
0.0
  0
LINE
  5
351
100
AcDbEntity
  8
Unique_Pieces
 62
1
100
AcDbLine
 10
335.044096
 20
150.888080
 30
0.0
 11
335.044096
 21
188.988079
 31
0.0
  0
LINE
  5
352
100
AcDbEntity
  8
Unique_Pieces
 62
1
100
AcDbLine
 10
335.044096
 20
188.988079
 30
0.0
 11
340.632096
 21
188.988079
 31
0.0
  0
LINE
  5
353
100
AcDbEntity
  8
Unique_Pieces
 62
1
100
AcDbLine
 10
340.632096
 20
188.988079
 30
0.0
 11
340.632096
 21
227.088079
 31
0.0
  0
LINE
  5
354
100
AcDbEntity
  8
Unique_Pieces
 62
1
100
AcDbLine
 10
340.632096
 20
227.088079
 30
0.0
 11
335.044096
 21
227.088079
 31
0.0
  0
LINE
  5
355
100
AcDbEntity
  8
Unique_Pieces
 62
1
100
AcDbLine
 10
335.044096
 20
227.088079
 30
0.0
 11
335.044096
 21
265.188078
 31
0.0
  0
LINE
  5
356
100
AcDbEntity
  8
Unique_Pieces
 62
1
100
AcDbLine
 10
335.044096
 20
265.188078
 30
0.0
 11
340.632096
 21
265.188078
 31
0.0
  0
LINE
  5
357
100
AcDbEntity
  8
Unique_Pieces
 62
1
100
AcDbLine
 10
340.632096
 20
265.188078
 30
0.0
 11
340.632096
 21
303.288078
 31
0.0
  0
LINE
  5
358
100
AcDbEntity
  8
Unique_Pieces
 62
1
100
AcDbLine
 10
340.632096
 20
303.288078
 30
0.0
 11
335.044096
 21
303.288078
 31
0.0
  0
LINE
  5
359
100
AcDbEntity
  8
Unique_Pieces
 62
1
100
AcDbLine
 10
335.044096
 20
303.288078
 30
0.0
 11
335.044096
 21
341.388077
 31
0.0
  0
LINE
  5
35a
100
AcDbEntity
  8
Unique_Pieces
 62
1
100
AcDbLine
 10
335.044096
 20
341.388077
 30
0.0
 11
340.632096
 21
341.388077
 31
0.0
  0
LINE
  5
35b
100
AcDbEntity
  8
Unique_Pieces
 62
1
100
AcDbLine
 10
340.632096
 20
341.388077
 30
0.0
 11
340.632096
 21
379.488077
 31
0.0
  0
LINE
  5
35c
100
AcDbEntity
  8
Unique_Pieces
 62
1
100
AcDbLine
 10
340.632100
 20
-1.511913
 30
0.0
 11
346.220100
 21
-1.511913
 31
0.0
  0
LINE
  5
35d
100
AcDbEntity
  8
Unique_Pieces
 62
1
100
AcDbLine
 10
346.220100
 20
-1.511913
 30
0.0
 11
346.220100
 21
-39.611918
 31
0.0
  0
LINE
  5
35e
100
AcDbEntity
  8
Unique_Pieces
 62
1
100
AcDbLine
 10
346.220100
 20
-39.611918
 30
0.0
 11
378.732100
 21
-39.611918
 31
0.0
  0
LINE
  5
35f
100
AcDbEntity
  8
Unique_Pieces
 62
1
100
AcDbLine
 10
378.732100
 20
-39.611918
 30
0.0
 11
378.732100
 21
-34.023918
 31
0.0
  0
LINE
  5
360
100
AcDbEntity
  8
Unique_Pieces
 62
1
100
AcDbLine
 10
378.732100
 20
-34.023918
 30
0.0
 11
416.832099
 21
-34.023918
 31
0.0
  0
LINE
  5
361
100
AcDbEntity
  8
Unique_Pieces
 62
1
100
AcDbLine
 10
416.832099
 20
-34.023918
 30
0.0
 11
416.832099
 21
-39.611918
 31
0.0
  0
LINE
  5
362
100
AcDbEntity
  8
Unique_Pieces
 62
1
100
AcDbLine
 10
416.832099
 20
-39.611918
 30
0.0
 11
454.932099
 21
-39.611918
 31
0.0
  0
LINE
  5
363
100
AcDbEntity
  8
Unique_Pieces
 62
1
100
AcDbLine
 10
454.932099
 20
-39.611918
 30
0.0
 11
454.932099
 21
-34.023918
 31
0.0
  0
LINE
  5
364
100
AcDbEntity
  8
Unique_Pieces
 62
1
100
AcDbLine
 10
454.932099
 20
-34.023918
 30
0.0
 11
493.032098
 21
-34.023918
 31
0.0
  0
LINE
  5
365
100
AcDbEntity
  8
Unique_Pieces
 62
1
100
AcDbLine
 10
493.032098
 20
-34.023918
 30
0.0
 11
493.032098
 21
-39.611918
 31
0.0
  0
LINE
  5
366
100
AcDbEntity
  8
Unique_Pieces
 62
1
100
AcDbLine
 10
493.032098
 20
-39.611918
 30
0.0
 11
531.132098
 21
-39.611918
 31
0.0
  0
LINE
  5
367
100
AcDbEntity
  8
Unique_Pieces
 62
1
100
AcDbLine
 10
531.132098
 20
-39.611918
 30
0.0
 11
531.132098
 21
-34.023918
 31
0.0
  0
LINE
  5
368
100
AcDbEntity
  8
Unique_Pieces
 62
1
100
AcDbLine
 10
531.132098
 20
-34.023918
 30
0.0
 11
569.232097
 21
-34.023918
 31
0.0
  0
LINE
  5
369
100
AcDbEntity
  8
Unique_Pieces
 62
1
100
AcDbLine
 10
569.232097
 20
-34.023918
 30
0.0
 11
569.232097
 21
-39.611918
 31
0.0
  0
LINE
  5
36a
100
AcDbEntity
  8
Unique_Pieces
 62
1
100
AcDbLine
 10
569.232097
 20
-39.611918
 30
0.0
 11
607.332097
 21
-39.611918
 31
0.0
  0
LINE
  5
36b
100
AcDbEntity
  8
Unique_Pieces
 62
1
100
AcDbLine
 10
607.332097
 20
-39.611918
 30
0.0
 11
607.332097
 21
-34.023918
 31
0.0
  0
LINE
  5
36c
100
AcDbEntity
  8
Unique_Pieces
 62
1
100
AcDbLine
 10
607.332097
 20
-34.023918
 30
0.0
 11
645.432096
 21
-34.023918
 31
0.0
  0
LINE
  5
36d
100
AcDbEntity
  8
Unique_Pieces
 62
1
100
AcDbLine
 10
645.432096
 20
-34.023918
 30
0.0
 11
645.432096
 21
-1.511913
 31
0.0
  0
LINE
  5
36e
100
AcDbEntity
  8
Unique_Pieces
 62
1
100
AcDbLine
 10
645.432096
 20
-1.511913
 30
0.0
 11
639.844096
 21
-1.511913
 31
0.0
  0
LINE
  5
36f
100
AcDbEntity
  8
Unique_Pieces
 62
1
100
AcDbLine
 10
639.844096
 20
-1.511913
 30
0.0
 11
639.844096
 21
36.588086
 31
0.0
  0
LINE
  5
370
100
AcDbEntity
  8
Unique_Pieces
 62
1
100
AcDbLine
 10
639.844096
 20
36.588086
 30
0.0
 11
645.432096
 21
36.588086
 31
0.0
  0
LINE
  5
371
100
AcDbEntity
  8
Unique_Pieces
 62
1
100
AcDbLine
 10
645.432096
 20
36.588086
 30
0.0
 11
645.432096
 21
74.688086
 31
0.0
  0
LINE
  5
372
100
AcDbEntity
  8
Unique_Pieces
 62
1
100
AcDbLine
 10
645.432096
 20
74.688086
 30
0.0
 11
639.844096
 21
74.688086
 31
0.0
  0
LINE
  5
373
100
AcDbEntity
  8
Unique_Pieces
 62
1
100
AcDbLine
 10
639.844096
 20
74.688086
 30
0.0
 11
639.844096
 21
112.788085
 31
0.0
  0
LINE
  5
374
100
AcDbEntity
  8
Unique_Pieces
 62
1
100
AcDbLine
 10
639.844096
 20
112.788085
 30
0.0
 11
645.432096
 21
112.788085
 31
0.0
  0
LINE
  5
375
100
AcDbEntity
  8
Unique_Pieces
 62
1
100
AcDbLine
 10
645.432096
 20
112.788085
 30
0.0
 11
645.432096
 21
150.888085
 31
0.0
  0
LINE
  5
376
100
AcDbEntity
  8
Unique_Pieces
 62
1
100
AcDbLine
 10
645.432096
 20
150.888085
 30
0.0
 11
639.844096
 21
150.888085
 31
0.0
  0
LINE
  5
377
100
AcDbEntity
  8
Unique_Pieces
 62
1
100
AcDbLine
 10
639.844096
 20
150.888085
 30
0.0
 11
639.844096
 21
188.988084
 31
0.0
  0
LINE
  5
378
100
AcDbEntity
  8
Unique_Pieces
 62
1
100
AcDbLine
 10
639.844096
 20
188.988084
 30
0.0
 11
645.432096
 21
188.988084
 31
0.0
  0
LINE
  5
379
100
AcDbEntity
  8
Unique_Pieces
 62
1
100
AcDbLine
 10
645.432096
 20
188.988084
 30
0.0
 11
645.432096
 21
227.088084
 31
0.0
  0
LINE
  5
37a
100
AcDbEntity
  8
Unique_Pieces
 62
1
100
AcDbLine
 10
645.432096
 20
227.088084
 30
0.0
 11
639.844096
 21
227.088084
 31
0.0
  0
LINE
  5
37b
100
AcDbEntity
  8
Unique_Pieces
 62
1
100
AcDbLine
 10
639.844096
 20
227.088084
 30
0.0
 11
639.844096
 21
265.188082
 31
0.0
  0
LINE
  5
37c
100
AcDbEntity
  8
Unique_Pieces
 62
1
100
AcDbLine
 10
639.844096
 20
265.188082
 30
0.0
 11
607.332097
 21
265.188082
 31
0.0
  0
LINE
  5
37d
100
AcDbEntity
  8
Unique_Pieces
 62
1
100
AcDbLine
 10
607.332097
 20
265.188082
 30
0.0
 11
607.332097
 21
259.600082
 31
0.0
  0
LINE
  5
37e
100
AcDbEntity
  8
Unique_Pieces
 62
1
100
AcDbLine
 10
607.332097
 20
259.600082
 30
0.0
 11
569.232097
 21
259.600082
 31
0.0
  0
LINE
  5
37f
100
AcDbEntity
  8
Unique_Pieces
 62
1
100
AcDbLine
 10
569.232097
 20
259.600082
 30
0.0
 11
569.232097
 21
265.188082
 31
0.0
  0
LINE
  5
380
100
AcDbEntity
  8
Unique_Pieces
 62
1
100
AcDbLine
 10
569.232097
 20
265.188082
 30
0.0
 11
531.132098
 21
265.188082
 31
0.0
  0
LINE
  5
381
100
AcDbEntity
  8
Unique_Pieces
 62
1
100
AcDbLine
 10
531.132098
 20
265.188082
 30
0.0
 11
531.132098
 21
259.600082
 31
0.0
  0
LINE
  5
382
100
AcDbEntity
  8
Unique_Pieces
 62
1
100
AcDbLine
 10
531.132098
 20
259.600082
 30
0.0
 11
493.032098
 21
259.600082
 31
0.0
  0
LINE
  5
383
100
AcDbEntity
  8
Unique_Pieces
 62
1
100
AcDbLine
 10
493.032098
 20
259.600082
 30
0.0
 11
493.032098
 21
265.188082
 31
0.0
  0
LINE
  5
384
100
AcDbEntity
  8
Unique_Pieces
 62
1
100
AcDbLine
 10
493.032098
 20
265.188082
 30
0.0
 11
454.932099
 21
265.188082
 31
0.0
  0
LINE
  5
385
100
AcDbEntity
  8
Unique_Pieces
 62
1
100
AcDbLine
 10
454.932099
 20
265.188082
 30
0.0
 11
454.932099
 21
259.600082
 31
0.0
  0
LINE
  5
386
100
AcDbEntity
  8
Unique_Pieces
 62
1
100
AcDbLine
 10
454.932099
 20
259.600082
 30
0.0
 11
416.832099
 21
259.600082
 31
0.0
  0
LINE
  5
387
100
AcDbEntity
  8
Unique_Pieces
 62
1
100
AcDbLine
 10
416.832099
 20
259.600082
 30
0.0
 11
416.832099
 21
265.188082
 31
0.0
  0
LINE
  5
388
100
AcDbEntity
  8
Unique_Pieces
 62
1
100
AcDbLine
 10
416.832099
 20
265.188082
 30
0.0
 11
378.732100
 21
265.188082
 31
0.0
  0
LINE
  5
389
100
AcDbEntity
  8
Unique_Pieces
 62
1
100
AcDbLine
 10
378.732100
 20
265.188082
 30
0.0
 11
378.732100
 21
259.600082
 31
0.0
  0
LINE
  5
38a
100
AcDbEntity
  8
Unique_Pieces
 62
1
100
AcDbLine
 10
378.732100
 20
259.600082
 30
0.0
 11
340.632100
 21
259.600082
 31
0.0
  0
LINE
  5
38b
100
AcDbEntity
  8
Unique_Pieces
 62
1
100
AcDbLine
 10
340.632100
 20
259.600082
 30
0.0
 11
340.632100
 21
227.088084
 31
0.0
  0
LINE
  5
38c
100
AcDbEntity
  8
Unique_Pieces
 62
1
100
AcDbLine
 10
340.632100
 20
227.088084
 30
0.0
 11
346.220100
 21
227.088084
 31
0.0
  0
LINE
  5
38d
100
AcDbEntity
  8
Unique_Pieces
 62
1
100
AcDbLine
 10
346.220100
 20
227.088084
 30
0.0
 11
346.220100
 21
188.988084
 31
0.0
  0
LINE
  5
38e
100
AcDbEntity
  8
Unique_Pieces
 62
1
100
AcDbLine
 10
346.220100
 20
188.988084
 30
0.0
 11
340.632100
 21
188.988084
 31
0.0
  0
LINE
  5
38f
100
AcDbEntity
  8
Unique_Pieces
 62
1
100
AcDbLine
 10
340.632100
 20
188.988084
 30
0.0
 11
340.632100
 21
150.888085
 31
0.0
  0
LINE
  5
390
100
AcDbEntity
  8
Unique_Pieces
 62
1
100
AcDbLine
 10
340.632100
 20
150.888085
 30
0.0
 11
346.220100
 21
150.888085
 31
0.0
  0
LINE
  5
391
100
AcDbEntity
  8
Unique_Pieces
 62
1
100
AcDbLine
 10
346.220100
 20
150.888085
 30
0.0
 11
346.220100
 21
112.788085
 31
0.0
  0
LINE
  5
392
100
AcDbEntity
  8
Unique_Pieces
 62
1
100
AcDbLine
 10
346.220100
 20
112.788085
 30
0.0
 11
340.632100
 21
112.788085
 31
0.0
  0
LINE
  5
393
100
AcDbEntity
  8
Unique_Pieces
 62
1
100
AcDbLine
 10
340.632100
 20
112.788085
 30
0.0
 11
340.632100
 21
74.688086
 31
0.0
  0
LINE
  5
394
100
AcDbEntity
  8
Unique_Pieces
 62
1
100
AcDbLine
 10
340.632100
 20
74.688086
 30
0.0
 11
346.220100
 21
74.688086
 31
0.0
  0
LINE
  5
395
100
AcDbEntity
  8
Unique_Pieces
 62
1
100
AcDbLine
 10
346.220100
 20
74.688086
 30
0.0
 11
346.220100
 21
36.588086
 31
0.0
  0
LINE
  5
396
100
AcDbEntity
  8
Unique_Pieces
 62
1
100
AcDbLine
 10
346.220100
 20
36.588086
 30
0.0
 11
340.632100
 21
36.588086
 31
0.0
  0
LINE
  5
397
100
AcDbEntity
  8
Unique_Pieces
 62
1
100
AcDbLine
 10
340.632100
 20
36.588086
 30
0.0
 11
340.632100
 21
-1.511913
 31
0.0
  0
LINE
  5
398
100
AcDbEntity
  8
Unique_Pieces
 62
1
100
AcDbLine
 10
950.232100
 20
118.376080
 30
0.0
 11
950.232100
 21
150.888080
 31
0.0
  0
LINE
  5
399
100
AcDbEntity
  8
Unique_Pieces
 62
1
100
AcDbLine
 10
950.232100
 20
150.888080
 30
0.0
 11
944.644100
 21
150.888080
 31
0.0
  0
LINE
  5
39a
100
AcDbEntity
  8
Unique_Pieces
 62
1
100
AcDbLine
 10
944.644100
 20
150.888080
 30
0.0
 11
944.644100
 21
188.988079
 31
0.0
  0
LINE
  5
39b
100
AcDbEntity
  8
Unique_Pieces
 62
1
100
AcDbLine
 10
944.644100
 20
188.988079
 30
0.0
 11
950.232100
 21
188.988079
 31
0.0
  0
LINE
  5
39c
100
AcDbEntity
  8
Unique_Pieces
 62
1
100
AcDbLine
 10
950.232100
 20
188.988079
 30
0.0
 11
950.232100
 21
227.088079
 31
0.0
  0
LINE
  5
39d
100
AcDbEntity
  8
Unique_Pieces
 62
1
100
AcDbLine
 10
950.232100
 20
227.088079
 30
0.0
 11
944.644100
 21
227.088079
 31
0.0
  0
LINE
  5
39e
100
AcDbEntity
  8
Unique_Pieces
 62
1
100
AcDbLine
 10
944.644100
 20
227.088079
 30
0.0
 11
944.644100
 21
265.188078
 31
0.0
  0
LINE
  5
39f
100
AcDbEntity
  8
Unique_Pieces
 62
1
100
AcDbLine
 10
944.644100
 20
265.188078
 30
0.0
 11
906.544095
 21
265.188078
 31
0.0
  0
LINE
  5
3a0
100
AcDbEntity
  8
Unique_Pieces
 62
1
100
AcDbLine
 10
906.544095
 20
265.188078
 30
0.0
 11
906.544095
 21
259.600078
 31
0.0
  0
LINE
  5
3a1
100
AcDbEntity
  8
Unique_Pieces
 62
1
100
AcDbLine
 10
906.544095
 20
259.600078
 30
0.0
 11
868.444096
 21
259.600078
 31
0.0
  0
LINE
  5
3a2
100
AcDbEntity
  8
Unique_Pieces
 62
1
100
AcDbLine
 10
868.444096
 20
259.600078
 30
0.0
 11
868.444096
 21
265.188078
 31
0.0
  0
LINE
  5
3a3
100
AcDbEntity
  8
Unique_Pieces
 62
1
100
AcDbLine
 10
868.444096
 20
265.188078
 30
0.0
 11
830.344096
 21
265.188078
 31
0.0
  0
LINE
  5
3a4
100
AcDbEntity
  8
Unique_Pieces
 62
1
100
AcDbLine
 10
830.344096
 20
265.188078
 30
0.0
 11
830.344096
 21
259.600078
 31
0.0
  0
LINE
  5
3a5
100
AcDbEntity
  8
Unique_Pieces
 62
1
100
AcDbLine
 10
830.344096
 20
259.600078
 30
0.0
 11
792.244097
 21
259.600078
 31
0.0
  0
LINE
  5
3a6
100
AcDbEntity
  8
Unique_Pieces
 62
1
100
AcDbLine
 10
792.244097
 20
259.600078
 30
0.0
 11
792.244097
 21
265.188078
 31
0.0
  0
LINE
  5
3a7
100
AcDbEntity
  8
Unique_Pieces
 62
1
100
AcDbLine
 10
792.244097
 20
265.188078
 30
0.0
 11
797.832097
 21
265.188078
 31
0.0
  0
LINE
  5
3a8
100
AcDbEntity
  8
Unique_Pieces
 62
1
100
AcDbLine
 10
797.832097
 20
265.188078
 30
0.0
 11
797.832097
 21
303.288078
 31
0.0
  0
LINE
  5
3a9
100
AcDbEntity
  8
Unique_Pieces
 62
1
100
AcDbLine
 10
797.832097
 20
303.288078
 30
0.0
 11
792.244097
 21
303.288078
 31
0.0
  0
LINE
  5
3aa
100
AcDbEntity
  8
Unique_Pieces
 62
1
100
AcDbLine
 10
792.244097
 20
303.288078
 30
0.0
 11
792.244097
 21
341.388077
 31
0.0
  0
LINE
  5
3ab
100
AcDbEntity
  8
Unique_Pieces
 62
1
100
AcDbLine
 10
792.244097
 20
341.388077
 30
0.0
 11
797.832097
 21
341.388077
 31
0.0
  0
LINE
  5
3ac
100
AcDbEntity
  8
Unique_Pieces
 62
1
100
AcDbLine
 10
797.832097
 20
341.388077
 30
0.0
 11
797.832097
 21
379.488077
 31
0.0
  0
LINE
  5
3ad
100
AcDbEntity
  8
Unique_Pieces
 62
1
100
AcDbLine
 10
797.832097
 20
379.488077
 30
0.0
 11
792.244097
 21
379.488077
 31
0.0
  0
LINE
  5
3ae
100
AcDbEntity
  8
Unique_Pieces
 62
1
100
AcDbLine
 10
792.244097
 20
379.488077
 30
0.0
 11
792.244097
 21
417.588076
 31
0.0
  0
LINE
  5
3af
100
AcDbEntity
  8
Unique_Pieces
 62
1
100
AcDbLine
 10
792.244097
 20
417.588076
 30
0.0
 11
759.732097
 21
417.588076
 31
0.0
  0
LINE
  5
3b0
100
AcDbEntity
  8
Unique_Pieces
 62
1
100
AcDbLine
 10
759.732097
 20
417.588076
 30
0.0
 11
759.732097
 21
412.000076
 31
0.0
  0
LINE
  5
3b1
100
AcDbEntity
  8
Unique_Pieces
 62
1
100
AcDbLine
 10
759.732097
 20
412.000076
 30
0.0
 11
721.632098
 21
412.000076
 31
0.0
  0
LINE
  5
3b2
100
AcDbEntity
  8
Unique_Pieces
 62
1
100
AcDbLine
 10
721.632098
 20
412.000076
 30
0.0
 11
721.632098
 21
417.588076
 31
0.0
  0
LINE
  5
3b3
100
AcDbEntity
  8
Unique_Pieces
 62
1
100
AcDbLine
 10
721.632098
 20
417.588076
 30
0.0
 11
683.532098
 21
417.588076
 31
0.0
  0
LINE
  5
3b4
100
AcDbEntity
  8
Unique_Pieces
 62
1
100
AcDbLine
 10
683.532098
 20
417.588076
 30
0.0
 11
683.532098
 21
412.000076
 31
0.0
  0
LINE
  5
3b5
100
AcDbEntity
  8
Unique_Pieces
 62
1
100
AcDbLine
 10
683.532098
 20
412.000076
 30
0.0
 11
645.432100
 21
412.000076
 31
0.0
  0
LINE
  5
3b6
100
AcDbEntity
  8
Unique_Pieces
 62
1
100
AcDbLine
 10
645.432100
 20
412.000076
 30
0.0
 11
645.432100
 21
379.488077
 31
0.0
  0
LINE
  5
3b7
100
AcDbEntity
  8
Unique_Pieces
 62
1
100
AcDbLine
 10
645.432100
 20
379.488077
 30
0.0
 11
651.020100
 21
379.488077
 31
0.0
  0
LINE
  5
3b8
100
AcDbEntity
  8
Unique_Pieces
 62
1
100
AcDbLine
 10
651.020100
 20
379.488077
 30
0.0
 11
651.020100
 21
341.388077
 31
0.0
  0
LINE
  5
3b9
100
AcDbEntity
  8
Unique_Pieces
 62
1
100
AcDbLine
 10
651.020100
 20
341.388077
 30
0.0
 11
645.432100
 21
341.388077
 31
0.0
  0
LINE
  5
3ba
100
AcDbEntity
  8
Unique_Pieces
 62
1
100
AcDbLine
 10
645.432100
 20
341.388077
 30
0.0
 11
645.432100
 21
303.288078
 31
0.0
  0
LINE
  5
3bb
100
AcDbEntity
  8
Unique_Pieces
 62
1
100
AcDbLine
 10
645.432100
 20
303.288078
 30
0.0
 11
651.020100
 21
303.288078
 31
0.0
  0
LINE
  5
3bc
100
AcDbEntity
  8
Unique_Pieces
 62
1
100
AcDbLine
 10
651.020100
 20
303.288078
 30
0.0
 11
651.020100
 21
265.188078
 31
0.0
  0
LINE
  5
3bd
100
AcDbEntity
  8
Unique_Pieces
 62
1
100
AcDbLine
 10
651.020100
 20
265.188078
 30
0.0
 11
645.432100
 21
265.188078
 31
0.0
  0
LINE
  5
3be
100
AcDbEntity
  8
Unique_Pieces
 62
1
100
AcDbLine
 10
645.432100
 20
265.188078
 30
0.0
 11
645.432100
 21
227.088079
 31
0.0
  0
LINE
  5
3bf
100
AcDbEntity
  8
Unique_Pieces
 62
1
100
AcDbLine
 10
645.432100
 20
227.088079
 30
0.0
 11
651.020100
 21
227.088079
 31
0.0
  0
LINE
  5
3c0
100
AcDbEntity
  8
Unique_Pieces
 62
1
100
AcDbLine
 10
651.020100
 20
227.088079
 30
0.0
 11
651.020100
 21
188.988079
 31
0.0
  0
LINE
  5
3c1
100
AcDbEntity
  8
Unique_Pieces
 62
1
100
AcDbLine
 10
651.020100
 20
188.988079
 30
0.0
 11
645.432100
 21
188.988079
 31
0.0
  0
LINE
  5
3c2
100
AcDbEntity
  8
Unique_Pieces
 62
1
100
AcDbLine
 10
645.432100
 20
188.988079
 30
0.0
 11
645.432100
 21
150.888080
 31
0.0
  0
LINE
  5
3c3
100
AcDbEntity
  8
Unique_Pieces
 62
1
100
AcDbLine
 10
645.432100
 20
150.888080
 30
0.0
 11
651.020100
 21
150.888080
 31
0.0
  0
LINE
  5
3c4
100
AcDbEntity
  8
Unique_Pieces
 62
1
100
AcDbLine
 10
651.020100
 20
150.888080
 30
0.0
 11
651.020100
 21
112.788080
 31
0.0
  0
LINE
  5
3c5
100
AcDbEntity
  8
Unique_Pieces
 62
1
100
AcDbLine
 10
651.020100
 20
112.788080
 30
0.0
 11
645.432100
 21
112.788080
 31
0.0
  0
LINE
  5
3c6
100
AcDbEntity
  8
Unique_Pieces
 62
1
100
AcDbLine
 10
645.432100
 20
112.788080
 30
0.0
 11
645.432100
 21
74.688080
 31
0.0
  0
LINE
  5
3c7
100
AcDbEntity
  8
Unique_Pieces
 62
1
100
AcDbLine
 10
645.432100
 20
74.688080
 30
0.0
 11
651.020100
 21
74.688080
 31
0.0
  0
LINE
  5
3c8
100
AcDbEntity
  8
Unique_Pieces
 62
1
100
AcDbLine
 10
651.020100
 20
74.688080
 30
0.0
 11
651.020100
 21
36.588081
 31
0.0
  0
LINE
  5
3c9
100
AcDbEntity
  8
Unique_Pieces
 62
1
100
AcDbLine
 10
651.020100
 20
36.588081
 30
0.0
 11
645.432100
 21
36.588081
 31
0.0
  0
LINE
  5
3ca
100
AcDbEntity
  8
Unique_Pieces
 62
1
100
AcDbLine
 10
645.432100
 20
36.588081
 30
0.0
 11
645.432100
 21
-1.511919
 31
0.0
  0
LINE
  5
3cb
100
AcDbEntity
  8
Unique_Pieces
 62
1
100
AcDbLine
 10
645.432100
 20
-1.511919
 30
0.0
 11
651.020100
 21
-1.511919
 31
0.0
  0
LINE
  5
3cc
100
AcDbEntity
  8
Unique_Pieces
 62
1
100
AcDbLine
 10
651.020100
 20
-1.511919
 30
0.0
 11
651.020100
 21
-39.611918
 31
0.0
  0
LINE
  5
3cd
100
AcDbEntity
  8
Unique_Pieces
 62
1
100
AcDbLine
 10
651.020100
 20
-39.611918
 30
0.0
 11
683.532098
 21
-39.611918
 31
0.0
  0
LINE
  5
3ce
100
AcDbEntity
  8
Unique_Pieces
 62
1
100
AcDbLine
 10
683.532098
 20
-39.611918
 30
0.0
 11
683.532098
 21
-34.023918
 31
0.0
  0
LINE
  5
3cf
100
AcDbEntity
  8
Unique_Pieces
 62
1
100
AcDbLine
 10
683.532098
 20
-34.023918
 30
0.0
 11
721.632098
 21
-34.023918
 31
0.0
  0
LINE
  5
3d0
100
AcDbEntity
  8
Unique_Pieces
 62
1
100
AcDbLine
 10
721.632098
 20
-34.023918
 30
0.0
 11
721.632098
 21
-39.611918
 31
0.0
  0
LINE
  5
3d1
100
AcDbEntity
  8
Unique_Pieces
 62
1
100
AcDbLine
 10
721.632098
 20
-39.611918
 30
0.0
 11
759.732097
 21
-39.611918
 31
0.0
  0
LINE
  5
3d2
100
AcDbEntity
  8
Unique_Pieces
 62
1
100
AcDbLine
 10
759.732097
 20
-39.611918
 30
0.0
 11
759.732097
 21
-34.023918
 31
0.0
  0
LINE
  5
3d3
100
AcDbEntity
  8
Unique_Pieces
 62
1
100
AcDbLine
 10
759.732097
 20
-34.023918
 30
0.0
 11
797.832097
 21
-34.023918
 31
0.0
  0
LINE
  5
3d4
100
AcDbEntity
  8
Unique_Pieces
 62
1
100
AcDbLine
 10
797.832097
 20
-34.023918
 30
0.0
 11
797.832097
 21
4.076081
 31
0.0
  0
LINE
  5
3d5
100
AcDbEntity
  8
Unique_Pieces
 62
1
100
AcDbLine
 10
797.832097
 20
4.076081
 30
0.0
 11
792.244097
 21
4.076081
 31
0.0
  0
LINE
  5
3d6
100
AcDbEntity
  8
Unique_Pieces
 62
1
100
AcDbLine
 10
792.244097
 20
4.076081
 30
0.0
 11
792.244097
 21
42.176081
 31
0.0
  0
LINE
  5
3d7
100
AcDbEntity
  8
Unique_Pieces
 62
1
100
AcDbLine
 10
792.244097
 20
42.176081
 30
0.0
 11
797.832097
 21
42.176081
 31
0.0
  0
LINE
  5
3d8
100
AcDbEntity
  8
Unique_Pieces
 62
1
100
AcDbLine
 10
797.832097
 20
42.176081
 30
0.0
 11
797.832097
 21
80.276080
 31
0.0
  0
LINE
  5
3d9
100
AcDbEntity
  8
Unique_Pieces
 62
1
100
AcDbLine
 10
797.832097
 20
80.276080
 30
0.0
 11
792.244097
 21
80.276080
 31
0.0
  0
LINE
  5
3da
100
AcDbEntity
  8
Unique_Pieces
 62
1
100
AcDbLine
 10
792.244097
 20
80.276080
 30
0.0
 11
792.244097
 21
118.376080
 31
0.0
  0
LINE
  5
3db
100
AcDbEntity
  8
Unique_Pieces
 62
1
100
AcDbLine
 10
792.244097
 20
118.376080
 30
0.0
 11
797.832097
 21
118.376080
 31
0.0
  0
LINE
  5
3dc
100
AcDbEntity
  8
Unique_Pieces
 62
1
100
AcDbLine
 10
797.832097
 20
118.376080
 30
0.0
 11
797.832097
 21
112.788080
 31
0.0
  0
LINE
  5
3dd
100
AcDbEntity
  8
Unique_Pieces
 62
1
100
AcDbLine
 10
797.832097
 20
112.788080
 30
0.0
 11
835.932096
 21
112.788080
 31
0.0
  0
LINE
  5
3de
100
AcDbEntity
  8
Unique_Pieces
 62
1
100
AcDbLine
 10
835.932096
 20
112.788080
 30
0.0
 11
835.932096
 21
118.376080
 31
0.0
  0
LINE
  5
3df
100
AcDbEntity
  8
Unique_Pieces
 62
1
100
AcDbLine
 10
835.932096
 20
118.376080
 30
0.0
 11
874.032096
 21
118.376080
 31
0.0
  0
LINE
  5
3e0
100
AcDbEntity
  8
Unique_Pieces
 62
1
100
AcDbLine
 10
874.032096
 20
118.376080
 30
0.0
 11
874.032096
 21
112.788080
 31
0.0
  0
LINE
  5
3e1
100
AcDbEntity
  8
Unique_Pieces
 62
1
100
AcDbLine
 10
874.032096
 20
112.788080
 30
0.0
 11
912.132095
 21
112.788080
 31
0.0
  0
LINE
  5
3e2
100
AcDbEntity
  8
Unique_Pieces
 62
1
100
AcDbLine
 10
912.132095
 20
112.788080
 30
0.0
 11
912.132095
 21
118.376080
 31
0.0
  0
LINE
  5
3e3
100
AcDbEntity
  8
Unique_Pieces
 62
1
100
AcDbLine
 10
912.132095
 20
118.376080
 30
0.0
 11
950.232100
 21
118.376080
 31
0.0
  0
ENDSEC
  0
SECTION
  2
OBJECTS
  0
DICTIONARY
  5
C
330
0
100
AcDbDictionary
  3
ACAD_GROUP
350
D
  3
ACAD_MLINESTYLE
350
17
  0
DICTIONARY
  5
D
330
C
100
AcDbDictionary
  0
DICTIONARY
  5
1A
330
C
100
AcDbDictionary
  0
DICTIONARY
  5
17
330
C
100
AcDbDictionary
  3
STANDARD
350
18
  0
DICTIONARY
  5
19
330
C
100
AcDbDictionary
  0
ENDSEC
  0
EOF
