0
SECTION
2
HEADER
9
$INSUNITS
70
4
9
$ACADVER
1
AC1014
9
$HANDSEED
5
FFFF
0
ENDSEC
0
SECTION
2
TABLES
0
TABLE
2
VPORT
5
8
100
AcDbSymbolTable
0
ENDTAB
0
TABLE
2
LTYPE
5
5
100
AcDbSymbolTable
0
LTYPE
5
14
100
AcDbSymbolTableRecord
100
AcDbLinetypeTableRecord
2
BYBLOCK
70
0
0
LTYPE
5
15
100
AcDbSymbolTableRecord
100
AcDbLinetypeTableRecord
2
BYLAYER
70
0
0
ENDTAB
0
TABLE
2
LAYER
5
2
100
AcDbSymbolTable
70
2
0
LAYER
5
50
100
AcDbSymbolTableRecord
100
AcDbLayerTableRecord
2
0
70
0
6
CONTINUOUS
0
ENDTAB
0
TABLE
2
STYLE
5
3
100
AcDbSymbolTable
70
1
0
STYLE
5
11
100
AcDbSymbolTableRecord
100
AcDbTextStyleTableRecord
2
STANDARD
70
0
0
ENDTAB
0
TABLE
2
VIEW
5
6
100
AcDbSymbolTable
70
0
0
ENDTAB
0
TABLE
2
UCS
5
7
100
AcDbSymbolTable
70
0
0
ENDTAB
0
TABLE
2
APPID
5
9
100
AcDbSymbolTable
70
2
0
APPID
5
12
100
AcDbSymbolTableRecord
100
AcDbRegAppTableRecord
2
ACAD
70
0
0
ENDTAB
0
TABLE
2
DIMSTYLE
5
A
100
AcDbSymbolTable
70
1
0
ENDTAB
0
TABLE
2
BLOCK_RECORD
5
1
100
AcDbSymbolTable
70
1
0
BLOCK_RECORD
5
1F
100
AcDbSymbolTableRecord
100
AcDbBlockTableRecord
2
*MODEL_SPACE
0
BLOCK_RECORD
5
1B
100
AcDbSymbolTableRecord
100
AcDbBlockTableRecord
2
*PAPER_SPACE
0
ENDTAB
0
ENDSEC
0
SECTION
2
BLOCKS
0
BLOCK
5
20
100
AcDbEntity
100
AcDbBlockBegin
2
*MODEL_SPACE
0
ENDBLK
5
21
100
AcDbEntity
100
AcDbBlockEnd
0
BLOCK
5
1C
100
AcDbEntity
100
AcDbBlockBegin
2
*PAPER_SPACE
0
ENDBLK
5
1D
100
AcDbEntity
100
AcDbBlockEnd
0
ENDSEC
0
SECTION
2
ENTITIES
0
LWPOLYLINE
5
100
100
AcDbEntity
8
0
100
AcDbPolyline
90
4
70
1
43
0.0
10
249.20293667300729
20
69
10
249.20293667300729
20
129
10
250.20293667300731
20
129
10
250.20293667300731
20
69
0
LWPOLYLINE
5
101
100
AcDbEntity
8
0
100
AcDbPolyline
90
4
70
1
43
0.0
10
134.07556283684141
20
129
10
134.07556283684141
20
69
10
133.07556283684141
20
69
10
133.07556283684141
20
129
0
LWPOLYLINE
5
102
100
AcDbEntity
8
0
100
AcDbPolyline
90
4
70
1
43
0.0
10
192.19282659384007
20
69
10
191.19282659383998
20
69
10
191.19282659383998
20
129
10
192.19282659384007
20
129
0
LINE
5
103
100
AcDbEntity
8
0
100
AcDbLine
10
423.69282659384004
20
100.22089087678086
30
0
11
423.69282659384004
21
69.000000000000028
31
0
0
LWPOLYLINE
5
104
100
AcDbEntity
8
0
100
AcDbPolyline
90
4
70
1
43
0.0
10
307.1928265938401
20
129
10
308.19282659384004
20
129
10
308.19282659384004
20
69.000000000000028
10
307.1928265938401
20
69.000000000000028
0
LWPOLYLINE
5
105
100
AcDbEntity
8
0
100
AcDbPolyline
90
4
70
1
43
0.0
10
75.19282659384001
20
129
10
76.192826593839982
20
129
10
76.192826593839982
20
69
10
75.19282659384001
20
69
0
LINE
5
106
100
AcDbEntity
8
0
100
AcDbLine
10
17.692826593839971
20
9
30
0
11
423.69282659383998
21
9.0000000000000391
31
0
0
LINE
5
107
100
AcDbEntity
8
0
100
AcDbLine
10
423.69282659384004
20
129
30
0
11
423.69282659383998
21
9.0000000000000391
31
0
0
LWPOLYLINE
5
108
100
AcDbEntity
8
0
100
AcDbPolyline
90
4
70
1
43
0.0
10
365.19282659384004
20
129.08125794129023
10
366.19282659384004
20
129.08125794129023
10
366.19282659384004
20
69
10
365.19282659384004
20
69
0
LINE
5
109
100
AcDbEntity
8
0
100
AcDbLine
10
423.69282659384004
20
129
30
0
11
17.692826593839968
21
129
31
0
0
LINE
5
110
100
AcDbEntity
8
0
100
AcDbLine
10
17.692826593839968
20
129
30
0
11
17.692826593839971
21
9
31
0
0
LINE
5
111
100
AcDbEntity
8
0
100
AcDbLine
10
423.69282659384004
20
100.22089087678086
30
0
11
423.69282659384004
21
129
31
0
0
LINE
5
112
100
AcDbEntity
8
0
100
AcDbLine
10
423.69282659383998
20
9.0000000000000391
30
0
11
423.69282659384004
21
129
31
0
0
LWPOLYLINE
5
113
100
AcDbEntity
8
0
100
AcDbPolyline
90
4
70
1
43
0.0
10
692.1928265938401
20
129
10
692.1928265938401
20
69
10
691.19282659383998
20
69
10
691.19282659383998
20
129
0
LWPOLYLINE
5
114
100
AcDbEntity
8
0
100
AcDbPolyline
90
4
70
1
43
0.0
10
634.07556283684141
20
129
10
634.07556283684141
20
69
10
633.07556283684141
20
69
10
633.07556283684141
20
129
0
LINE
5
115
100
AcDbEntity
8
0
100
AcDbLine
10
517.69282659383998
20
129
30
0
11
517.69282659383998
21
9
31
0
0
LWPOLYLINE
5
116
100
AcDbEntity
8
0
100
AcDbPolyline
90
4
70
1
43
0.0
10
576.19282659383998
20
129
10
576.19282659383998
20
69
10
575.19282659383998
20
69
10
575.19282659383998
20
129
0
LWPOLYLINE
5
117
100
AcDbEntity
8
0
100
AcDbPolyline
90
4
70
1
43
0.0
10
865.19282659383998
20
69
10
865.19282659383998
20
129.08125794129023
10
866.19282659383998
20
129.08125794129023
10
866.19282659383998
20
69
0
LWPOLYLINE
5
118
100
AcDbEntity
8
0
100
AcDbPolyline
90
4
70
1
43
0.0
10
750.20293667300734
20
69
10
749.20293667300723
20
69
10
749.20293667300723
20
129
10
750.20293667300734
20
129
0
LINE
5
119
100
AcDbEntity
8
0
100
AcDbLine
10
923.69282659383998
20
129
30
0
11
923.69282659383998
21
9.0000000000000391
31
0
0
LINE
5
120
100
AcDbEntity
8
0
100
AcDbLine
10
923.69282659383998
20
9.0000000000000391
30
0
11
923.69282659383998
21
129
31
0
0
LINE
5
121
100
AcDbEntity
8
0
100
AcDbLine
10
923.69282659383998
20
129
30
0
11
517.69282659383998
21
129
31
0
0
LWPOLYLINE
5
122
100
AcDbEntity
8
0
100
AcDbPolyline
90
4
70
1
43
0.0
10
808.19282659383998
20
69.000000000000028
10
807.1928265938401
20
69.000000000000028
10
807.1928265938401
20
129
10
808.19282659383998
20
129
0
LINE
5
123
100
AcDbEntity
8
0
100
AcDbLine
10
923.69282659383998
20
100.22089087678086
30
0
11
923.69282659383998
21
129
31
0
0
LINE
5
124
100
AcDbEntity
8
0
100
AcDbLine
10
517.69282659383998
20
9
30
0
11
923.69282659383998
21
9.0000000000000391
31
0
0
LINE
5
125
100
AcDbEntity
8
0
100
AcDbLine
10
923.69282659383998
20
100.22089087678086
30
0
11
923.69282659383998
21
69.000000000000028
31
0
0
LWPOLYLINE
5
126
100
AcDbEntity
8
0
100
AcDbPolyline
90
4
70
1
43
0.0
10
1192.19282659384
20
129
10
1192.19282659384
20
69
10
1191.19282659384
20
69
10
1191.19282659384
20
129
0
LWPOLYLINE
5
127
100
AcDbEntity
8
0
100
AcDbPolyline
90
4
70
1
43
0.0
10
1134.0755628368415
20
129
10
1134.0755628368415
20
69
10
1133.0755628368413
20
69
10
1133.0755628368413
20
129
0
LINE
5
128
100
AcDbEntity
8
0
100
AcDbLine
10
1017.69282659384
20
129
30
0
11
1017.69282659384
21
9
31
0
0
LWPOLYLINE
5
129
100
AcDbEntity
8
0
100
AcDbPolyline
90
4
70
1
43
0.0
10
1076.19282659384
20
129
10
1076.19282659384
20
69
10
1075.19282659384
20
69
10
1075.19282659384
20
129
0
LWPOLYLINE
5
130
100
AcDbEntity
8
0
100
AcDbPolyline
90
4
70
1
43
0.0
10
1365.19282659384
20
69
10
1365.19282659384
20
129.08125794129023
10
1366.19282659384
20
129.08125794129023
10
1366.19282659384
20
69
0
LWPOLYLINE
5
131
100
AcDbEntity
8
0
100
AcDbPolyline
90
4
70
1
43
0.0
10
1250.2029366730073
20
69
10
1249.2029366730073
20
69
10
1249.2029366730073
20
129
10
1250.2029366730073
20
129
0
LINE
5
132
100
AcDbEntity
8
0
100
AcDbLine
10
1423.69282659384
20
129
30
0
11
1423.69282659384
21
9.0000000000000391
31
0
0
LINE
5
133
100
AcDbEntity
8
0
100
AcDbLine
10
1423.69282659384
20
9.0000000000000391
30
0
11
1423.69282659384
21
129
31
0
0
LINE
5
134
100
AcDbEntity
8
0
100
AcDbLine
10
1423.69282659384
20
129
30
0
11
1017.69282659384
21
129
31
0
0
LWPOLYLINE
5
135
100
AcDbEntity
8
0
100
AcDbPolyline
90
4
70
1
43
0.0
10
1308.1928265938402
20
69.000000000000028
10
1307.1928265938402
20
69.000000000000028
10
1307.1928265938402
20
129
10
1308.1928265938402
20
129
0
LINE
5
136
100
AcDbEntity
8
0
100
AcDbLine
10
1423.69282659384
20
100.22089087678086
30
0
11
1423.69282659384
21
129
31
0
0
LINE
5
137
100
AcDbEntity
8
0
100
AcDbLine
10
1017.69282659384
20
9
30
0
11
1423.69282659384
21
9.0000000000000391
31
0
0
LINE
5
138
100
AcDbEntity
8
0
100
AcDbLine
10
1423.69282659384
20
100.22089087678086
30
0
11
1423.69282659384
21
69.000000000000028
31
0
0
LWPOLYLINE
5
139
100
AcDbEntity
8
0
100
AcDbPolyline
90
4
70
1
43
0.0
10
1692.1928265938402
20
129
10
1692.1928265938402
20
69
10
1691.19282659384
20
69
10
1691.19282659384
20
129
0
LWPOLYLINE
5
140
100
AcDbEntity
8
0
100
AcDbPolyline
90
4
70
1
43
0.0
10
1634.0755628368413
20
129
10
1634.0755628368413
20
69
10
1633.0755628368413
20
69
10
1633.0755628368413
20
129
0
LINE
5
141
100
AcDbEntity
8
0
100
AcDbLine
10
1517.69282659384
20
129
30
0
11
1517.69282659384
21
9
31
0
0
LWPOLYLINE
5
142
100
AcDbEntity
8
0
100
AcDbPolyline
90
4
70
1
43
0.0
10
1576.19282659384
20
129
10
1576.19282659384
20
69
10
1575.19282659384
20
69
10
1575.19282659384
20
129
0
LWPOLYLINE
5
143
100
AcDbEntity
8
0
100
AcDbPolyline
90
4
70
1
43
0.0
10
1865.19282659384
20
69
10
1865.19282659384
20
129.08125794129023
10
1866.19282659384
20
129.08125794129023
10
1866.19282659384
20
69
0
LWPOLYLINE
5
144
100
AcDbEntity
8
0
100
AcDbPolyline
90
4
70
1
43
0.0
10
1750.2029366730073
20
69
10
1749.2029366730073
20
69
10
1749.2029366730073
20
129
10
1750.2029366730073
20
129
0
LINE
5
145
100
AcDbEntity
8
0
100
AcDbLine
10
1923.69282659384
20
129
30
0
11
1923.69282659384
21
9.0000000000000391
31
0
0
LINE
5
146
100
AcDbEntity
8
0
100
AcDbLine
10
1923.69282659384
20
9.0000000000000391
30
0
11
1923.69282659384
21
129
31
0
0
LINE
5
147
100
AcDbEntity
8
0
100
AcDbLine
10
1923.69282659384
20
129
30
0
11
1517.69282659384
21
129
31
0
0
LWPOLYLINE
5
148
100
AcDbEntity
8
0
100
AcDbPolyline
90
4
70
1
43
0.0
10
1808.1928265938402
20
69.000000000000028
10
1807.1928265938402
20
69.000000000000028
10
1807.1928265938402
20
129
10
1808.1928265938402
20
129
0
LINE
5
149
100
AcDbEntity
8
0
100
AcDbLine
10
1923.69282659384
20
100.22089087678086
30
0
11
1923.69282659384
21
129
31
0
0
LINE
5
150
100
AcDbEntity
8
0
100
AcDbLine
10
1517.69282659384
20
9
30
0
11
1923.69282659384
21
9.0000000000000391
31
0
0
LINE
5
151
100
AcDbEntity
8
0
100
AcDbLine
10
1923.69282659384
20
100.22089087678086
30
0
11
1923.69282659384
21
69.000000000000028
31
0
0
LWPOLYLINE
5
152
100
AcDbEntity
8
0
100
AcDbPolyline
90
4
70
1
43
0.0
10
2192.1928265938404
20
129
10
2192.1928265938404
20
69
10
2191.19282659384
20
69
10
2191.19282659384
20
129
0
LWPOLYLINE
5
153
100
AcDbEntity
8
0
100
AcDbPolyline
90
4
70
1
43
0.0
10
2134.0755628368415
20
129
10
2134.0755628368415
20
69
10
2133.0755628368415
20
69
10
2133.0755628368415
20
129
0
LINE
5
154
100
AcDbEntity
8
0
100
AcDbLine
10
2017.69282659384
20
129
30
0
11
2017.69282659384
21
9
31
0
0
LWPOLYLINE
5
155
100
AcDbEntity
8
0
100
AcDbPolyline
90
4
70
1
43
0.0
10
2076.19282659384
20
129
10
2076.19282659384
20
69
10
2075.19282659384
20
69
10
2075.19282659384
20
129
0
LWPOLYLINE
5
156
100
AcDbEntity
8
0
100
AcDbPolyline
90
4
70
1
43
0.0
10
2365.19282659384
20
69
10
2365.19282659384
20
129.08125794129023
10
2366.19282659384
20
129.08125794129023
10
2366.19282659384
20
69
0
LWPOLYLINE
5
157
100
AcDbEntity
8
0
100
AcDbPolyline
90
4
70
1
43
0.0
10
2250.2029366730076
20
69
10
2249.2029366730076
20
69
10
2249.2029366730076
20
129
10
2250.2029366730076
20
129
0
LINE
5
158
100
AcDbEntity
8
0
100
AcDbLine
10
2423.69282659384
20
129
30
0
11
2423.69282659384
21
9.0000000000000391
31
0
0
LINE
5
159
100
AcDbEntity
8
0
100
AcDbLine
10
2423.69282659384
20
9.0000000000000391
30
0
11
2423.69282659384
21
129
31
0
0
LINE
5
160
100
AcDbEntity
8
0
100
AcDbLine
10
2423.69282659384
20
129
30
0
11
2017.69282659384
21
129
31
0
0
LWPOLYLINE
5
161
100
AcDbEntity
8
0
100
AcDbPolyline
90
4
70
1
43
0.0
10
2308.19282659384
20
69.000000000000028
10
2307.1928265938404
20
69.000000000000028
10
2307.1928265938404
20
129
10
2308.19282659384
20
129
0
LINE
5
162
100
AcDbEntity
8
0
100
AcDbLine
10
2423.69282659384
20
100.22089087678086
30
0
11
2423.69282659384
21
129
31
0
0
LINE
5
163
100
AcDbEntity
8
0
100
AcDbLine
10
2017.69282659384
20
9
30
0
11
2423.69282659384
21
9.0000000000000391
31
0
0
LINE
5
164
100
AcDbEntity
8
0
100
AcDbLine
10
2423.69282659384
20
100.22089087678086
30
0
11
2423.69282659384
21
69.000000000000028
31
0
0
LWPOLYLINE
5
165
100
AcDbEntity
8
0
100
AcDbPolyline
90
4
70
1
43
0.0
10
192.19282659384007
20
309
10
192.19282659384007
20
249
10
191.19282659383998
20
249
10
191.19282659383998
20
309
0
LWPOLYLINE
5
166
100
AcDbEntity
8
0
100
AcDbPolyline
90
4
70
1
43
0.0
10
134.07556283684141
20
309
10
134.07556283684141
20
249
10
133.07556283684141
20
249
10
133.07556283684141
20
309
0
LINE
5
167
100
AcDbEntity
8
0
100
AcDbLine
10
17.692826593839968
20
309
30
0
11
17.692826593839971
21
189
31
0
0
LWPOLYLINE
5
168
100
AcDbEntity
8
0
100
AcDbPolyline
90
4
70
1
43
0.0
10
76.192826593839982
20
309
10
76.192826593839982
20
249
10
75.19282659384001
20
249
10
75.19282659384001
20
309
0
LWPOLYLINE
5
169
100
AcDbEntity
8
0
100
AcDbPolyline
90
4
70
1
43
0.0
10
365.19282659384004
20
249
10
365.19282659384004
20
309.08125794129023
10
366.19282659384004
20
309.08125794129023
10
366.19282659384004
20
249
0
LWPOLYLINE
5
170
100
AcDbEntity
8
0
100
AcDbPolyline
90
4
70
1
43
0.0
10
250.20293667300731
20
249
10
249.20293667300729
20
249
10
249.20293667300729
20
309
10
250.20293667300731
20
309
0
LINE
5
171
100
AcDbEntity
8
0
100
AcDbLine
10
423.69282659384004
20
309
30
0
11
423.69282659383998
21
189.00000000000006
31
0
0
LINE
5
172
100
AcDbEntity
8
0
100
AcDbLine
10
423.69282659383998
20
189.00000000000006
30
0
11
423.69282659384004
21
309
31
0
0
LINE
5
173
100
AcDbEntity
8
0
100
AcDbLine
10
423.69282659384004
20
309
30
0
11
17.692826593839968
21
309
31
0
0
LWPOLYLINE
5
174
100
AcDbEntity
8
0
100
AcDbPolyline
90
4
70
1
43
0.0
10
308.19282659384004
20
249.00000000000003
10
307.1928265938401
20
249.00000000000003
10
307.1928265938401
20
309
10
308.19282659384004
20
309
0
LINE
5
175
100
AcDbEntity
8
0
100
AcDbLine
10
423.69282659384004
20
280.22089087678086
30
0
11
423.69282659384004
21
309
31
0
0
LINE
5
176
100
AcDbEntity
8
0
100
AcDbLine
10
17.692826593839971
20
189
30
0
11
423.69282659383998
21
189.00000000000006
31
0
0
LINE
5
177
100
AcDbEntity
8
0
100
AcDbLine
10
423.69282659384004
20
280.22089087678086
30
0
11
423.69282659384004
21
249.00000000000003
31
0
0
LWPOLYLINE
5
178
100
AcDbEntity
8
0
100
AcDbPolyline
90
4
70
1
43
0.0
10
692.1928265938401
20
309
10
692.1928265938401
20
249
10
691.19282659383998
20
249
10
691.19282659383998
20
309
0
LWPOLYLINE
5
179
100
AcDbEntity
8
0
100
AcDbPolyline
90
4
70
1
43
0.0
10
634.07556283684141
20
309
10
634.07556283684141
20
249
10
633.07556283684141
20
249
10
633.07556283684141
20
309
0
LINE
5
180
100
AcDbEntity
8
0
100
AcDbLine
10
517.69282659383998
20
309
30
0
11
517.69282659383998
21
189
31
0
0
LWPOLYLINE
5
181
100
AcDbEntity
8
0
100
AcDbPolyline
90
4
70
1
43
0.0
10
576.19282659383998
20
309
10
576.19282659383998
20
249
10
575.19282659383998
20
249
10
575.19282659383998
20
309
0
LWPOLYLINE
5
182
100
AcDbEntity
8
0
100
AcDbPolyline
90
4
70
1
43
0.0
10
865.19282659383998
20
249
10
865.19282659383998
20
309.08125794129023
10
866.19282659383998
20
309.08125794129023
10
866.19282659383998
20
249
0
LWPOLYLINE
5
183
100
AcDbEntity
8
0
100
AcDbPolyline
90
4
70
1
43
0.0
10
750.20293667300734
20
249
10
749.20293667300723
20
249
10
749.20293667300723
20
309
10
750.20293667300734
20
309
0
LINE
5
184
100
AcDbEntity
8
0
100
AcDbLine
10
923.69282659383998
20
309
30
0
11
923.69282659383998
21
189.00000000000006
31
0
0
LINE
5
185
100
AcDbEntity
8
0
100
AcDbLine
10
923.69282659383998
20
189.00000000000006
30
0
11
923.69282659383998
21
309
31
0
0
LINE
5
186
100
AcDbEntity
8
0
100
AcDbLine
10
923.69282659383998
20
309
30
0
11
517.69282659383998
21
309
31
0
0
LWPOLYLINE
5
187
100
AcDbEntity
8
0
100
AcDbPolyline
90
4
70
1
43
0.0
10
808.19282659383998
20
249.00000000000003
10
807.1928265938401
20
249.00000000000003
10
807.1928265938401
20
309
10
808.19282659383998
20
309
0
LINE
5
188
100
AcDbEntity
8
0
100
AcDbLine
10
923.69282659383998
20
280.22089087678086
30
0
11
923.69282659383998
21
309
31
0
0
LINE
5
189
100
AcDbEntity
8
0
100
AcDbLine
10
517.69282659383998
20
189
30
0
11
923.69282659383998
21
189.00000000000006
31
0
0
LINE
5
190
100
AcDbEntity
8
0
100
AcDbLine
10
923.69282659383998
20
280.22089087678086
30
0
11
923.69282659383998
21
249.00000000000003
31
0
0
LWPOLYLINE
5
191
100
AcDbEntity
8
0
100
AcDbPolyline
90
4
70
1
43
0.0
10
1192.19282659384
20
309
10
1192.19282659384
20
249
10
1191.19282659384
20
249
10
1191.19282659384
20
309
0
LWPOLYLINE
5
192
100
AcDbEntity
8
0
100
AcDbPolyline
90
4
70
1
43
0.0
10
1134.0755628368415
20
309
10
1134.0755628368415
20
249
10
1133.0755628368413
20
249
10
1133.0755628368413
20
309
0
LINE
5
193
100
AcDbEntity
8
0
100
AcDbLine
10
1017.69282659384
20
309
30
0
11
1017.69282659384
21
189
31
0
0
LWPOLYLINE
5
194
100
AcDbEntity
8
0
100
AcDbPolyline
90
4
70
1
43
0.0
10
1076.19282659384
20
309
10
1076.19282659384
20
249
10
1075.19282659384
20
249
10
1075.19282659384
20
309
0
LWPOLYLINE
5
195
100
AcDbEntity
8
0
100
AcDbPolyline
90
4
70
1
43
0.0
10
1365.19282659384
20
249
10
1365.19282659384
20
309.08125794129023
10
1366.19282659384
20
309.08125794129023
10
1366.19282659384
20
249
0
LWPOLYLINE
5
196
100
AcDbEntity
8
0
100
AcDbPolyline
90
4
70
1
43
0.0
10
1250.2029366730073
20
249
10
1249.2029366730073
20
249
10
1249.2029366730073
20
309
10
1250.2029366730073
20
309
0
LINE
5
197
100
AcDbEntity
8
0
100
AcDbLine
10
1423.69282659384
20
309
30
0
11
1423.69282659384
21
189.00000000000006
31
0
0
LINE
5
198
100
AcDbEntity
8
0
100
AcDbLine
10
1423.69282659384
20
189.00000000000006
30
0
11
1423.69282659384
21
309
31
0
0
LINE
5
199
100
AcDbEntity
8
0
100
AcDbLine
10
1423.69282659384
20
309
30
0
11
1017.69282659384
21
309
31
0
0
LWPOLYLINE
5
200
100
AcDbEntity
8
0
100
AcDbPolyline
90
4
70
1
43
0.0
10
1308.1928265938402
20
249.00000000000003
10
1307.1928265938402
20
249.00000000000003
10
1307.1928265938402
20
309
10
1308.1928265938402
20
309
0
LINE
5
201
100
AcDbEntity
8
0
100
AcDbLine
10
1423.69282659384
20
280.22089087678086
30
0
11
1423.69282659384
21
309
31
0
0
LINE
5
202
100
AcDbEntity
8
0
100
AcDbLine
10
1017.69282659384
20
189
30
0
11
1423.69282659384
21
189.00000000000006
31
0
0
LINE
5
203
100
AcDbEntity
8
0
100
AcDbLine
10
1423.69282659384
20
280.22089087678086
30
0
11
1423.69282659384
21
249.00000000000003
31
0
0
LWPOLYLINE
5
204
100
AcDbEntity
8
0
100
AcDbPolyline
90
4
70
1
43
0.0
10
1692.1928265938402
20
309
10
1692.1928265938402
20
249
10
1691.19282659384
20
249
10
1691.19282659384
20
309
0
LWPOLYLINE
5
205
100
AcDbEntity
8
0
100
AcDbPolyline
90
4
70
1
43
0.0
10
1634.0755628368413
20
309
10
1634.0755628368413
20
249
10
1633.0755628368413
20
249
10
1633.0755628368413
20
309
0
LINE
5
206
100
AcDbEntity
8
0
100
AcDbLine
10
1517.69282659384
20
309
30
0
11
1517.69282659384
21
189
31
0
0
LWPOLYLINE
5
207
100
AcDbEntity
8
0
100
AcDbPolyline
90
4
70
1
43
0.0
10
1576.19282659384
20
309
10
1576.19282659384
20
249
10
1575.19282659384
20
249
10
1575.19282659384
20
309
0
LWPOLYLINE
5
208
100
AcDbEntity
8
0
100
AcDbPolyline
90
4
70
1
43
0.0
10
1865.19282659384
20
249
10
1865.19282659384
20
309.08125794129023
10
1866.19282659384
20
309.08125794129023
10
1866.19282659384
20
249
0
LWPOLYLINE
5
209
100
AcDbEntity
8
0
100
AcDbPolyline
90
4
70
1
43
0.0
10
1750.2029366730073
20
249
10
1749.2029366730073
20
249
10
1749.2029366730073
20
309
10
1750.2029366730073
20
309
0
LINE
5
210
100
AcDbEntity
8
0
100
AcDbLine
10
1923.69282659384
20
309
30
0
11
1923.69282659384
21
189.00000000000006
31
0
0
LINE
5
211
100
AcDbEntity
8
0
100
AcDbLine
10
1923.69282659384
20
189.00000000000006
30
0
11
1923.69282659384
21
309
31
0
0
LINE
5
212
100
AcDbEntity
8
0
100
AcDbLine
10
1923.69282659384
20
309
30
0
11
1517.69282659384
21
309
31
0
0
LWPOLYLINE
5
213
100
AcDbEntity
8
0
100
AcDbPolyline
90
4
70
1
43
0.0
10
1808.1928265938402
20
249.00000000000003
10
1807.1928265938402
20
249.00000000000003
10
1807.1928265938402
20
309
10
1808.1928265938402
20
309
0
LINE
5
214
100
AcDbEntity
8
0
100
AcDbLine
10
1923.69282659384
20
280.22089087678086
30
0
11
1923.69282659384
21
309
31
0
0
LINE
5
215
100
AcDbEntity
8
0
100
AcDbLine
10
1517.69282659384
20
189
30
0
11
1923.69282659384
21
189.00000000000006
31
0
0
LINE
5
216
100
AcDbEntity
8
0
100
AcDbLine
10
1923.69282659384
20
280.22089087678086
30
0
11
1923.69282659384
21
249.00000000000003
31
0
0
LWPOLYLINE
5
217
100
AcDbEntity
8
0
100
AcDbPolyline
90
4
70
1
43
0.0
10
2192.1928265938404
20
309
10
2192.1928265938404
20
249
10
2191.19282659384
20
249
10
2191.19282659384
20
309
0
LWPOLYLINE
5
218
100
AcDbEntity
8
0
100
AcDbPolyline
90
4
70
1
43
0.0
10
2134.0755628368415
20
309
10
2134.0755628368415
20
249
10
2133.0755628368415
20
249
10
2133.0755628368415
20
309
0
LINE
5
219
100
AcDbEntity
8
0
100
AcDbLine
10
2017.69282659384
20
309
30
0
11
2017.69282659384
21
189
31
0
0
LWPOLYLINE
5
220
100
AcDbEntity
8
0
100
AcDbPolyline
90
4
70
1
43
0.0
10
2076.19282659384
20
309
10
2076.19282659384
20
249
10
2075.19282659384
20
249
10
2075.19282659384
20
309
0
LWPOLYLINE
5
221
100
AcDbEntity
8
0
100
AcDbPolyline
90
4
70
1
43
0.0
10
2365.19282659384
20
249
10
2365.19282659384
20
309.08125794129023
10
2366.19282659384
20
309.08125794129023
10
2366.19282659384
20
249
0
LWPOLYLINE
5
222
100
AcDbEntity
8
0
100
AcDbPolyline
90
4
70
1
43
0.0
10
2250.2029366730076
20
249
10
2249.2029366730076
20
249
10
2249.2029366730076
20
309
10
2250.2029366730076
20
309
0
LINE
5
223
100
AcDbEntity
8
0
100
AcDbLine
10
2423.69282659384
20
309
30
0
11
2423.69282659384
21
189.00000000000006
31
0
0
LINE
5
224
100
AcDbEntity
8
0
100
AcDbLine
10
2423.69282659384
20
189.00000000000006
30
0
11
2423.69282659384
21
309
31
0
0
LINE
5
225
100
AcDbEntity
8
0
100
AcDbLine
10
2423.69282659384
20
309
30
0
11
2017.69282659384
21
309
31
0
0
LWPOLYLINE
5
226
100
AcDbEntity
8
0
100
AcDbPolyline
90
4
70
1
43
0.0
10
2308.19282659384
20
249.00000000000003
10
2307.1928265938404
20
249.00000000000003
10
2307.1928265938404
20
309
10
2308.19282659384
20
309
0
LINE
5
227
100
AcDbEntity
8
0
100
AcDbLine
10
2423.69282659384
20
280.22089087678086
30
0
11
2423.69282659384
21
309
31
0
0
LINE
5
228
100
AcDbEntity
8
0
100
AcDbLine
10
2017.69282659384
20
189
30
0
11
2423.69282659384
21
189.00000000000006
31
0
0
LINE
5
229
100
AcDbEntity
8
0
100
AcDbLine
10
2423.69282659384
20
280.22089087678086
30
0
11
2423.69282659384
21
249.00000000000003
31
0
0
LWPOLYLINE
5
230
100
AcDbEntity
8
0
100
AcDbPolyline
90
4
70
1
43
0.0
10
192.19282659384007
20
489
10
192.19282659384007
20
429
10
191.19282659383998
20
429
10
191.19282659383998
20
489
0
LWPOLYLINE
5
231
100
AcDbEntity
8
0
100
AcDbPolyline
90
4
70
1
43
0.0
10
134.07556283684141
20
489
10
134.07556283684141
20
429
10
133.07556283684141
20
429
10
133.07556283684141
20
489
0
LINE
5
232
100
AcDbEntity
8
0
100
AcDbLine
10
17.692826593839968
20
489
30
0
11
17.692826593839971
21
369
31
0
0
LWPOLYLINE
5
233
100
AcDbEntity
8
0
100
AcDbPolyline
90
4
70
1
43
0.0
10
76.192826593839982
20
489
10
76.192826593839982
20
429
10
75.19282659384001
20
429
10
75.19282659384001
20
489
0
LWPOLYLINE
5
234
100
AcDbEntity
8
0
100
AcDbPolyline
90
4
70
1
43
0.0
10
365.19282659384004
20
429
10
365.19282659384004
20
489.08125794129023
10
366.19282659384004
20
489.08125794129023
10
366.19282659384004
20
429
0
LWPOLYLINE
5
235
100
AcDbEntity
8
0
100
AcDbPolyline
90
4
70
1
43
0.0
10
250.20293667300731
20
429
10
249.20293667300729
20
429
10
249.20293667300729
20
489
10
250.20293667300731
20
489
0
LINE
5
236
100
AcDbEntity
8
0
100
AcDbLine
10
423.69282659384004
20
489
30
0
11
423.69282659383998
21
369.00000000000006
31
0
0
LINE
5
237
100
AcDbEntity
8
0
100
AcDbLine
10
423.69282659383998
20
369.00000000000006
30
0
11
423.69282659384004
21
489
31
0
0
LINE
5
238
100
AcDbEntity
8
0
100
AcDbLine
10
423.69282659384004
20
489
30
0
11
17.692826593839968
21
489
31
0
0
LWPOLYLINE
5
239
100
AcDbEntity
8
0
100
AcDbPolyline
90
4
70
1
43
0.0
10
308.19282659384004
20
429.00000000000006
10
307.1928265938401
20
429.00000000000006
10
307.1928265938401
20
489
10
308.19282659384004
20
489
0
LINE
5
240
100
AcDbEntity
8
0
100
AcDbLine
10
423.69282659384004
20
460.2208908767808
30
0
11
423.69282659384004
21
489
31
0
0
LINE
5
241
100
AcDbEntity
8
0
100
AcDbLine
10
17.692826593839971
20
369
30
0
11
423.69282659383998
21
369.00000000000006
31
0
0
LINE
5
242
100
AcDbEntity
8
0
100
AcDbLine
10
423.69282659384004
20
460.2208908767808
30
0
11
423.69282659384004
21
429.00000000000006
31
0
0
LWPOLYLINE
5
243
100
AcDbEntity
8
0
100
AcDbPolyline
90
4
70
1
43
0.0
10
692.1928265938401
20
489
10
692.1928265938401
20
429
10
691.19282659383998
20
429
10
691.19282659383998
20
489
0
LWPOLYLINE
5
244
100
AcDbEntity
8
0
100
AcDbPolyline
90
4
70
1
43
0.0
10
634.07556283684141
20
489
10
634.07556283684141
20
429
10
633.07556283684141
20
429
10
633.07556283684141
20
489
0
LINE
5
245
100
AcDbEntity
8
0
100
AcDbLine
10
517.69282659383998
20
489
30
0
11
517.69282659383998
21
369
31
0
0
LWPOLYLINE
5
246
100
AcDbEntity
8
0
100
AcDbPolyline
90
4
70
1
43
0.0
10
576.19282659383998
20
489
10
576.19282659383998
20
429
10
575.19282659383998
20
429
10
575.19282659383998
20
489
0
LWPOLYLINE
5
247
100
AcDbEntity
8
0
100
AcDbPolyline
90
4
70
1
43
0.0
10
865.19282659383998
20
429
10
865.19282659383998
20
489.08125794129023
10
866.19282659383998
20
489.08125794129023
10
866.19282659383998
20
429
0
LWPOLYLINE
5
248
100
AcDbEntity
8
0
100
AcDbPolyline
90
4
70
1
43
0.0
10
750.20293667300734
20
429
10
749.20293667300723
20
429
10
749.20293667300723
20
489
10
750.20293667300734
20
489
0
LINE
5
249
100
AcDbEntity
8
0
100
AcDbLine
10
923.69282659383998
20
489
30
0
11
923.69282659383998
21
369.00000000000006
31
0
0
LINE
5
250
100
AcDbEntity
8
0
100
AcDbLine
10
923.69282659383998
20
369.00000000000006
30
0
11
923.69282659383998
21
489
31
0
0
LINE
5
251
100
AcDbEntity
8
0
100
AcDbLine
10
923.69282659383998
20
489
30
0
11
517.69282659383998
21
489
31
0
0
LWPOLYLINE
5
252
100
AcDbEntity
8
0
100
AcDbPolyline
90
4
70
1
43
0.0
10
808.19282659383998
20
429.00000000000006
10
807.1928265938401
20
429.00000000000006
10
807.1928265938401
20
489
10
808.19282659383998
20
489
0
LINE
5
253
100
AcDbEntity
8
0
100
AcDbLine
10
923.69282659383998
20
460.2208908767808
30
0
11
923.69282659383998
21
489
31
0
0
LINE
5
254
100
AcDbEntity
8
0
100
AcDbLine
10
517.69282659383998
20
369
30
0
11
923.69282659383998
21
369.00000000000006
31
0
0
LINE
5
255
100
AcDbEntity
8
0
100
AcDbLine
10
923.69282659383998
20
460.2208908767808
30
0
11
923.69282659383998
21
429.00000000000006
31
0
0
LWPOLYLINE
5
256
100
AcDbEntity
8
0
100
AcDbPolyline
90
4
70
1
43
0.0
10
1192.19282659384
20
489
10
1192.19282659384
20
429
10
1191.19282659384
20
429
10
1191.19282659384
20
489
0
LWPOLYLINE
5
257
100
AcDbEntity
8
0
100
AcDbPolyline
90
4
70
1
43
0.0
10
1134.0755628368415
20
489
10
1134.0755628368415
20
429
10
1133.0755628368413
20
429
10
1133.0755628368413
20
489
0
LINE
5
258
100
AcDbEntity
8
0
100
AcDbLine
10
1017.69282659384
20
489
30
0
11
1017.69282659384
21
369
31
0
0
LWPOLYLINE
5
259
100
AcDbEntity
8
0
100
AcDbPolyline
90
4
70
1
43
0.0
10
1076.19282659384
20
489
10
1076.19282659384
20
429
10
1075.19282659384
20
429
10
1075.19282659384
20
489
0
LWPOLYLINE
5
260
100
AcDbEntity
8
0
100
AcDbPolyline
90
4
70
1
43
0.0
10
1365.19282659384
20
429
10
1365.19282659384
20
489.08125794129023
10
1366.19282659384
20
489.08125794129023
10
1366.19282659384
20
429
0
LWPOLYLINE
5
261
100
AcDbEntity
8
0
100
AcDbPolyline
90
4
70
1
43
0.0
10
1250.2029366730073
20
429
10
1249.2029366730073
20
429
10
1249.2029366730073
20
489
10
1250.2029366730073
20
489
0
LINE
5
262
100
AcDbEntity
8
0
100
AcDbLine
10
1423.69282659384
20
489
30
0
11
1423.69282659384
21
369.00000000000006
31
0
0
LINE
5
263
100
AcDbEntity
8
0
100
AcDbLine
10
1423.69282659384
20
369.00000000000006
30
0
11
1423.69282659384
21
489
31
0
0
LINE
5
264
100
AcDbEntity
8
0
100
AcDbLine
10
1423.69282659384
20
489
30
0
11
1017.69282659384
21
489
31
0
0
LWPOLYLINE
5
265
100
AcDbEntity
8
0
100
AcDbPolyline
90
4
70
1
43
0.0
10
1308.1928265938402
20
429.00000000000006
10
1307.1928265938402
20
429.00000000000006
10
1307.1928265938402
20
489
10
1308.1928265938402
20
489
0
LINE
5
266
100
AcDbEntity
8
0
100
AcDbLine
10
1423.69282659384
20
460.2208908767808
30
0
11
1423.69282659384
21
489
31
0
0
LINE
5
267
100
AcDbEntity
8
0
100
AcDbLine
10
1017.69282659384
20
369
30
0
11
1423.69282659384
21
369.00000000000006
31
0
0
LINE
5
268
100
AcDbEntity
8
0
100
AcDbLine
10
1423.69282659384
20
460.2208908767808
30
0
11
1423.69282659384
21
429.00000000000006
31
0
0
LWPOLYLINE
5
269
100
AcDbEntity
8
0
100
AcDbPolyline
90
4
70
1
43
0.0
10
1692.1928265938402
20
489
10
1692.1928265938402
20
429
10
1691.19282659384
20
429
10
1691.19282659384
20
489
0
LWPOLYLINE
5
270
100
AcDbEntity
8
0
100
AcDbPolyline
90
4
70
1
43
0.0
10
1634.0755628368413
20
489
10
1634.0755628368413
20
429
10
1633.0755628368413
20
429
10
1633.0755628368413
20
489
0
LINE
5
271
100
AcDbEntity
8
0
100
AcDbLine
10
1517.69282659384
20
489
30
0
11
1517.69282659384
21
369
31
0
0
LWPOLYLINE
5
272
100
AcDbEntity
8
0
100
AcDbPolyline
90
4
70
1
43
0.0
10
1576.19282659384
20
489
10
1576.19282659384
20
429
10
1575.19282659384
20
429
10
1575.19282659384
20
489
0
LWPOLYLINE
5
273
100
AcDbEntity
8
0
100
AcDbPolyline
90
4
70
1
43
0.0
10
1865.19282659384
20
429
10
1865.19282659384
20
489.08125794129023
10
1866.19282659384
20
489.08125794129023
10
1866.19282659384
20
429
0
LWPOLYLINE
5
274
100
AcDbEntity
8
0
100
AcDbPolyline
90
4
70
1
43
0.0
10
1750.2029366730073
20
429
10
1749.2029366730073
20
429
10
1749.2029366730073
20
489
10
1750.2029366730073
20
489
0
LINE
5
275
100
AcDbEntity
8
0
100
AcDbLine
10
1923.69282659384
20
489
30
0
11
1923.69282659384
21
369.00000000000006
31
0
0
LINE
5
276
100
AcDbEntity
8
0
100
AcDbLine
10
1923.69282659384
20
369.00000000000006
30
0
11
1923.69282659384
21
489
31
0
0
LINE
5
277
100
AcDbEntity
8
0
100
AcDbLine
10
1923.69282659384
20
489
30
0
11
1517.69282659384
21
489
31
0
0
LWPOLYLINE
5
278
100
AcDbEntity
8
0
100
AcDbPolyline
90
4
70
1
43
0.0
10
1808.1928265938402
20
429.00000000000006
10
1807.1928265938402
20
429.00000000000006
10
1807.1928265938402
20
489
10
1808.1928265938402
20
489
0
LINE
5
279
100
AcDbEntity
8
0
100
AcDbLine
10
1923.69282659384
20
460.2208908767808
30
0
11
1923.69282659384
21
489
31
0
0
LINE
5
280
100
AcDbEntity
8
0
100
AcDbLine
10
1517.69282659384
20
369
30
0
11
1923.69282659384
21
369.00000000000006
31
0
0
LINE
5
281
100
AcDbEntity
8
0
100
AcDbLine
10
1923.69282659384
20
460.2208908767808
30
0
11
1923.69282659384
21
429.00000000000006
31
0
0
LWPOLYLINE
5
282
100
AcDbEntity
8
0
100
AcDbPolyline
90
4
70
1
43
0.0
10
2192.1928265938404
20
489
10
2192.1928265938404
20
429
10
2191.19282659384
20
429
10
2191.19282659384
20
489
0
LWPOLYLINE
5
283
100
AcDbEntity
8
0
100
AcDbPolyline
90
4
70
1
43
0.0
10
2134.0755628368415
20
489
10
2134.0755628368415
20
429
10
2133.0755628368415
20
429
10
2133.0755628368415
20
489
0
LINE
5
284
100
AcDbEntity
8
0
100
AcDbLine
10
2017.69282659384
20
489
30
0
11
2017.69282659384
21
369
31
0
0
LWPOLYLINE
5
285
100
AcDbEntity
8
0
100
AcDbPolyline
90
4
70
1
43
0.0
10
2076.19282659384
20
489
10
2076.19282659384
20
429
10
2075.19282659384
20
429
10
2075.19282659384
20
489
0
LWPOLYLINE
5
286
100
AcDbEntity
8
0
100
AcDbPolyline
90
4
70
1
43
0.0
10
2365.19282659384
20
429
10
2365.19282659384
20
489.08125794129023
10
2366.19282659384
20
489.08125794129023
10
2366.19282659384
20
429
0
LWPOLYLINE
5
287
100
AcDbEntity
8
0
100
AcDbPolyline
90
4
70
1
43
0.0
10
2250.2029366730076
20
429
10
2249.2029366730076
20
429
10
2249.2029366730076
20
489
10
2250.2029366730076
20
489
0
LINE
5
288
100
AcDbEntity
8
0
100
AcDbLine
10
2423.69282659384
20
489
30
0
11
2423.69282659384
21
369.00000000000006
31
0
0
LINE
5
289
100
AcDbEntity
8
0
100
AcDbLine
10
2423.69282659384
20
369.00000000000006
30
0
11
2423.69282659384
21
489
31
0
0
LINE
5
290
100
AcDbEntity
8
0
100
AcDbLine
10
2423.69282659384
20
489
30
0
11
2017.69282659384
21
489
31
0
0
LWPOLYLINE
5
291
100
AcDbEntity
8
0
100
AcDbPolyline
90
4
70
1
43
0.0
10
2308.19282659384
20
429.00000000000006
10
2307.1928265938404
20
429.00000000000006
10
2307.1928265938404
20
489
10
2308.19282659384
20
489
0
LINE
5
292
100
AcDbEntity
8
0
100
AcDbLine
10
2423.69282659384
20
460.2208908767808
30
0
11
2423.69282659384
21
489
31
0
0
LINE
5
293
100
AcDbEntity
8
0
100
AcDbLine
10
2017.69282659384
20
369
30
0
11
2423.69282659384
21
369.00000000000006
31
0
0
LINE
5
294
100
AcDbEntity
8
0
100
AcDbLine
10
2423.69282659384
20
460.2208908767808
30
0
11
2423.69282659384
21
429.00000000000006
31
0
0
LWPOLYLINE
5
295
100
AcDbEntity
8
0
100
AcDbPolyline
90
4
70
1
43
0.0
10
192.19282659384007
20
669
10
192.19282659384007
20
609
10
191.19282659383998
20
609
10
191.19282659383998
20
669
0
LWPOLYLINE
5
296
100
AcDbEntity
8
0
100
AcDbPolyline
90
4
70
1
43
0.0
10
134.07556283684141
20
669
10
134.07556283684141
20
609
10
133.07556283684141
20
609
10
133.07556283684141
20
669
0
LINE
5
297
100
AcDbEntity
8
0
100
AcDbLine
10
17.692826593839968
20
669
30
0
11
17.692826593839971
21
549
31
0
0
LWPOLYLINE
5
298
100
AcDbEntity
8
0
100
AcDbPolyline
90
4
70
1
43
0.0
10
76.192826593839982
20
669
10
76.192826593839982
20
609
10
75.19282659384001
20
609
10
75.19282659384001
20
669
0
LWPOLYLINE
5
299
100
AcDbEntity
8
0
100
AcDbPolyline
90
4
70
1
43
0.0
10
365.19282659384004
20
609
10
365.19282659384004
20
669.08125794129023
10
366.19282659384004
20
669.08125794129023
10
366.19282659384004
20
609
0
LWPOLYLINE
5
300
100
AcDbEntity
8
0
100
AcDbPolyline
90
4
70
1
43
0.0
10
250.20293667300731
20
609
10
249.20293667300729
20
609
10
249.20293667300729
20
669
10
250.20293667300731
20
669
0
LINE
5
301
100
AcDbEntity
8
0
100
AcDbLine
10
423.69282659384004
20
669
30
0
11
423.69282659383998
21
549
31
0
0
LINE
5
302
100
AcDbEntity
8
0
100
AcDbLine
10
423.69282659383998
20
549
30
0
11
423.69282659384004
21
669
31
0
0
LINE
5
303
100
AcDbEntity
8
0
100
AcDbLine
10
423.69282659384004
20
669
30
0
11
17.692826593839968
21
669
31
0
0
LWPOLYLINE
5
304
100
AcDbEntity
8
0
100
AcDbPolyline
90
4
70
1
43
0.0
10
308.19282659384004
20
609
10
307.1928265938401
20
609
10
307.1928265938401
20
669
10
308.19282659384004
20
669
0
LINE
5
305
100
AcDbEntity
8
0
100
AcDbLine
10
423.69282659384004
20
640.2208908767808
30
0
11
423.69282659384004
21
669
31
0
0
LINE
5
306
100
AcDbEntity
8
0
100
AcDbLine
10
17.692826593839971
20
549
30
0
11
423.69282659383998
21
549
31
0
0
LINE
5
307
100
AcDbEntity
8
0
100
AcDbLine
10
423.69282659384004
20
640.2208908767808
30
0
11
423.69282659384004
21
609
31
0
0
LWPOLYLINE
5
308
100
AcDbEntity
8
0
100
AcDbPolyline
90
4
70
1
43
0.0
10
692.1928265938401
20
669
10
692.1928265938401
20
609
10
691.19282659383998
20
609
10
691.19282659383998
20
669
0
LWPOLYLINE
5
309
100
AcDbEntity
8
0
100
AcDbPolyline
90
4
70
1
43
0.0
10
634.07556283684141
20
669
10
634.07556283684141
20
609
10
633.07556283684141
20
609
10
633.07556283684141
20
669
0
LINE
5
310
100
AcDbEntity
8
0
100
AcDbLine
10
517.69282659383998
20
669
30
0
11
517.69282659383998
21
549
31
0
0
LWPOLYLINE
5
311
100
AcDbEntity
8
0
100
AcDbPolyline
90
4
70
1
43
0.0
10
576.19282659383998
20
669
10
576.19282659383998
20
609
10
575.19282659383998
20
609
10
575.19282659383998
20
669
0
LWPOLYLINE
5
312
100
AcDbEntity
8
0
100
AcDbPolyline
90
4
70
1
43
0.0
10
865.19282659383998
20
609
10
865.19282659383998
20
669.08125794129023
10
866.19282659383998
20
669.08125794129023
10
866.19282659383998
20
609
0
LWPOLYLINE
5
313
100
AcDbEntity
8
0
100
AcDbPolyline
90
4
70
1
43
0.0
10
750.20293667300734
20
609
10
749.20293667300723
20
609
10
749.20293667300723
20
669
10
750.20293667300734
20
669
0
LINE
5
314
100
AcDbEntity
8
0
100
AcDbLine
10
923.69282659383998
20
669
30
0
11
923.69282659383998
21
549
31
0
0
LINE
5
315
100
AcDbEntity
8
0
100
AcDbLine
10
923.69282659383998
20
549
30
0
11
923.69282659383998
21
669
31
0
0
LINE
5
316
100
AcDbEntity
8
0
100
AcDbLine
10
923.69282659383998
20
669
30
0
11
517.69282659383998
21
669
31
0
0
LWPOLYLINE
5
317
100
AcDbEntity
8
0
100
AcDbPolyline
90
4
70
1
43
0.0
10
808.19282659383998
20
609
10
807.1928265938401
20
609
10
807.1928265938401
20
669
10
808.19282659383998
20
669
0
LINE
5
318
100
AcDbEntity
8
0
100
AcDbLine
10
923.69282659383998
20
640.2208908767808
30
0
11
923.69282659383998
21
669
31
0
0
LINE
5
319
100
AcDbEntity
8
0
100
AcDbLine
10
517.69282659383998
20
549
30
0
11
923.69282659383998
21
549
31
0
0
LINE
5
320
100
AcDbEntity
8
0
100
AcDbLine
10
923.69282659383998
20
640.2208908767808
30
0
11
923.69282659383998
21
609
31
0
0
LWPOLYLINE
5
321
100
AcDbEntity
8
0
100
AcDbPolyline
90
4
70
1
43
0.0
10
1192.19282659384
20
669
10
1192.19282659384
20
609
10
1191.19282659384
20
609
10
1191.19282659384
20
669
0
LWPOLYLINE
5
322
100
AcDbEntity
8
0
100
AcDbPolyline
90
4
70
1
43
0.0
10
1134.0755628368415
20
669
10
1134.0755628368415
20
609
10
1133.0755628368413
20
609
10
1133.0755628368413
20
669
0
LINE
5
323
100
AcDbEntity
8
0
100
AcDbLine
10
1017.69282659384
20
669
30
0
11
1017.69282659384
21
549
31
0
0
LWPOLYLINE
5
324
100
AcDbEntity
8
0
100
AcDbPolyline
90
4
70
1
43
0.0
10
1076.19282659384
20
669
10
1076.19282659384
20
609
10
1075.19282659384
20
609
10
1075.19282659384
20
669
0
LWPOLYLINE
5
325
100
AcDbEntity
8
0
100
AcDbPolyline
90
4
70
1
43
0.0
10
1365.19282659384
20
609
10
1365.19282659384
20
669.08125794129023
10
1366.19282659384
20
669.08125794129023
10
1366.19282659384
20
609
0
LWPOLYLINE
5
326
100
AcDbEntity
8
0
100
AcDbPolyline
90
4
70
1
43
0.0
10
1250.2029366730073
20
609
10
1249.2029366730073
20
609
10
1249.2029366730073
20
669
10
1250.2029366730073
20
669
0
LINE
5
327
100
AcDbEntity
8
0
100
AcDbLine
10
1423.69282659384
20
669
30
0
11
1423.69282659384
21
549
31
0
0
LINE
5
328
100
AcDbEntity
8
0
100
AcDbLine
10
1423.69282659384
20
549
30
0
11
1423.69282659384
21
669
31
0
0
LINE
5
329
100
AcDbEntity
8
0
100
AcDbLine
10
1423.69282659384
20
669
30
0
11
1017.69282659384
21
669
31
0
0
LWPOLYLINE
5
330
100
AcDbEntity
8
0
100
AcDbPolyline
90
4
70
1
43
0.0
10
1308.1928265938402
20
609
10
1307.1928265938402
20
609
10
1307.1928265938402
20
669
10
1308.1928265938402
20
669
0
LINE
5
331
100
AcDbEntity
8
0
100
AcDbLine
10
1423.69282659384
20
640.2208908767808
30
0
11
1423.69282659384
21
669
31
0
0
LINE
5
332
100
AcDbEntity
8
0
100
AcDbLine
10
1017.69282659384
20
549
30
0
11
1423.69282659384
21
549
31
0
0
LINE
5
333
100
AcDbEntity
8
0
100
AcDbLine
10
1423.69282659384
20
640.2208908767808
30
0
11
1423.69282659384
21
609
31
0
0
LWPOLYLINE
5
334
100
AcDbEntity
8
0
100
AcDbPolyline
90
4
70
1
43
0.0
10
1692.1928265938402
20
669
10
1692.1928265938402
20
609
10
1691.19282659384
20
609
10
1691.19282659384
20
669
0
LWPOLYLINE
5
335
100
AcDbEntity
8
0
100
AcDbPolyline
90
4
70
1
43
0.0
10
1634.0755628368413
20
669
10
1634.0755628368413
20
609
10
1633.0755628368413
20
609
10
1633.0755628368413
20
669
0
LINE
5
336
100
AcDbEntity
8
0
100
AcDbLine
10
1517.69282659384
20
669
30
0
11
1517.69282659384
21
549
31
0
0
LWPOLYLINE
5
337
100
AcDbEntity
8
0
100
AcDbPolyline
90
4
70
1
43
0.0
10
1576.19282659384
20
669
10
1576.19282659384
20
609
10
1575.19282659384
20
609
10
1575.19282659384
20
669
0
LWPOLYLINE
5
338
100
AcDbEntity
8
0
100
AcDbPolyline
90
4
70
1
43
0.0
10
1865.19282659384
20
609
10
1865.19282659384
20
669.08125794129023
10
1866.19282659384
20
669.08125794129023
10
1866.19282659384
20
609
0
LWPOLYLINE
5
339
100
AcDbEntity
8
0
100
AcDbPolyline
90
4
70
1
43
0.0
10
1750.2029366730073
20
609
10
1749.2029366730073
20
609
10
1749.2029366730073
20
669
10
1750.2029366730073
20
669
0
LINE
5
340
100
AcDbEntity
8
0
100
AcDbLine
10
1923.69282659384
20
669
30
0
11
1923.69282659384
21
549
31
0
0
LINE
5
341
100
AcDbEntity
8
0
100
AcDbLine
10
1923.69282659384
20
549
30
0
11
1923.69282659384
21
669
31
0
0
LINE
5
342
100
AcDbEntity
8
0
100
AcDbLine
10
1923.69282659384
20
669
30
0
11
1517.69282659384
21
669
31
0
0
LWPOLYLINE
5
343
100
AcDbEntity
8
0
100
AcDbPolyline
90
4
70
1
43
0.0
10
1808.1928265938402
20
609
10
1807.1928265938402
20
609
10
1807.1928265938402
20
669
10
1808.1928265938402
20
669
0
LINE
5
344
100
AcDbEntity
8
0
100
AcDbLine
10
1923.69282659384
20
640.2208908767808
30
0
11
1923.69282659384
21
669
31
0
0
LINE
5
345
100
AcDbEntity
8
0
100
AcDbLine
10
1517.69282659384
20
549
30
0
11
1923.69282659384
21
549
31
0
0
LINE
5
346
100
AcDbEntity
8
0
100
AcDbLine
10
1923.69282659384
20
640.2208908767808
30
0
11
1923.69282659384
21
609
31
0
0
LWPOLYLINE
5
347
100
AcDbEntity
8
0
100
AcDbPolyline
90
4
70
1
43
0.0
10
2192.1928265938404
20
669
10
2192.1928265938404
20
609
10
2191.19282659384
20
609
10
2191.19282659384
20
669
0
LWPOLYLINE
5
348
100
AcDbEntity
8
0
100
AcDbPolyline
90
4
70
1
43
0.0
10
2134.0755628368415
20
669
10
2134.0755628368415
20
609
10
2133.0755628368415
20
609
10
2133.0755628368415
20
669
0
LINE
5
349
100
AcDbEntity
8
0
100
AcDbLine
10
2017.69282659384
20
669
30
0
11
2017.69282659384
21
549
31
0
0
LWPOLYLINE
5
350
100
AcDbEntity
8
0
100
AcDbPolyline
90
4
70
1
43
0.0
10
2076.19282659384
20
669
10
2076.19282659384
20
609
10
2075.19282659384
20
609
10
2075.19282659384
20
669
0
LWPOLYLINE
5
351
100
AcDbEntity
8
0
100
AcDbPolyline
90
4
70
1
43
0.0
10
2365.19282659384
20
609
10
2365.19282659384
20
669.08125794129023
10
2366.19282659384
20
669.08125794129023
10
2366.19282659384
20
609
0
LWPOLYLINE
5
352
100
AcDbEntity
8
0
100
AcDbPolyline
90
4
70
1
43
0.0
10
2250.2029366730076
20
609
10
2249.2029366730076
20
609
10
2249.2029366730076
20
669
10
2250.2029366730076
20
669
0
LINE
5
353
100
AcDbEntity
8
0
100
AcDbLine
10
2423.69282659384
20
669
30
0
11
2423.69282659384
21
549
31
0
0
LINE
5
354
100
AcDbEntity
8
0
100
AcDbLine
10
2423.69282659384
20
549
30
0
11
2423.69282659384
21
669
31
0
0
LINE
5
355
100
AcDbEntity
8
0
100
AcDbLine
10
2423.69282659384
20
669
30
0
11
2017.69282659384
21
669
31
0
0
LWPOLYLINE
5
356
100
AcDbEntity
8
0
100
AcDbPolyline
90
4
70
1
43
0.0
10
2308.19282659384
20
609
10
2307.1928265938404
20
609
10
2307.1928265938404
20
669
10
2308.19282659384
20
669
0
LINE
5
357
100
AcDbEntity
8
0
100
AcDbLine
10
2423.69282659384
20
640.2208908767808
30
0
11
2423.69282659384
21
669
31
0
0
LINE
5
358
100
AcDbEntity
8
0
100
AcDbLine
10
2017.69282659384
20
549
30
0
11
2423.69282659384
21
549
31
0
0
LINE
5
359
100
AcDbEntity
8
0
100
AcDbLine
10
2423.69282659384
20
640.2208908767808
30
0
11
2423.69282659384
21
609
31
0
0
LWPOLYLINE
5
360
100
AcDbEntity
8
0
100
AcDbPolyline
90
4
70
1
43
0.0
10
192.19282659384007
20
849
10
192.19282659384007
20
789
10
191.19282659383998
20
789
10
191.19282659383998
20
849
0
LWPOLYLINE
5
361
100
AcDbEntity
8
0
100
AcDbPolyline
90
4
70
1
43
0.0
10
134.07556283684141
20
849
10
134.07556283684141
20
789
10
133.07556283684141
20
789
10
133.07556283684141
20
849
0
LINE
5
362
100
AcDbEntity
8
0
100
AcDbLine
10
17.692826593839968
20
849
30
0
11
17.692826593839971
21
729
31
0
0
LWPOLYLINE
5
363
100
AcDbEntity
8
0
100
AcDbPolyline
90
4
70
1
43
0.0
10
76.192826593839982
20
849
10
76.192826593839982
20
789
10
75.19282659384001
20
789
10
75.19282659384001
20
849
0
LWPOLYLINE
5
364
100
AcDbEntity
8
0
100
AcDbPolyline
90
4
70
1
43
0.0
10
365.19282659384004
20
789
10
365.19282659384004
20
849.08125794129023
10
366.19282659384004
20
849.08125794129023
10
366.19282659384004
20
789
0
LWPOLYLINE
5
365
100
AcDbEntity
8
0
100
AcDbPolyline
90
4
70
1
43
0.0
10
250.20293667300731
20
789
10
249.20293667300729
20
789
10
249.20293667300729
20
849
10
250.20293667300731
20
849
0
LINE
5
366
100
AcDbEntity
8
0
100
AcDbLine
10
423.69282659384004
20
849
30
0
11
423.69282659383998
21
729
31
0
0
LINE
5
367
100
AcDbEntity
8
0
100
AcDbLine
10
423.69282659383998
20
729
30
0
11
423.69282659384004
21
849
31
0
0
LINE
5
368
100
AcDbEntity
8
0
100
AcDbLine
10
423.69282659384004
20
849
30
0
11
17.692826593839968
21
849
31
0
0
LWPOLYLINE
5
369
100
AcDbEntity
8
0
100
AcDbPolyline
90
4
70
1
43
0.0
10
308.19282659384004
20
789
10
307.1928265938401
20
789
10
307.1928265938401
20
849
10
308.19282659384004
20
849
0
LINE
5
370
100
AcDbEntity
8
0
100
AcDbLine
10
423.69282659384004
20
820.2208908767808
30
0
11
423.69282659384004
21
849
31
0
0
LINE
5
371
100
AcDbEntity
8
0
100
AcDbLine
10
17.692826593839971
20
729
30
0
11
423.69282659383998
21
729
31
0
0
LINE
5
372
100
AcDbEntity
8
0
100
AcDbLine
10
423.69282659384004
20
820.2208908767808
30
0
11
423.69282659384004
21
789
31
0
0
LWPOLYLINE
5
373
100
AcDbEntity
8
0
100
AcDbPolyline
90
4
70
1
43
0.0
10
692.1928265938401
20
849
10
692.1928265938401
20
789
10
691.19282659383998
20
789
10
691.19282659383998
20
849
0
LWPOLYLINE
5
374
100
AcDbEntity
8
0
100
AcDbPolyline
90
4
70
1
43
0.0
10
634.07556283684141
20
849
10
634.07556283684141
20
789
10
633.07556283684141
20
789
10
633.07556283684141
20
849
0
LINE
5
375
100
AcDbEntity
8
0
100
AcDbLine
10
517.69282659383998
20
849
30
0
11
517.69282659383998
21
729
31
0
0
LWPOLYLINE
5
376
100
AcDbEntity
8
0
100
AcDbPolyline
90
4
70
1
43
0.0
10
576.19282659383998
20
849
10
576.19282659383998
20
789
10
575.19282659383998
20
789
10
575.19282659383998
20
849
0
LWPOLYLINE
5
377
100
AcDbEntity
8
0
100
AcDbPolyline
90
4
70
1
43
0.0
10
865.19282659383998
20
789
10
865.19282659383998
20
849.08125794129023
10
866.19282659383998
20
849.08125794129023
10
866.19282659383998
20
789
0
LWPOLYLINE
5
378
100
AcDbEntity
8
0
100
AcDbPolyline
90
4
70
1
43
0.0
10
750.20293667300734
20
789
10
749.20293667300723
20
789
10
749.20293667300723
20
849
10
750.20293667300734
20
849
0
LINE
5
379
100
AcDbEntity
8
0
100
AcDbLine
10
923.69282659383998
20
849
30
0
11
923.69282659383998
21
729
31
0
0
LINE
5
380
100
AcDbEntity
8
0
100
AcDbLine
10
923.69282659383998
20
729
30
0
11
923.69282659383998
21
849
31
0
0
LINE
5
381
100
AcDbEntity
8
0
100
AcDbLine
10
923.69282659383998
20
849
30
0
11
517.69282659383998
21
849
31
0
0
LWPOLYLINE
5
382
100
AcDbEntity
8
0
100
AcDbPolyline
90
4
70
1
43
0.0
10
808.19282659383998
20
789
10
807.1928265938401
20
789
10
807.1928265938401
20
849
10
808.19282659383998
20
849
0
LINE
5
383
100
AcDbEntity
8
0
100
AcDbLine
10
923.69282659383998
20
820.2208908767808
30
0
11
923.69282659383998
21
849
31
0
0
LINE
5
384
100
AcDbEntity
8
0
100
AcDbLine
10
517.69282659383998
20
729
30
0
11
923.69282659383998
21
729
31
0
0
LINE
5
385
100
AcDbEntity
8
0
100
AcDbLine
10
923.69282659383998
20
820.2208908767808
30
0
11
923.69282659383998
21
789
31
0
0
LWPOLYLINE
5
386
100
AcDbEntity
8
0
100
AcDbPolyline
90
4
70
1
43
0.0
10
1192.19282659384
20
849
10
1192.19282659384
20
789
10
1191.19282659384
20
789
10
1191.19282659384
20
849
0
LWPOLYLINE
5
387
100
AcDbEntity
8
0
100
AcDbPolyline
90
4
70
1
43
0.0
10
1134.0755628368415
20
849
10
1134.0755628368415
20
789
10
1133.0755628368413
20
789
10
1133.0755628368413
20
849
0
LINE
5
388
100
AcDbEntity
8
0
100
AcDbLine
10
1017.69282659384
20
849
30
0
11
1017.69282659384
21
729
31
0
0
LWPOLYLINE
5
389
100
AcDbEntity
8
0
100
AcDbPolyline
90
4
70
1
43
0.0
10
1076.19282659384
20
849
10
1076.19282659384
20
789
10
1075.19282659384
20
789
10
1075.19282659384
20
849
0
LWPOLYLINE
5
390
100
AcDbEntity
8
0
100
AcDbPolyline
90
4
70
1
43
0.0
10
1365.19282659384
20
789
10
1365.19282659384
20
849.08125794129023
10
1366.19282659384
20
849.08125794129023
10
1366.19282659384
20
789
0
LWPOLYLINE
5
391
100
AcDbEntity
8
0
100
AcDbPolyline
90
4
70
1
43
0.0
10
1250.2029366730073
20
789
10
1249.2029366730073
20
789
10
1249.2029366730073
20
849
10
1250.2029366730073
20
849
0
LINE
5
392
100
AcDbEntity
8
0
100
AcDbLine
10
1423.69282659384
20
849
30
0
11
1423.69282659384
21
729
31
0
0
LINE
5
393
100
AcDbEntity
8
0
100
AcDbLine
10
1423.69282659384
20
729
30
0
11
1423.69282659384
21
849
31
0
0
LINE
5
394
100
AcDbEntity
8
0
100
AcDbLine
10
1423.69282659384
20
849
30
0
11
1017.69282659384
21
849
31
0
0
LWPOLYLINE
5
395
100
AcDbEntity
8
0
100
AcDbPolyline
90
4
70
1
43
0.0
10
1308.1928265938402
20
789
10
1307.1928265938402
20
789
10
1307.1928265938402
20
849
10
1308.1928265938402
20
849
0
LINE
5
396
100
AcDbEntity
8
0
100
AcDbLine
10
1423.69282659384
20
820.2208908767808
30
0
11
1423.69282659384
21
849
31
0
0
LINE
5
397
100
AcDbEntity
8
0
100
AcDbLine
10
1017.69282659384
20
729
30
0
11
1423.69282659384
21
729
31
0
0
LINE
5
398
100
AcDbEntity
8
0
100
AcDbLine
10
1423.69282659384
20
820.2208908767808
30
0
11
1423.69282659384
21
789
31
0
0
LWPOLYLINE
5
399
100
AcDbEntity
8
0
100
AcDbPolyline
90
4
70
1
43
0.0
10
1692.1928265938402
20
849
10
1692.1928265938402
20
789
10
1691.19282659384
20
789
10
1691.19282659384
20
849
0
LWPOLYLINE
5
400
100
AcDbEntity
8
0
100
AcDbPolyline
90
4
70
1
43
0.0
10
1634.0755628368413
20
849
10
1634.0755628368413
20
789
10
1633.0755628368413
20
789
10
1633.0755628368413
20
849
0
LINE
5
401
100
AcDbEntity
8
0
100
AcDbLine
10
1517.69282659384
20
849
30
0
11
1517.69282659384
21
729
31
0
0
LWPOLYLINE
5
402
100
AcDbEntity
8
0
100
AcDbPolyline
90
4
70
1
43
0.0
10
1576.19282659384
20
849
10
1576.19282659384
20
789
10
1575.19282659384
20
789
10
1575.19282659384
20
849
0
LWPOLYLINE
5
403
100
AcDbEntity
8
0
100
AcDbPolyline
90
4
70
1
43
0.0
10
1865.19282659384
20
789
10
1865.19282659384
20
849.08125794129023
10
1866.19282659384
20
849.08125794129023
10
1866.19282659384
20
789
0
LWPOLYLINE
5
404
100
AcDbEntity
8
0
100
AcDbPolyline
90
4
70
1
43
0.0
10
1750.2029366730073
20
789
10
1749.2029366730073
20
789
10
1749.2029366730073
20
849
10
1750.2029366730073
20
849
0
LINE
5
405
100
AcDbEntity
8
0
100
AcDbLine
10
1923.69282659384
20
849
30
0
11
1923.69282659384
21
729
31
0
0
LINE
5
406
100
AcDbEntity
8
0
100
AcDbLine
10
1923.69282659384
20
729
30
0
11
1923.69282659384
21
849
31
0
0
LINE
5
407
100
AcDbEntity
8
0
100
AcDbLine
10
1923.69282659384
20
849
30
0
11
1517.69282659384
21
849
31
0
0
LWPOLYLINE
5
408
100
AcDbEntity
8
0
100
AcDbPolyline
90
4
70
1
43
0.0
10
1808.1928265938402
20
789
10
1807.1928265938402
20
789
10
1807.1928265938402
20
849
10
1808.1928265938402
20
849
0
LINE
5
409
100
AcDbEntity
8
0
100
AcDbLine
10
1923.69282659384
20
820.2208908767808
30
0
11
1923.69282659384
21
849
31
0
0
LINE
5
410
100
AcDbEntity
8
0
100
AcDbLine
10
1517.69282659384
20
729
30
0
11
1923.69282659384
21
729
31
0
0
LINE
5
411
100
AcDbEntity
8
0
100
AcDbLine
10
1923.69282659384
20
820.2208908767808
30
0
11
1923.69282659384
21
789
31
0
0
LWPOLYLINE
5
412
100
AcDbEntity
8
0
100
AcDbPolyline
90
4
70
1
43
0.0
10
2192.1928265938404
20
849
10
2192.1928265938404
20
789
10
2191.19282659384
20
789
10
2191.19282659384
20
849
0
LWPOLYLINE
5
413
100
AcDbEntity
8
0
100
AcDbPolyline
90
4
70
1
43
0.0
10
2134.0755628368415
20
849
10
2134.0755628368415
20
789
10
2133.0755628368415
20
789
10
2133.0755628368415
20
849
0
LINE
5
414
100
AcDbEntity
8
0
100
AcDbLine
10
2017.69282659384
20
849
30
0
11
2017.69282659384
21
729
31
0
0
LWPOLYLINE
5
415
100
AcDbEntity
8
0
100
AcDbPolyline
90
4
70
1
43
0.0
10
2076.19282659384
20
849
10
2076.19282659384
20
789
10
2075.19282659384
20
789
10
2075.19282659384
20
849
0
LWPOLYLINE
5
416
100
AcDbEntity
8
0
100
AcDbPolyline
90
4
70
1
43
0.0
10
2365.19282659384
20
789
10
2365.19282659384
20
849.08125794129023
10
2366.19282659384
20
849.08125794129023
10
2366.19282659384
20
789
0
LWPOLYLINE
5
417
100
AcDbEntity
8
0
100
AcDbPolyline
90
4
70
1
43
0.0
10
2250.2029366730076
20
789
10
2249.2029366730076
20
789
10
2249.2029366730076
20
849
10
2250.2029366730076
20
849
0
LINE
5
418
100
AcDbEntity
8
0
100
AcDbLine
10
2423.69282659384
20
849
30
0
11
2423.69282659384
21
729
31
0
0
LINE
5
419
100
AcDbEntity
8
0
100
AcDbLine
10
2423.69282659384
20
729
30
0
11
2423.69282659384
21
849
31
0
0
LINE
5
420
100
AcDbEntity
8
0
100
AcDbLine
10
2423.69282659384
20
849
30
0
11
2017.69282659384
21
849
31
0
0
LWPOLYLINE
5
421
100
AcDbEntity
8
0
100
AcDbPolyline
90
4
70
1
43
0.0
10
2308.19282659384
20
789
10
2307.1928265938404
20
789
10
2307.1928265938404
20
849
10
2308.19282659384
20
849
0
LINE
5
422
100
AcDbEntity
8
0
100
AcDbLine
10
2423.69282659384
20
820.2208908767808
30
0
11
2423.69282659384
21
849
31
0
0
LINE
5
423
100
AcDbEntity
8
0
100
AcDbLine
10
2017.69282659384
20
729
30
0
11
2423.69282659384
21
729
31
0
0
LINE
5
424
100
AcDbEntity
8
0
100
AcDbLine
10
2423.69282659384
20
820.2208908767808
30
0
11
2423.69282659384
21
789
31
0
0
LWPOLYLINE
5
425
100
AcDbEntity
8
0
100
AcDbPolyline
90
4
70
1
43
0.0
10
192.19282659384007
20
1029
10
192.19282659384007
20
969
10
191.19282659383998
20
969
10
191.19282659383998
20
1029
0
LWPOLYLINE
5
426
100
AcDbEntity
8
0
100
AcDbPolyline
90
4
70
1
43
0.0
10
134.07556283684141
20
1029
10
134.07556283684141
20
969
10
133.07556283684141
20
969
10
133.07556283684141
20
1029
0
LINE
5
427
100
AcDbEntity
8
0
100
AcDbLine
10
17.692826593839968
20
1029
30
0
11
17.692826593839971
21
909
31
0
0
LWPOLYLINE
5
428
100
AcDbEntity
8
0
100
AcDbPolyline
90
4
70
1
43
0.0
10
76.192826593839982
20
1029
10
76.192826593839982
20
969
10
75.19282659384001
20
969
10
75.19282659384001
20
1029
0
LWPOLYLINE
5
429
100
AcDbEntity
8
0
100
AcDbPolyline
90
4
70
1
43
0.0
10
365.19282659384004
20
969
10
365.19282659384004
20
1029.0812579412902
10
366.19282659384004
20
1029.0812579412902
10
366.19282659384004
20
969
0
LWPOLYLINE
5
430
100
AcDbEntity
8
0
100
AcDbPolyline
90
4
70
1
43
0.0
10
250.20293667300731
20
969
10
249.20293667300729
20
969
10
249.20293667300729
20
1029
10
250.20293667300731
20
1029
0
LINE
5
431
100
AcDbEntity
8
0
100
AcDbLine
10
423.69282659384004
20
1029
30
0
11
423.69282659383998
21
909
31
0
0
LINE
5
432
100
AcDbEntity
8
0
100
AcDbLine
10
423.69282659383998
20
909
30
0
11
423.69282659384004
21
1029
31
0
0
LINE
5
433
100
AcDbEntity
8
0
100
AcDbLine
10
423.69282659384004
20
1029
30
0
11
17.692826593839968
21
1029
31
0
0
LWPOLYLINE
5
434
100
AcDbEntity
8
0
100
AcDbPolyline
90
4
70
1
43
0.0
10
308.19282659384004
20
969
10
307.1928265938401
20
969
10
307.1928265938401
20
1029
10
308.19282659384004
20
1029
0
LINE
5
435
100
AcDbEntity
8
0
100
AcDbLine
10
423.69282659384004
20
1000.2208908767808
30
0
11
423.69282659384004
21
1029
31
0
0
LINE
5
436
100
AcDbEntity
8
0
100
AcDbLine
10
17.692826593839971
20
909
30
0
11
423.69282659383998
21
909
31
0
0
LINE
5
437
100
AcDbEntity
8
0
100
AcDbLine
10
423.69282659384004
20
1000.2208908767808
30
0
11
423.69282659384004
21
969
31
0
0
LWPOLYLINE
5
438
100
AcDbEntity
8
0
100
AcDbPolyline
90
4
70
1
43
0.0
10
692.1928265938401
20
1029
10
692.1928265938401
20
969
10
691.19282659383998
20
969
10
691.19282659383998
20
1029
0
LWPOLYLINE
5
439
100
AcDbEntity
8
0
100
AcDbPolyline
90
4
70
1
43
0.0
10
634.07556283684141
20
1029
10
634.07556283684141
20
969
10
633.07556283684141
20
969
10
633.07556283684141
20
1029
0
LINE
5
440
100
AcDbEntity
8
0
100
AcDbLine
10
517.69282659383998
20
1029
30
0
11
517.69282659383998
21
909
31
0
0
LWPOLYLINE
5
441
100
AcDbEntity
8
0
100
AcDbPolyline
90
4
70
1
43
0.0
10
576.19282659383998
20
1029
10
576.19282659383998
20
969
10
575.19282659383998
20
969
10
575.19282659383998
20
1029
0
LWPOLYLINE
5
442
100
AcDbEntity
8
0
100
AcDbPolyline
90
4
70
1
43
0.0
10
865.19282659383998
20
969
10
865.19282659383998
20
1029.0812579412902
10
866.19282659383998
20
1029.0812579412902
10
866.19282659383998
20
969
0
LWPOLYLINE
5
443
100
AcDbEntity
8
0
100
AcDbPolyline
90
4
70
1
43
0.0
10
750.20293667300734
20
969
10
749.20293667300723
20
969
10
749.20293667300723
20
1029
10
750.20293667300734
20
1029
0
LINE
5
444
100
AcDbEntity
8
0
100
AcDbLine
10
923.69282659383998
20
1029
30
0
11
923.69282659383998
21
909
31
0
0
LINE
5
445
100
AcDbEntity
8
0
100
AcDbLine
10
923.69282659383998
20
909
30
0
11
923.69282659383998
21
1029
31
0
0
LINE
5
446
100
AcDbEntity
8
0
100
AcDbLine
10
923.69282659383998
20
1029
30
0
11
517.69282659383998
21
1029
31
0
0
LWPOLYLINE
5
447
100
AcDbEntity
8
0
100
AcDbPolyline
90
4
70
1
43
0.0
10
808.19282659383998
20
969
10
807.1928265938401
20
969
10
807.1928265938401
20
1029
10
808.19282659383998
20
1029
0
LINE
5
448
100
AcDbEntity
8
0
100
AcDbLine
10
923.69282659383998
20
1000.2208908767808
30
0
11
923.69282659383998
21
1029
31
0
0
LINE
5
449
100
AcDbEntity
8
0
100
AcDbLine
10
517.69282659383998
20
909
30
0
11
923.69282659383998
21
909
31
0
0
LINE
5
450
100
AcDbEntity
8
0
100
AcDbLine
10
923.69282659383998
20
1000.2208908767808
30
0
11
923.69282659383998
21
969
31
0
0
LWPOLYLINE
5
451
100
AcDbEntity
8
0
100
AcDbPolyline
90
4
70
1
43
0.0
10
1192.19282659384
20
1029
10
1192.19282659384
20
969
10
1191.19282659384
20
969
10
1191.19282659384
20
1029
0
LWPOLYLINE
5
452
100
AcDbEntity
8
0
100
AcDbPolyline
90
4
70
1
43
0.0
10
1134.0755628368415
20
1029
10
1134.0755628368415
20
969
10
1133.0755628368413
20
969
10
1133.0755628368413
20
1029
0
LINE
5
453
100
AcDbEntity
8
0
100
AcDbLine
10
1017.69282659384
20
1029
30
0
11
1017.69282659384
21
909
31
0
0
LWPOLYLINE
5
454
100
AcDbEntity
8
0
100
AcDbPolyline
90
4
70
1
43
0.0
10
1076.19282659384
20
1029
10
1076.19282659384
20
969
10
1075.19282659384
20
969
10
1075.19282659384
20
1029
0
LWPOLYLINE
5
455
100
AcDbEntity
8
0
100
AcDbPolyline
90
4
70
1
43
0.0
10
1365.19282659384
20
969
10
1365.19282659384
20
1029.0812579412902
10
1366.19282659384
20
1029.0812579412902
10
1366.19282659384
20
969
0
LWPOLYLINE
5
456
100
AcDbEntity
8
0
100
AcDbPolyline
90
4
70
1
43
0.0
10
1250.2029366730073
20
969
10
1249.2029366730073
20
969
10
1249.2029366730073
20
1029
10
1250.2029366730073
20
1029
0
LINE
5
457
100
AcDbEntity
8
0
100
AcDbLine
10
1423.69282659384
20
1029
30
0
11
1423.69282659384
21
909
31
0
0
LINE
5
458
100
AcDbEntity
8
0
100
AcDbLine
10
1423.69282659384
20
909
30
0
11
1423.69282659384
21
1029
31
0
0
LINE
5
459
100
AcDbEntity
8
0
100
AcDbLine
10
1423.69282659384
20
1029
30
0
11
1017.69282659384
21
1029
31
0
0
LWPOLYLINE
5
460
100
AcDbEntity
8
0
100
AcDbPolyline
90
4
70
1
43
0.0
10
1308.1928265938402
20
969
10
1307.1928265938402
20
969
10
1307.1928265938402
20
1029
10
1308.1928265938402
20
1029
0
LINE
5
461
100
AcDbEntity
8
0
100
AcDbLine
10
1423.69282659384
20
1000.2208908767808
30
0
11
1423.69282659384
21
1029
31
0
0
LINE
5
462
100
AcDbEntity
8
0
100
AcDbLine
10
1017.69282659384
20
909
30
0
11
1423.69282659384
21
909
31
0
0
LINE
5
463
100
AcDbEntity
8
0
100
AcDbLine
10
1423.69282659384
20
1000.2208908767808
30
0
11
1423.69282659384
21
969
31
0
0
LWPOLYLINE
5
464
100
AcDbEntity
8
0
100
AcDbPolyline
90
4
70
1
43
0.0
10
1692.1928265938402
20
1029
10
1692.1928265938402
20
969
10
1691.19282659384
20
969
10
1691.19282659384
20
1029
0
LWPOLYLINE
5
465
100
AcDbEntity
8
0
100
AcDbPolyline
90
4
70
1
43
0.0
10
1634.0755628368413
20
1029
10
1634.0755628368413
20
969
10
1633.0755628368413
20
969
10
1633.0755628368413
20
1029
0
LINE
5
466
100
AcDbEntity
8
0
100
AcDbLine
10
1517.69282659384
20
1029
30
0
11
1517.69282659384
21
909
31
0
0
LWPOLYLINE
5
467
100
AcDbEntity
8
0
100
AcDbPolyline
90
4
70
1
43
0.0
10
1576.19282659384
20
1029
10
1576.19282659384
20
969
10
1575.19282659384
20
969
10
1575.19282659384
20
1029
0
LWPOLYLINE
5
468
100
AcDbEntity
8
0
100
AcDbPolyline
90
4
70
1
43
0.0
10
1865.19282659384
20
969
10
1865.19282659384
20
1029.0812579412902
10
1866.19282659384
20
1029.0812579412902
10
1866.19282659384
20
969
0
LWPOLYLINE
5
469
100
AcDbEntity
8
0
100
AcDbPolyline
90
4
70
1
43
0.0
10
1750.2029366730073
20
969
10
1749.2029366730073
20
969
10
1749.2029366730073
20
1029
10
1750.2029366730073
20
1029
0
LINE
5
470
100
AcDbEntity
8
0
100
AcDbLine
10
1923.69282659384
20
1029
30
0
11
1923.69282659384
21
909
31
0
0
LINE
5
471
100
AcDbEntity
8
0
100
AcDbLine
10
1923.69282659384
20
909
30
0
11
1923.69282659384
21
1029
31
0
0
LINE
5
472
100
AcDbEntity
8
0
100
AcDbLine
10
1923.69282659384
20
1029
30
0
11
1517.69282659384
21
1029
31
0
0
LWPOLYLINE
5
473
100
AcDbEntity
8
0
100
AcDbPolyline
90
4
70
1
43
0.0
10
1808.1928265938402
20
969
10
1807.1928265938402
20
969
10
1807.1928265938402
20
1029
10
1808.1928265938402
20
1029
0
LINE
5
474
100
AcDbEntity
8
0
100
AcDbLine
10
1923.69282659384
20
1000.2208908767808
30
0
11
1923.69282659384
21
1029
31
0
0
LINE
5
475
100
AcDbEntity
8
0
100
AcDbLine
10
1517.69282659384
20
909
30
0
11
1923.69282659384
21
909
31
0
0
LINE
5
476
100
AcDbEntity
8
0
100
AcDbLine
10
1923.69282659384
20
1000.2208908767808
30
0
11
1923.69282659384
21
969
31
0
0
LWPOLYLINE
5
477
100
AcDbEntity
8
0
100
AcDbPolyline
90
4
70
1
43
0.0
10
2192.1928265938404
20
1029
10
2192.1928265938404
20
969
10
2191.19282659384
20
969
10
2191.19282659384
20
1029
0
LWPOLYLINE
5
478
100
AcDbEntity
8
0
100
AcDbPolyline
90
4
70
1
43
0.0
10
2134.0755628368415
20
1029
10
2134.0755628368415
20
969
10
2133.0755628368415
20
969
10
2133.0755628368415
20
1029
0
LINE
5
479
100
AcDbEntity
8
0
100
AcDbLine
10
2017.69282659384
20
1029
30
0
11
2017.69282659384
21
909
31
0
0
LWPOLYLINE
5
480
100
AcDbEntity
8
0
100
AcDbPolyline
90
4
70
1
43
0.0
10
2076.19282659384
20
1029
10
2076.19282659384
20
969
10
2075.19282659384
20
969
10
2075.19282659384
20
1029
0
LWPOLYLINE
5
481
100
AcDbEntity
8
0
100
AcDbPolyline
90
4
70
1
43
0.0
10
2365.19282659384
20
969
10
2365.19282659384
20
1029.0812579412902
10
2366.19282659384
20
1029.0812579412902
10
2366.19282659384
20
969
0
LWPOLYLINE
5
482
100
AcDbEntity
8
0
100
AcDbPolyline
90
4
70
1
43
0.0
10
2250.2029366730076
20
969
10
2249.2029366730076
20
969
10
2249.2029366730076
20
1029
10
2250.2029366730076
20
1029
0
LINE
5
483
100
AcDbEntity
8
0
100
AcDbLine
10
2423.69282659384
20
1029
30
0
11
2423.69282659384
21
909
31
0
0
LINE
5
484
100
AcDbEntity
8
0
100
AcDbLine
10
2423.69282659384
20
909
30
0
11
2423.69282659384
21
1029
31
0
0
LINE
5
485
100
AcDbEntity
8
0
100
AcDbLine
10
2423.69282659384
20
1029
30
0
11
2017.69282659384
21
1029
31
0
0
LWPOLYLINE
5
486
100
AcDbEntity
8
0
100
AcDbPolyline
90
4
70
1
43
0.0
10
2308.19282659384
20
969
10
2307.1928265938404
20
969
10
2307.1928265938404
20
1029
10
2308.19282659384
20
1029
0
LINE
5
487
100
AcDbEntity
8
0
100
AcDbLine
10
2423.69282659384
20
1000.2208908767808
30
0
11
2423.69282659384
21
1029
31
0
0
LINE
5
488
100
AcDbEntity
8
0
100
AcDbLine
10
2017.69282659384
20
909
30
0
11
2423.69282659384
21
909
31
0
0
LINE
5
489
100
AcDbEntity
8
0
100
AcDbLine
10
2423.69282659384
20
1000.2208908767808
30
0
11
2423.69282659384
21
969
31
0
0
ENDSEC
0
SECTION
2
OBJECTS
0
DICTIONARY
5
C
100
AcDbDictionary
3
ACAD_GROUP
350
D
3
ACAD_MLINESTYLE
350
17
0
DICTIONARY
5
D
100
AcDbDictionary
0
DICTIONARY
5
1A
330
C
100
AcDbDictionary
0
DICTIONARY
5
17
100
AcDbDictionary
0
ENDSEC
0
EOF
