0
SECTION
2
HEADER
9
$INSUNITS
70
4
9
$ACADVER
1
AC1014
9
$HANDSEED
5
FFFF
0
ENDSEC
0
SECTION
2
TABLES
0
TABLE
2
VPORT
5
8
100
AcDbSymbolTable
0
ENDTAB
0
TABLE
2
LTYPE
5
5
100
AcDbSymbolTable
0
LTYPE
5
14
100
AcDbSymbolTableRecord
100
AcDbLinetypeTableRecord
2
BYBLOCK
70
0
0
LTYPE
5
15
100
AcDbSymbolTableRecord
100
AcDbLinetypeTableRecord
2
BYLAYER
70
0
0
ENDTAB
0
TABLE
2
LAYER
5
2
100
AcDbSymbolTable
70
2
0
LAYER
5
50
100
AcDbSymbolTableRecord
100
AcDbLayerTableRecord
2
0
70
0
6
CONTINUOUS
0
ENDTAB
0
TABLE
2
STYLE
5
3
100
AcDbSymbolTable
70
1
0
STYLE
5
11
100
AcDbSymbolTableRecord
100
AcDbTextStyleTableRecord
2
STANDARD
70
0
0
ENDTAB
0
TABLE
2
VIEW
5
6
100
AcDbSymbolTable
70
0
0
ENDTAB
0
TABLE
2
UCS
5
7
100
AcDbSymbolTable
70
0
0
ENDTAB
0
TABLE
2
APPID
5
9
100
AcDbSymbolTable
70
2
0
APPID
5
12
100
AcDbSymbolTableRecord
100
AcDbRegAppTableRecord
2
ACAD
70
0
0
ENDTAB
0
TABLE
2
DIMSTYLE
5
A
100
AcDbSymbolTable
70
1
0
ENDTAB
0
TABLE
2
BLOCK_RECORD
5
1
100
AcDbSymbolTable
70
1
0
BLOCK_RECORD
5
1F
100
AcDbSymbolTableRecord
100
AcDbBlockTableRecord
2
*MODEL_SPACE
0
BLOCK_RECORD
5
1B
100
AcDbSymbolTableRecord
100
AcDbBlockTableRecord
2
*PAPER_SPACE
0
ENDTAB
0
ENDSEC
0
SECTION
2
BLOCKS
0
BLOCK
5
20
100
AcDbEntity
100
AcDbBlockBegin
2
*MODEL_SPACE
0
ENDBLK
5
21
100
AcDbEntity
100
AcDbBlockEnd
0
BLOCK
5
1C
100
AcDbEntity
100
AcDbBlockBegin
2
*PAPER_SPACE
0
ENDBLK
5
1D
100
AcDbEntity
100
AcDbBlockEnd
0
ENDSEC
0
SECTION
2
ENTITIES
0
CIRCLE
5
100
100
AcDbEntity
8
0
100
AcDbCircle
10
-50.322800855118572
20
-426.99140018943035
30
0
40
1.5875000000000126
0
CIRCLE
5
101
100
AcDbEntity
8
0
100
AcDbCircle
10
9.0359712269745529
20
-33.778033405453378
30
0
40
1.5875000000000126
0
CIRCLE
5
102
100
AcDbEntity
8
0
100
AcDbCircle
10
-44.687564677622277
20
-389.66161535305071
30
0
40
1.5874999999999955
0
CIRCLE
5
103
100
AcDbEntity
8
0
100
AcDbCircle
10
3.4007350494779764
20
-71.10781824183654
30
0
40
1.5874999999999773
0
CIRCLE
5
104
100
AcDbEntity
8
0
100
AcDbCircle
10
-192.05359906814658
20
-51.56985484228656
30
0
40
1.5874999999999948
0
CIRCLE
5
105
100
AcDbEntity
8
0
100
AcDbCircle
10
-214.626603452192
20
-201.10136873553898
30
0
40
1.5874999999999992
0
CIRCLE
5
106
100
AcDbEntity
8
0
100
AcDbCircle
10
-237.19960783623725
20
-350.63288262879121
30
0
40
1.5874999999999955
0
ELLIPSE
5
107
100
AcDbEntity
8
0
100
AcDbEllipse
10
-418.65036057308043
20
-12.168994913152886
30
0
11
2.3954449535068537e-11
21
-1.5875005802289666
31
0.0
40
0.99999963450158036
41
0
42
6.2831853071795862
0
ELLIPSE
5
108
100
AcDbEntity
8
0
100
AcDbEllipse
10
-279.12407485879464
20
-12.168994913153384
30
4.0389678347315804e-27
11
1.7634137206012923e-10
21
-1.5875005802289666
31
0.0
40
0.99999963450158036
41
0
42
6.2831853071795862
0
ELLIPSE
5
109
100
AcDbEntity
8
0
100
AcDbEllipse
10
-139.59778914450905
20
-12.168994913154094
30
0
11
1.7634137206012923e-10
21
-1.5875005802289666
31
0.0
40
0.99999963450158036
41
0
42
6.2831853071795862
0
ELLIPSE
5
110
100
AcDbEntity
8
0
100
AcDbEllipse
10
-0.071503430223280873
20
-12.168994913154592
30
0
11
1.7622781706139179e-10
21
-1.5875005802289663
31
0.0
40
0.99999963450158036
41
0.022522669803570271
42
3.1190699842683323
0
ELLIPSE
5
111
100
AcDbEntity
8
0
100
AcDbEllipse
10
-9.5923269327614171e-13
20
-12.168994913129509
30
-4.0389678347315804e-27
11
7.4710966579960569e-11
21
-1.5875005802289313
31
0.0
40
0.99999963450158025
41
3.1641153234474277
42
6.2606626379319534
0
ELLIPSE
5
112
100
AcDbEntity
8
0
100
AcDbEllipse
10
-837.22921771593758
20
-12.16899491315111
30
0
11
-2.6823439303047536e-11
21
-1.5875005802289492
31
0.0
40
0.99999963450158003
41
0
42
6.2831853071795862
0
ELLIPSE
5
113
100
AcDbEntity
8
0
100
AcDbEllipse
10
-697.70293200165202
20
-12.168994913151678
30
4.0389678347315804e-27
11
-2.6823439303047536e-11
21
-1.5875005802289492
31
0.0
40
0.99999963450158003
41
0
42
6.2831853071795862
0
ELLIPSE
5
114
100
AcDbEntity
8
0
100
AcDbEllipse
10
-558.17664628736622
20
-12.168994913152247
30
0
11
-2.6775873185336249e-11
21
-1.5875005802289486
31
0.0
40
0.99999963450158025
41
0
42
6.2831853071795862
0
ELLIPSE
5
115
100
AcDbEntity
8
0
100
AcDbEllipse
10
-976.7555034302236
20
-12.168994913150541
30
0
11
1.2278674604848661e-10
21
-1.5875005802289486
31
0.0
40
0.99999963450158036
41
0
42
6.2831853071795862
0
LWPOLYLINE
5
116
100
AcDbEntity
8
0
100
AcDbPolyline
90
4
70
1
43
0.0
10
-65.837529818836416
20
-446.47600531728438
42
-0.40774202085245076
10
-66.851459045660619
20
-444.5009994809742
42
-0.4077420210408686
10
-64.900187643312023
20
-443.44211306208922
42
-0.4077420208343025
10
-63.88625841647783
20
-445.41711889831498
42
-0.40774202105331075
0
CIRCLE
5
117
100
AcDbEntity
8
0
100
AcDbCircle
10
-998.56456862484629
20
-156.64110895650805
30
0
40
1.587499999999995
0
CIRCLE
5
118
100
AcDbEntity
8
0
100
AcDbCircle
10
-865.25575034088104
20
-197.82779822570433
30
-4.0389678347315804e-27
40
1.587499999999995
0
CIRCLE
5
119
100
AcDbEntity
8
0
100
AcDbCircle
10
-731.94693205691635
20
-239.01448749490061
30
-4.0389678347315804e-27
40
1.587499999999995
0
CIRCLE
5
120
100
AcDbEntity
8
0
100
AcDbCircle
10
-598.63811377295133
20
-280.201176764097
30
4.0389678347315804e-27
40
1.587499999999995
0
CIRCLE
5
121
100
AcDbEntity
8
0
100
AcDbCircle
10
-465.32929548898653
20
-321.38786603329322
30
4.0389678347315804e-27
40
1.5875000000000132
0
CIRCLE
5
122
100
AcDbEntity
8
0
100
AcDbCircle
10
-332.02047720502151
20
-362.57455530248956
30
0
40
1.5875000000000132
0
CIRCLE
5
123
100
AcDbEntity
8
0
100
AcDbCircle
10
-198.71165892105671
20
-403.76124457168578
30
0
40
1.5875000000000132
0
LWPOLYLINE
5
124
100
AcDbEntity
8
0
100
AcDbPolyline
90
20
70
1
43
0.0
10
-37.494991736058999
20
-440.83244882065219
42
-0.40204359675653739
10
-68.927037318681812
20
-456.59691829607374
10
-1002.1570824535324
20
-168.26898635254804
42
-0.40204359675653734
10
-1019.2190727214067
20
-137.52194624380709
10
-1018.8838680698631
20
-135.89511385098922
10
-1002.2933483826864
20
-25.993681020333206
10
-1002.1333921123597
20
-24.340393451762697
42
-0.40204359675652962
10
-976.75550343022314
20
7.105427357600993e-14
10
8.9789287116559535e-14
20
-4.4408920985006262e-15
42
-0.40204359675654233
10
25.377888682137026
20
-24.340393451763838
10
25.217932411809159
20
-25.993681020320878
10
17.167065049238811
20
-79.325455754294666
42
-0.37098081687772549
10
-7.9483769730089193
20
-100.93407447208438
10
-94.276841949967789
20
-100.93407447208536
42
0.37098081687772366
10
-143.71668845045559
20
-143.47072549135652
10
-163.88848237648023
20
-277.09577745090553
42
0.37098081687772366
10
-129.20810899546493
20
-332.33106331130841
10
-46.726549399496633
20
-357.81431647676419
42
-0.37098081687772416
10
-29.108919721940758
20
-385.87384169384899
10
-37.159787084510171
20
-439.20561642782053
0
LINE
5
125
100
AcDbEntity
8
0
100
AcDbLine
10
-1002.2133702475232
20
-25.167037236048415
30
0
11
25.297910546973696
21
-25.167037236036904
31
0
0
LINE
5
126
100
AcDbEntity
8
0
100
AcDbLine
10
-1019.051470395636
20
-136.70853004740354
30
0
11
-37.327389410284155
21
-440.01903262423701
31
0
0
ENDSEC
0
SECTION
2
OBJECTS
0
DICTIONARY
5
C
100
AcDbDictionary
3
ACAD_GROUP
350
D
3
ACAD_MLINESTYLE
350
17
0
DICTIONARY
5
D
100
AcDbDictionary
0
DICTIONARY
5
1A
330
C
100
AcDbDictionary
0
DICTIONARY
5
17
100
AcDbDictionary
0
ENDSEC
0
EOF
