  0
SECTION
  2
HEADER
  9
$ACADVER
  1
AC1009
  9
$INSBASE
 10
0.0
 20
0.0
 30
0.0
  9
$EXTMIN
 10
0.0
 20
-0.0000000000000284
 30
0.0
  9
$EXTMAX
 10
208.2115497548008989
 20
240.0
 30
0.0000000000000007
  9
$LIMMIN
 10
0.0
 20
0.0
  9
$LIMMAX
 10
12.0
 20
9.0
  9
$ORTHOMODE
 70
     0
  9
$REGENMODE
 70
     1
  9
$FILLMODE
 70
     1
  9
$QTEXTMODE
 70
     0
  9
$MIRRTEXT
 70
     0
  9
$DRAGMODE
 70
     2
  9
$LTSCALE
 40
1.0
  9
$OSMODE
 70
  2815
  9
$ATTMODE
 70
     1
  9
$TEXTSIZE
 40
0.125
  9
$TRACEWID
 40
0.05
  9
$TEXTSTYLE
  7
HEADER
  9
$CLAYER
  8
0
  9
$CELTYPE
  6
BYLAYER
  9
$CECOLOR
 62
   256
  9
$DIMSCALE
 40
1.0
  9
$DIMASZ
 40
0.18
  9
$DIMEXO
 40
0.0625
  9
$DIMDLI
 40
0.125
  9
$DIMRND
 40
0.0
  9
$DIMDLE
 40
0.0
  9
$DIMEXE
 40
0.125
  9
$DIMTP
 40
0.0
  9
$DIMTM
 40
0.0
  9
$DIMTXT
 40
0.125
  9
$DIMCEN
 40
0.09
  9
$DIMTSZ
 40
0.0
  9
$DIMTOL
 70
     0
  9
$DIMLIM
 70
     0
  9
$DIMTIH
 70
     1
  9
$DIMTOH
 70
     1
  9
$DIMSE1
 70
     0
  9
$DIMSE2
 70
     0
  9
$DIMTAD
 70
     0
  9
$DIMZIN
 70
     0
  9
$DIMBLK
  1
ARCHTICK
  9
$DIMASO
 70
     1
  9
$DIMSHO
 70
     1
  9
$DIMPOST
  1

  9
$DIMAPOST
  1

  9
$DIMALT
 70
     0
  9
$DIMALTD
 70
     2
  9
$DIMALTF
 40
25.3999999999999986
  9
$DIMLFAC
 40
1.0
  9
$DIMTOFL
 70
     0
  9
$DIMTVP
 40
0.0
  9
$DIMTIX
 70
     0
  9
$DIMSOXD
 70
     0
  9
$DIMSAH
 70
     0
  9
$DIMBLK1
  1
ARCHTICK
  9
$DIMBLK2
  1
ARCHTICK
  9
$DIMSTYLE
  2
STANDARD
  9
$DIMCLRD
 70
   256
  9
$DIMCLRE
 70
     0
  9
$DIMCLRT
 70
   256
  9
$DIMTFAC
 40
1.0
  9
$DIMGAP
 40
0.09
  9
$LUNITS
 70
     4
  9
$LUPREC
 70
     4
  9
$SKETCHINC
 40
0.1
  9
$FILLETRAD
 40
0.0
  9
$AUNITS
 70
     0
  9
$AUPREC
 70
     0
  9
$MENU
  1
.
  9
$ELEVATION
 40
0.0
  9
$PELEVATION
 40
0.0
  9
$THICKNESS
 40
0.0
  9
$LIMCHECK
 70
     0
  9
$BLIPMODE
 70
     0
  9
$CHAMFERA
 40
0.0
  9
$CHAMFERB
 40
0.0
  9
$SKPOLY
 70
     0
  9
$TDCREATE
 40
2457082.5764870839193463
  9
$TDUPDATE
 40
2457175.9234567708335817
  9
$TDINDWG
 40
3.8950506712999999
  9
$TDUSRTIMER
 40
3.8950504976999998
  9
$USRTIMER
 70
     1
  9
$ANGBASE
 50
0.0
  9
$ANGDIR
 70
     0
  9
$PDMODE
 70
     0
  9
$PDSIZE
 40
0.0
  9
$PLINEWID
 40
0.0
  9
$COORDS
 70
     1
  9
$SPLFRAME
 70
     0
  9
$SPLINETYPE
 70
     6
  9
$SPLINESEGS
 70
     8
  9
$ATTDIA
 70
     1
  9
$ATTREQ
 70
     1
  9
$HANDLING
 70
     1
  9
$HANDSEED
  5
1192
  9
$SURFTAB1
 70
     6
  9
$SURFTAB2
 70
     6
  9
$SURFTYPE
 70
     6
  9
$SURFU
 70
     6
  9
$SURFV
 70
     6
  9
$UCSNAME
  2

  9
$UCSORG
 10
0.0
 20
0.0
 30
0.0
  9
$UCSXDIR
 10
1.0
 20
0.0
 30
0.0
  9
$UCSYDIR
 10
0.0
 20
1.0
 30
0.0
  9
$PUCSNAME
  2

  9
$PUCSORG
 10
0.0
 20
0.0
 30
0.0
  9
$PUCSXDIR
 10
1.0
 20
0.0
 30
0.0
  9
$PUCSYDIR
 10
0.0
 20
1.0
 30
0.0
  9
$USERI1
 70
     0
  9
$USERI2
 70
     0
  9
$USERI3
 70
     0
  9
$USERI4
 70
     0
  9
$USERI5
 70
     0
  9
$USERR1
 40
0.0
  9
$USERR2
 40
0.0
  9
$USERR3
 40
0.0
  9
$USERR4
 40
0.0
  9
$USERR5
 40
0.0
  9
$WORLDVIEW
 70
     1
  9
$SHADEDGE
 70
     3
  9
$SHADEDIF
 70
    70
  9
$TILEMODE
 70
     0
  9
$MAXACTVP
 70
    64
  9
$PLIMCHECK
 70
     0
  9
$PEXTMIN
 10
0.5610353763679825
 20
0.7272950292268945
 30
-0.0015258207003583
  9
$PEXTMAX
 10
95.4389643772264833
 20
47.2727048475703384
 30
0.0000000349246037
  9
$PLIMMIN
 10
0.0
 20
0.0
  9
$PLIMMAX
 10
95.9999961552657481
 20
47.999998077632867
  9
$UNITMODE
 70
     0
  9
$VISRETAIN
 70
     1
  9
$PLINEGEN
 70
     0
  9
$PSLTSCALE
 70
     1
  0
ENDSEC
  0
SECTION
  2
TABLES
  0
TABLE
  2
VPORT
 70
     1
  0
VPORT
  2
*ACTIVE
 70
     0
 10
0.0
 20
0.0
 11
1.0
 21
1.0
 12
47.1988447026612903
 22
156.6514509367906953
 13
0.0
 23
0.0
 14
0.5
 24
0.5
 15
0.5
 25
0.5
 16
0.0
 26
0.0
 36
1.0
 17
0.0
 27
0.0
 37
0.0
 40
168.5044320394285933
 41
1.6929411764705879
 42
50.0
 43
0.0
 44
0.0
 50
0.0
 51
0.0
 71
     0
 72
  1000
 73
     1
 74
     3
 75
     0
 76
     1
 77
     0
 78
     0
  0
ENDTAB
  0
TABLE
  2
LTYPE
 70
     6
  0
LTYPE
  2
CONTINUOUS
 70
     0
  3
Solid line
 72
    65
 73
     0
 40
0.0
  0
LTYPE
  2
ACAD_ISO02W100
 70
     0
  3
ISO dash __ __ __ __ __ __ __ __ __ __ __ __ __
 72
    65
 73
     2
 40
15.0
 49
12.0
 49
-3.0
  0
LTYPE
  2
DASHED2
 70
     0
  3
Dashed (.5x) _ _ _ _ _ _ _ _ _ _ _ _ _ _ _ _ _
 72
    65
 73
     2
 40
0.375
 49
0.25
 49
-0.125
  0
LTYPE
  2
CENTER
 70
     0
  3
Center ____ _ ____ _ ____ _ ____ _ ____ _ ____
 72
    65
 73
     4
 40
2.0
 49
1.25
 49
-0.25
 49
0.25
 49
-0.25
  0
LTYPE
  2
DASHED
 70
     0
  3
Dashed __ __ __ __ __ __ __ __ __ __ __ __ __ _
 72
    65
 73
     2
 40
0.75
 49
0.5
 49
-0.25
  0
ENDTAB
  0
TABLE
  2
LAYER
 70
    13
  0
LAYER
  2
0
 70
     0
 62
     7
  6
CONTINUOUS
  0
LAYER
  2
LAYER1
 70
     0
 62
     1
  6
CONTINUOUS
  0
LAYER
  2
LAYER2
 70
     0
 62
     2
  6
CONTINUOUS
  0
LAYER
  2
LAYER3
 70
     0
 62
     3
  6
CONTINUOUS
  0
LAYER
  2
LAYER4
 70
     0
 62
     4
  6
CONTINUOUS
  0
LAYER
  2
LAYER5
 70
     0
 62
     5
  6
CONTINUOUS
  0
LAYER
  2
LAYER6
 70
     0
 62
     6
  6
CONTINUOUS
  0
LAYER
  2
LAYER0
 70
     0
 62
     8
  6
CONTINUOUS
  0
LAYER
  2
HIDDEN
 70
     0
 62
     1
  6
DASHED
  0
LAYER
  2
ABOVE
 70
     0
 62
     1
  6
DASHED2
  0
LAYER
  2
NOPLOT
 70
     0
 62
   190
  6
CONTINUOUS
  0
LAYER
  2
DEFPOINTS
 70
     0
 62
     7
  6
CONTINUOUS
  0
LAYER
  2
CALLOUTS
 70
     0
 62
     3
  6
CONTINUOUS
  0
ENDTAB
  0
TABLE
  2
STYLE
 70
     5
  0
STYLE
  2
STANDARD
 70
     0
 40
0.0
 41
1.0
 50
0.0
 71
     0
 42
0.125
  3
Helvetica.dfont
  4

  0
STYLE
  2
ANNOTATIVE
 70
     0
 40
0.0
 41
1.0
 50
0.0
 71
     0
 42
0.2
  3
txt
  4

  0
STYLE
  2

 70
     1
 40
0.0
 41
1.0
 50
0.0
 71
     0
 42
0.2
  3
ltypeshp.shx
  4

  0
STYLE
  2
BODY
 70
     0
 40
0.0
 41
1.0
 50
0.0
 71
     0
 42
0.125
  3
Helvetica.dfont
  4

  0
STYLE
  2
HEADER
 70
     0
 40
0.0
 41
1.0
 50
0.0
 71
     0
 42
0.125
  3
Helvetica.dfont
  4

  0
ENDTAB
  0
TABLE
  2
VIEW
 70
     3
  0
ENDTAB
  0
TABLE
  2
UCS
 70
     0
  0
ENDTAB
  0
TABLE
  2
APPID
 70
    12
  0
APPID
  2
ACAD
 70
     0
  0
APPID
  2
ACADANNOPO
 70
     0
  0
APPID
  2
ACADANNOTATIVE
 70
     0
  0
APPID
  2
ACAD_DSTYLE_DIMJAG
 70
     0
  0
APPID
  2
ACAD_DSTYLE_DIMTALN
 70
     0
  0
APPID
  2
ACAD_MLEADERVER
 70
     0
  0
APPID
  2
ACAD_NAV_VCDISPLAY
 70
     0
  0
APPID
  2
ACAECLAYERSTANDARD
 70
     0
  0
APPID
  2
ACCMTRANSPARENCY
 70
     0
  0
APPID
  2
ACAD_PSEXT
 70
     0
  0
APPID
  2
ACAD_EXEMPT_FROM_CAD_STANDARDS
 70
     0
  0
APPID
  2
ACAD_DSTYLE_DIMBREAK
 70
     0
  0
ENDTAB
  0
TABLE
  2
DIMSTYLE
 70
     3
  0
DIMSTYLE
  2
STANDARD
 70
     0
  3

  4

  5
ARCHTICK
  6
ARCHTICK
  7
ARCHTICK
 40
1.0
 41
0.18
 42
0.0625
 43
0.125
 44
0.125
 45
0.0
 46
0.0
 47
0.0
 48
0.0
140
0.125
141
0.09
142
0.0
143
25.3999999999999986
144
1.0
145
0.0
146
1.0
147
0.09
 71
     0
 72
     0
 73
     1
 74
     1
 75
     0
 76
     0
 77
     0
 78
     0
170
     0
171
     2
172
     0
173
     0
174
     0
175
     0
176
   256
177
     0
178
   256
  0
DIMSTYLE
  2
ANNOTATIVE
 70
     0
  3

  4

  5

  6

  7

 40
0.0
 41
0.18
 42
0.0625
 43
0.38
 44
0.18
 45
0.0
 46
0.0
 47
0.0
 48
0.0
140
0.18
141
0.09
142
0.0
143
25.3999999999999986
144
1.0
145
0.0
146
1.0
147
0.09
 71
     0
 72
     0
 73
     1
 74
     1
 75
     0
 76
     0
 77
     0
 78
     0
170
     0
171
     2
172
     0
173
     0
174
     0
175
     0
176
     0
177
     0
178
     0
  0
ENDTAB
  0
ENDSEC
  0
SECTION
  2
BLOCKS
  0
BLOCK
  8
0
  2
$MODEL_SPACE
 70
     0
 10
0.0
 20
0.0
 30
0.0
  3
$MODEL_SPACE
  1

  0
ENDBLK
  5
21
  8
0
  0
BLOCK
 67
     1
  8
0
  2
$PAPER_SPACE
 70
     0
 10
0.0
 20
0.0
 30
0.0
  3
$PAPER_SPACE
  1

  0
ENDBLK
  5
72B
 67
     1
  8
0
  0
BLOCK
  8
0
  2
*D1
 70
     1
 10
0.0
 20
0.0
 30
0.0
  3
*D1
  1

  0
LINE
  5
2A5
  8
CALLOUTS
 62
     0
 10
7.2553412226018557
 20
1.7557581410583261
 30
0.0
 11
7.2553412226018557
 21
2.545200632491972
 31
0.0
  0
LINE
  5
2A6
  8
CALLOUTS
 62
     0
 10
9.0862798961615745
 20
1.7557581410583261
 30
0.0
 11
9.0862798961615745
 21
2.545200632491972
 31
0.0
  0
LINE
  5
2A7
  8
CALLOUTS
 10
7.2553412226018557
 20
2.420200632491972
 30
0.0
 11
7.9250923837520348
 21
2.420200632491972
 31
0.0
  0
LINE
  5
2A8
  8
CALLOUTS
 10
9.0862798961615745
 20
2.420200632491972
 30
0.0
 11
8.4165287350113953
 21
2.420200632491972
 31
0.0
  0
INSERT
  5
2A9
  8
CALLOUTS
  2
_ARCHTICK
 10
7.2553412226018557
 20
2.420200632491972
 30
0.0
 41
0.18
 42
0.18
 43
0.18
 50
180.0
  0
INSERT
  5
2AA
  8
CALLOUTS
  2
_ARCHTICK
 10
9.0862798961615745
 20
2.420200632491972
 30
0.0
 41
0.18
 42
0.18
 43
0.18
  0
INSERT
  5
2AB
  8
0
  2
*U24
 10
0.0
 20
0.0
 30
0.0
  0
POINT
  5
2AC
  8
DEFPOINTS
 62
     0
 10
7.2553412226018557
 20
1.6932581410583261
 30
0.0
  0
POINT
  5
2AD
  8
DEFPOINTS
 62
     0
 10
9.0862798961615745
 20
1.6932581410583261
 30
0.0
  0
POINT
  5
2AE
  8
DEFPOINTS
 62
     0
 10
9.0862798961615745
 20
2.420200632491972
 30
0.0
  0
ENDBLK
  5
25B
  8
0
  0
BLOCK
  8
0
  2
_ARCHTICK
 70
     0
 10
0.0
 20
0.0
 30
0.0
  3
_ARCHTICK
  1

  0
POLYLINE
  5
27F
  8
0
  6
BYBLOCK
 62
     0
 66
     1
 10
0.0
 20
0.0
 30
0.0
 40
0.15
 41
0.15
  0
VERTEX
  5
93C
  8
0
  6
BYBLOCK
 62
     0
 10
-0.5
 20
-0.5
 30
0.0
  0
VERTEX
  5
93D
  8
0
  6
BYBLOCK
 62
     0
 10
0.5
 20
0.5
 30
0.0
  0
SEQEND
  5
93E
  8
0
  6
BYBLOCK
 62
     0
  0
ENDBLK
  5
281
  8
0
  0
BLOCK
  8
0
  2
*U4
 70
     1
 10
0.0
 20
0.0
 30
0.0
  3
*U4
  1

  0
CIRCLE
  5
389
  8
0
 10
-0.0000000000000001
 20
0.0
 30
0.0
 40
0.7500000000000004
  0
CIRCLE
  5
38A
  8
0
 10
-0.4265000000000009
 20
-0.0000000000000817
 30
0.0
 40
0.125
  0
CIRCLE
  5
38B
  8
0
 10
0.4264999999999981
 20
-0.0000000000000817
 30
0.0
 40
0.125
  0
CIRCLE
  5
38C
  8
0
 10
-0.0000000000000001
 20
0.0
 30
0.0
 40
0.125
  0
ENDBLK
  5
384
  8
0
  0
BLOCK
  8
0
  2
*U6
 70
     1
 10
0.0
 20
0.0
 30
0.0
  3
*U6
  1

  0
CIRCLE
  5
3AC
  8
0
 10
0.0
 20
0.0
 30
0.0
 40
0.1250000000000009
  0
CIRCLE
  5
3AD
  8
0
 10
0.0
 20
0.0
 30
0.0
 40
0.9999999999999996
  0
CIRCLE
  5
3AE
  8
0
 10
-0.426499999999999
 20
-0.0000000000000604
 30
0.0
 40
0.125
  0
CIRCLE
  5
3AF
  8
0
 10
0.426499999999999
 20
-0.0000000000000604
 30
0.0
 40
0.125
  0
ENDBLK
  5
3A7
  8
0
  0
BLOCK
  8
0
  2
A$C63F86A32
 70
     0
 10
0.0
 20
0.0
 30
0.0
  3
A$C63F86A32
  1

  0
POLYLINE
  5
626
  8
0
 66
     1
 10
0.0
 20
0.0
 30
0.0
 70
     1
  0
VERTEX
  5
EB1
  8
0
 10
35.9999999882340376
 20
40.641016152378711
 30
0.0
  0
VERTEX
  5
EB2
  8
0
 10
35.9999999882300727
 20
0.0000000010011729
 30
0.0
  0
VERTEX
  5
EB3
  8
0
 10
-0.0000000117699379
 20
0.0000000010046968
 30
0.0
  0
VERTEX
  5
EB4
  8
0
 10
-0.0000000117682326
 20
17.3205080766934714
 30
0.0
 42
-0.2679491924311159
  0
VERTEX
  5
EB5
  8
0
 10
2.9999999882322519
 20
22.5166604993998192
 30
0.0
  0
VERTEX
  5
EB6
  8
0
 10
32.9999999882339665
 20
39.8371685750856415
 30
0.0
 42
-0.1316524975873903
  0
SEQEND
  5
EB7
  8
0
  0
ENDBLK
  5
628
  8
0
  0
BLOCK
  8
0
  2
*U16
 70
     1
 10
0.0
 20
0.0
 30
0.0
  3
*U16
  1

  0
TEXT
  5
912
  8
CALLOUTS
 10
6.7069337979105574
 20
7.0917651031353808
 30
0.0
 40
0.125
  1
BODY TEXT SHOULD BE LEGIBLE. ALL TEXT
  7
BODY
  0
TEXT
  5
913
  8
CALLOUTS
 10
6.7154429878356758
 20
6.8790920829402369
 30
0.0
 40
0.125
  1
SHOULD BE A MINIMUM OF 1/8" HIGH IN
  7
BODY
  0
TEXT
  5
914
  8
CALLOUTS
 10
6.7052319599255341
 20
6.666419062745093
 30
0.0
 40
0.125
  1
%%UPAPER SPACE.
  7
BODY
  0
ENDBLK
  5
916
  8
0
  0
BLOCK
  8
0
  2
*U17
 70
     1
 10
0.0
 20
0.0
 30
0.0
  3
*U17
  1

  0
TEXT
  5
918
  8
CALLOUTS
 10
6.7069799807595398
 20
7.384241359673835
 30
0.0
 40
0.125
  1
HEADER TEXT SHOULD BE PROMINENT
  7
HEADER
  0
ENDBLK
  5
91A
  8
0
  0
BLOCK
  8
0
  2
*U18
 70
     1
 10
0.0
 20
0.0
 30
0.0
  3
*U18
  1

  0
SOLID
  5
91C
  8
CALLOUTS
 10
9.5409352607197029
 20
5.5237416788972471
 30
0.0
 11
9.7209352607197026
 21
5.4937416788972468
 31
0.0
 12
9.5409352607197029
 22
5.4637416788972466
 32
0.0
 13
9.5409352607197029
 23
5.4637416788972466
 33
0.0
  0
POLYLINE
  5
91D
  8
CALLOUTS
 66
     1
 10
0.0
 20
0.0
 30
0.0
  0
VERTEX
  5
91E
  8
CALLOUTS
 10
9.5409352607197029
 20
5.4937416788972468
 30
0.0
  0
VERTEX
  5
91F
  8
CALLOUTS
 10
8.9481865477127975
 20
5.4937416788972468
 30
0.0
  0
SEQEND
  5
920
  8
CALLOUTS
  0
ENDBLK
  5
922
  8
0
  0
BLOCK
  8
0
  2
*U19
 70
     1
 10
0.0
 20
0.0
 30
0.0
  3
*U19
  1

  0
TEXT
  5
924
  8
CALLOUTS
 10
7.0372199037373031
 20
5.4307736734513661
 30
0.0
 40
0.125
  1
DIRECT ANNOTATION
  7
BODY
  0
ENDBLK
  5
926
  8
0
  0
BLOCK
  8
0
  2
*U20
 70
     1
 10
0.0
 20
0.0
 30
0.0
  3
*U20
  1

  0
SOLID
  5
928
  8
CALLOUTS
 10
9.5409352607197029
 20
4.8685043532177961
 30
0.0
 11
9.7209352607197026
 21
4.8385043532177958
 31
0.0
 12
9.5409352607197029
 22
4.8085043532177956
 32
0.0
 13
9.5409352607197029
 23
4.8085043532177956
 33
0.0
  0
POLYLINE
  5
929
  8
CALLOUTS
 66
     1
 10
0.0
 20
0.0
 30
0.0
  0
VERTEX
  5
92A
  8
CALLOUTS
 10
9.5409352607197029
 20
4.8385043532177958
 30
0.0
  0
VERTEX
  5
92B
  8
CALLOUTS
 10
8.9481865477127975
 20
4.8385043532177958
 30
0.0
  0
SEQEND
  5
92C
  8
CALLOUTS
  0
ENDBLK
  5
92E
  8
0
  0
BLOCK
  8
0
  2
*U21
 70
     1
 10
0.0
 20
0.0
 30
0.0
  3
*U21
  1

  0
TEXT
  5
930
  8
CALLOUTS
 10
8.7969203802519402
 20
4.7760043532177958
 30
0.0
 40
0.125
  1
1
  7
BODY
  0
ENDBLK
  5
932
  8
0
  0
BLOCK
  8
0
  2
*U22
 70
     1
 10
0.0
 20
0.0
 30
0.0
  3
*U22
  1

  0
TEXT
  5
934
  8
CALLOUTS
 10
6.703530121940509
 20
3.7576252886731591
 30
0.0
 40
0.125
  1
1. KEYNOTE ANNOTATION:  TO AVOID
  7
BODY
  0
TEXT
  5
935
  8
CALLOUTS
 10
6.7137411498506516
 20
3.5449522684780148
 30
0.0
 40
0.125
  1
CLUTTER ON A DRAWING.
  7
BODY
  0
ENDBLK
  5
937
  8
0
  0
BLOCK
  8
0
  2
*U23
 70
     1
 10
0.0
 20
0.0
 30
0.0
  3
*U23
  1

  0
TEXT
  5
939
  8
CALLOUTS
 10
6.7069799807595389
 20
4.0501015452116134
 30
0.0
 40
0.125
  1
%%UKEYNOTES
  7
HEADER
  0
ENDBLK
  5
93B
  8
0
  0
BLOCK
  8
0
  2
*U24
 70
     1
 10
0.0
 20
0.0
 30
0.0
  3
*U24
  1

  0
TEXT
  5
940
  8
CALLOUTS
 10
7.998074003901797
 20
2.357700632491972
 30
0.0
 40
0.125
  1
1
  7
BODY
  0
TEXT
  5
941
  8
CALLOUTS
 10
8.0797622271829415
 20
2.441033965825306
 30
0.0
 40
0.125
  1
13
  7
BODY
  0
LINE
  5
942
  8
CALLOUTS
 10
8.0950787690481558
 20
2.420200632491972
 30
0.0
 11
8.265262567550538
 21
2.420200632491972
 31
0.0
  0
TEXT
  5
943
  8
CALLOUTS
 10
8.0780603891979172
 20
2.273431288266877
 30
0.0
 40
0.125
  1
16
  7
BODY
  0
TEXT
  5
944
  8
CALLOUTS
 10
8.2737717574756573
 20
2.357700632491972
 30
0.0
 40
0.125
  1
"
  7
BODY
  0
ENDBLK
  5
946
  8
0
  0
ENDSEC
  0
SECTION
  2
ENTITIES
  0
POLYLINE
  5
451
  8
NOPLOT
 66
     1
 10
0.0
 20
0.0
 30
0.0
 70
     1
  0
VERTEX
  5
947
  8
NOPLOT
 10
0.0000000000000284
 20
192.0
 30
0.0
  0
VERTEX
  5
948
  8
NOPLOT
 10
0.0000000000000284
 20
144.0
 30
0.0
  0
VERTEX
  5
949
  8
NOPLOT
 10
96.0
 20
144.0
 30
0.0
  0
VERTEX
  5
94A
  8
NOPLOT
 10
96.0000000000000568
 20
191.9999999999998863
 30
0.0
  0
SEQEND
  5
94B
  8
NOPLOT
  0
CIRCLE
  5
47D
  8
LAYER1
 10
18.5577518079938386
 20
179.4989142165887017
 30
0.0
 40
1.5
  0
CIRCLE
  5
47E
  8
LAYER1
 10
36.2244184746605029
 20
162.4051642165887017
 30
0.0
 40
1.5
  0
CIRCLE
  5
47F
  8
LAYER1
 10
45.0577518079938386
 20
170.9520392165887017
 30
0.0
 40
1.5
  0
CIRCLE
  5
480
  8
LAYER1
 10
45.0577518079938386
 20
162.4051642165887017
 30
0.0
 40
1.5
  0
CIRCLE
  5
481
  8
LAYER1
 10
18.5577518079938386
 20
170.9520392165887017
 30
0.0
 40
1.5
  0
CIRCLE
  5
482
  8
LAYER1
 10
27.3910851413271814
 20
162.4051642165887017
 30
0.0
 40
1.5
  0
CIRCLE
  5
483
  8
LAYER1
 10
36.2244184746605029
 20
170.9520392165887017
 30
0.0
 40
1.5
  0
CIRCLE
  5
484
  8
LAYER1
 10
45.0577518079938386
 20
179.4989142165887017
 30
0.0
 40
1.5
  0
CIRCLE
  5
485
  8
LAYER1
 10
36.2244184746605313
 20
179.4989142165887017
 30
0.0
 40
1.5
  0
CIRCLE
  5
486
  8
LAYER1
 10
27.3910851413271814
 20
179.4989142165887017
 30
0.0
 40
1.5
  0
CIRCLE
  5
487
  8
LAYER1
 10
27.3910851413271814
 20
170.9520392165887017
 30
0.0
 40
1.5
  0
CIRCLE
  5
488
  8
LAYER1
 10
18.5577518079938386
 20
162.4051642165887017
 30
0.0
 40
1.5
  0
CIRCLE
  5
489
  8
LAYER1
 10
31.8214236829938386
 20
183.7723517165887017
 30
0.0
 40
1.5000000000000011
  0
CIRCLE
  5
48A
  8
LAYER1
 10
40.6456424329938386
 20
175.2254767165887017
 30
0.0
 40
1.5000000000000011
  0
CIRCLE
  5
48B
  8
LAYER1
 10
14.1729861829938404
 20
166.6786017165887017
 30
0.0
 40
1.5000000000000011
  0
CIRCLE
  5
48C
  8
LAYER1
 10
49.469861182993867
 20
166.6786017165887017
 30
0.0
 40
1.5000000000000011
  0
CIRCLE
  5
48D
  8
LAYER1
 10
22.9972049329938386
 20
158.1317267165887017
 30
0.0
 40
1.5000000000000011
  0
CIRCLE
  5
48E
  8
LAYER1
 10
31.8214236829938386
 20
158.1317267165887017
 30
0.0
 40
1.5000000000000011
  0
CIRCLE
  5
48F
  8
LAYER1
 10
40.6456424329938386
 20
166.6786017165887017
 30
0.0
 40
1.5000000000000011
  0
CIRCLE
  5
490
  8
LAYER1
 10
14.1729861829938404
 20
175.2254767165887017
 30
0.0
 40
1.5000000000000011
  0
CIRCLE
  5
491
  8
LAYER1
 10
49.4698611829938386
 20
175.2254767165887017
 30
0.0
 40
1.5000000000000011
  0
CIRCLE
  5
492
  8
LAYER1
 10
22.9972049329938386
 20
183.7723517165887017
 30
0.0
 40
1.5000000000000011
  0
CIRCLE
  5
493
  8
LAYER1
 10
40.6456424329938386
 20
183.7723517165887017
 30
0.0
 40
1.5000000000000011
  0
CIRCLE
  5
494
  8
LAYER1
 10
31.8214236829938386
 20
175.2254767165887017
 30
0.0
 40
1.5000000000000011
  0
CIRCLE
  5
495
  8
LAYER1
 10
22.9972049329938386
 20
166.6786017165887017
 30
0.0
 40
1.5000000000000011
  0
CIRCLE
  5
496
  8
LAYER1
 10
49.4698611829938386
 20
158.1317267165887017
 30
0.0
 40
1.5000000000000011
  0
CIRCLE
  5
497
  8
LAYER1
 10
14.1729861829938404
 20
158.1317267165887017
 30
0.0
 40
1.5000000000000011
  0
CIRCLE
  5
498
  8
LAYER1
 10
40.6456424329938386
 20
158.1317267165887017
 30
0.0
 40
1.5000000000000011
  0
CIRCLE
  5
499
  8
LAYER1
 10
31.8214236829938386
 20
166.6786017165887017
 30
0.0
 40
1.5000000000000011
  0
CIRCLE
  5
49A
  8
LAYER1
 10
22.9972049329938386
 20
175.2254767165887017
 30
0.0
 40
1.5000000000000011
  0
CIRCLE
  5
49B
  8
LAYER1
 10
49.469861182993867
 20
183.7723517165887017
 30
0.0
 40
1.5000000000000011
  0
CIRCLE
  5
49C
  8
LAYER1
 10
14.1729861829938404
 20
183.7723517165887017
 30
0.0
 40
1.5000000000000011
  0
POLYLINE
  5
49D
  8
LAYER1
 66
     1
 10
0.0
 20
0.0
 30
0.0
 70
     1
  0
VERTEX
  5
94C
  8
LAYER1
 10
11.1729861829866994
 20
162.5373609689964098
 30
0.0
 42
-0.4142135623730954
  0
VERTEX
  5
94D
  8
LAYER1
 10
11.42298618298679
 20
162.7873609689962962
 30
0.0
  0
VERTEX
  5
94E
  8
LAYER1
 10
14.1729861829866994
 20
162.7873609689953867
 30
0.0
  0
VERTEX
  5
94F
  8
LAYER1
 10
14.1729861829869304
 20
163.4973609689955083
 30
0.0
  0
VERTEX
  5
950
  8
LAYER1
 10
11.4229861829870405
 20
163.4973609689963894
 30
0.0
 42
-0.4142135623730936
  0
VERTEX
  5
951
  8
LAYER1
 10
11.1729861829870991
 20
163.7473609689965031
 30
0.0
  0
VERTEX
  5
952
  8
LAYER1
 10
11.1729861829919308
 20
178.1563263128053052
 30
0.0
 42
-0.4142135623730925
  0
VERTEX
  5
953
  8
LAYER1
 10
11.4229861829920196
 20
178.4063263128051915
 30
0.0
  0
VERTEX
  5
954
  8
LAYER1
 10
14.1729861829919006
 20
178.4063263128043104
 30
0.0
  0
VERTEX
  5
955
  8
LAYER1
 10
14.17298618299216
 20
179.11632631280429
 30
0.0
  0
VERTEX
  5
956
  8
LAYER1
 10
11.4229861829922701
 20
179.1163263128051994
 30
0.0
 42
-0.4142135623730904
  0
VERTEX
  5
957
  8
LAYER1
 10
11.1729861829923607
 20
179.3663263128053131
 30
0.0
  0
VERTEX
  5
958
  8
LAYER1
 10
11.1729861829948298
 20
186.7723517165896965
 30
0.0
  0
VERTEX
  5
959
  8
LAYER1
 10
10.7129861829948503
 20
186.7723517165898954
 30
0.0
 42
-0.4142135623730789
  0
VERTEX
  5
95A
  8
LAYER1
 10
10.4629861829949107
 20
187.0223517165898954
 30
0.0
  0
VERTEX
  5
95B
  8
LAYER1
 10
10.4629861829950492
 20
187.6124330254652079
 30
0.0
 42
-0.4142135623730799
  0
VERTEX
  5
95C
  8
LAYER1
 10
10.7129861829951398
 20
187.8624330254650943
 30
0.0
  0
VERTEX
  5
95D
  8
LAYER1
 10
13.46298618299525
 20
187.8624330254642132
 30
0.0
  0
VERTEX
  5
95E
  8
LAYER1
 10
13.4629861829956496
 20
189.0921890988381051
 30
0.0
  0
VERTEX
  5
95F
  8
LAYER1
 10
11.4229861829956008
 20
189.0921890988387872
 30
0.0
 42
-0.4142135623731149
  0
VERTEX
  5
960
  8
LAYER1
 10
11.1729861829956807
 20
189.3421890988389009
 30
0.0
  0
VERTEX
  5
961
  8
LAYER1
 10
11.1729861829961106
 20
190.5623517165896033
 30
0.0
  0
VERTEX
  5
962
  8
LAYER1
 10
10.7129861829961008
 20
190.5623517165896885
 30
0.0
 42
-0.4142135623730785
  0
VERTEX
  5
963
  8
LAYER1
 10
10.4629861829961897
 20
190.8123517165898022
 30
0.0
  0
VERTEX
  5
964
  8
LAYER1
 10
10.4629861829962501
 20
191.0223517165898102
 30
0.0
 42
-0.4142135623730897
  0
VERTEX
  5
965
  8
LAYER1
 10
10.71298618299633
 20
191.2723517165896965
 30
0.0
  0
VERTEX
  5
966
  8
LAYER1
 10
13.43739404120128
 20
191.2723517165887017
 30
0.0
 42
-0.3419987131196094
  0
VERTEX
  5
967
  8
LAYER1
 10
13.67945550033917
 20
191.084851716588588
 30
0.0
 42
0.7745966692413792
  0
VERTEX
  5
968
  8
LAYER1
 10
15.1318242551667996
 20
191.0848517165881901
 30
0.0
 42
-0.3419987131196167
  0
VERTEX
  5
969
  8
LAYER1
 10
15.3738857143049206
 20
191.2723517165881901
 30
0.0
  0
VERTEX
  5
96A
  8
LAYER1
 10
18.3186486156989687
 20
191.2723517165871954
 30
0.0
 42
-0.2679491924311231
  0
VERTEX
  5
96B
  8
LAYER1
 10
18.5351549666450488
 20
191.1473517165871101
 30
0.0
  0
VERTEX
  5
96C
  8
LAYER1
 10
20.3595348735821098
 20
187.987433025461911
 30
0.0
 42
0.2679491924311285
  0
VERTEX
  5
96D
  8
LAYER1
 10
20.5760412245281792
 20
187.8624330254617973
 30
0.0
  0
VERTEX
  5
96E
  8
LAYER1
 10
31.4629861829952802
 20
187.8624330254581878
 30
0.0
  0
VERTEX
  5
96F
  8
LAYER1
 10
31.46298618299571
 20
189.0921890988321081
 30
0.0
  0
VERTEX
  5
970
  8
LAYER1
 10
28.8959988848878915
 20
189.0921890988329892
 30
0.0
 42
-0.5773502691896294
  0
VERTEX
  5
971
  8
LAYER1
 10
28.6794925339419002
 20
189.4671890988329892
 30
0.0
  0
VERTEX
  5
972
  8
LAYER1
 10
29.6495348735831783
 20
191.1473517165833869
 30
0.0
 42
-0.2679491924311314
  0
VERTEX
  5
973
  8
LAYER1
 10
29.8660412245293401
 20
191.2723517165833016
 30
0.0
  0
VERTEX
  5
974
  8
LAYER1
 10
36.318648615698983
 20
191.2723517165811984
 30
0.0
 42
-0.2679491924311305
  0
VERTEX
  5
975
  8
LAYER1
 10
36.5351549666450595
 20
191.1473517165811131
 30
0.0
  0
VERTEX
  5
976
  8
LAYER1
 10
38.3595348735820991
 20
187.987433025455914
 30
0.0
 42
0.2679491924311464
  0
VERTEX
  5
977
  8
LAYER1
 10
38.5760412245281827
 20
187.8624330254558004
 30
0.0
  0
VERTEX
  5
978
  8
LAYER1
 10
46.2042687087597983
 20
187.8624330254532993
 30
0.0
  0
VERTEX
  5
979
  8
LAYER1
 10
46.2042687087602175
 20
189.0921890988271912
 30
0.0
  0
VERTEX
  5
97A
  8
LAYER1
 10
43.637281410652399
 20
189.092189098827987
 30
0.0
 42
-0.5773502691896157
  0
VERTEX
  5
97B
  8
LAYER1
 10
43.4207750597064219
 20
189.4671890988281007
 30
0.0
  0
VERTEX
  5
97C
  8
LAYER1
 10
44.3908173993476609
 20
191.1473517165784983
 30
0.0
 42
-0.2679491924311083
  0
VERTEX
  5
97D
  8
LAYER1
 10
44.6073237502938227
 20
191.2723517165784131
 30
0.0
  0
VERTEX
  5
97E
  8
LAYER1
 10
51.0599311414634869
 20
191.2723517165763099
 30
0.0
 42
-0.2679491924310869
  0
VERTEX
  5
97F
  8
LAYER1
 10
51.2764374924095705
 20
191.1473517165761962
 30
0.0
  0
VERTEX
  5
980
  8
LAYER1
 10
52.4294925339416906
 20
189.1502018007174968
 30
0.0
 42
-0.1316524975873764
  0
VERTEX
  5
981
  8
LAYER1
 10
52.4629861829955431
 20
189.0252018007174968
 30
0.0
  0
VERTEX
  5
982
  8
LAYER1
 10
52.462986182983478
 20
152.8784854810564013
 30
0.0
 42
-0.1316524975873583
  0
VERTEX
  5
983
  8
LAYER1
 10
52.4294925339295617
 20
152.7534854810564013
 30
0.0
  0
VERTEX
  5
984
  8
LAYER1
 10
51.2764374923960915
 20
150.7563355651984978
 30
0.0
 42
-0.2679491924311159
  0
VERTEX
  5
985
  8
LAYER1
 10
51.0599311414499084
 20
150.6313355651986114
 30
0.0
  0
VERTEX
  5
986
  8
LAYER1
 10
44.6073237502802726
 20
150.6313355652006862
 30
0.0
 42
-0.2679491924311166
  0
VERTEX
  5
987
  8
LAYER1
 10
44.3908173993342032
 20
150.7563355652007999
 30
0.0
  0
VERTEX
  5
988
  8
LAYER1
 10
43.4207750596940514
 20
152.4364981829517944
 30
0.0
 42
-0.5773502691896232
  0
VERTEX
  5
989
  8
LAYER1
 10
43.6372814106402913
 20
152.8114981829517092
 30
0.0
  0
VERTEX
  5
98A
  8
LAYER1
 10
46.2042687087481099
 20
152.8114981829507997
 30
0.0
  0
VERTEX
  5
98B
  8
LAYER1
 10
46.2042687087485078
 20
154.0412542563248053
 30
0.0
  0
VERTEX
  5
98C
  8
LAYER1
 10
38.5760412245168993
 20
154.0412542563273064
 30
0.0
 42
0.2679491924311135
  0
VERTEX
  5
98D
  8
LAYER1
 10
38.3595348735707731
 20
153.9162542563273917
 30
0.0
  0
VERTEX
  5
98E
  8
LAYER1
 10
36.5351549666315805
 20
150.7563355652033863
 30
0.0
 42
-0.2679491924311345
  0
VERTEX
  5
98F
  8
LAYER1
 10
36.3186486156854187
 20
150.6313355652033863
 30
0.0
  0
VERTEX
  5
990
  8
LAYER1
 10
29.8660412245157616
 20
150.6313355652056032
 30
0.0
 42
-0.2679491924311162
  0
VERTEX
  5
991
  8
LAYER1
 10
29.64953487356971
 20
150.7563355652056885
 30
0.0
  0
VERTEX
  5
992
  8
LAYER1
 10
28.6794925339295617
 20
152.4364981829567114
 30
0.0
 42
-0.5773502691896379
  0
VERTEX
  5
993
  8
LAYER1
 10
28.8959988848757803
 20
152.8114981829565977
 30
0.0
  0
VERTEX
  5
994
  8
LAYER1
 10
31.4629861829836308
 20
152.8114981829558019
 30
0.0
  0
VERTEX
  5
995
  8
LAYER1
 10
31.4629861829840216
 20
154.0412542563296938
 30
0.0
  0
VERTEX
  5
996
  8
LAYER1
 10
20.5760412245168993
 20
154.0412542563333034
 30
0.0
 42
0.2679491924311281
  0
VERTEX
  5
997
  8
LAYER1
 10
20.3595348735707411
 20
153.9162542563333886
 30
0.0
  0
VERTEX
  5
998
  8
LAYER1
 10
18.5351549666315805
 20
150.7563355652094117
 30
0.0
 42
-0.2679491924311245
  0
VERTEX
  5
999
  8
LAYER1
 10
18.3186486156854187
 20
150.631335565209497
 30
0.0
  0
VERTEX
  5
99A
  8
LAYER1
 10
15.3738857142914203
 20
150.6313355652104065
 30
0.0
 42
-0.3419987131196757
  0
VERTEX
  5
99B
  8
LAYER1
 10
15.1318242551535
 20
150.8188355652104917
 30
0.0
 42
0.7745966692415543
  0
VERTEX
  5
99C
  8
LAYER1
 10
13.6794555003255898
 20
150.8188355652110033
 30
0.0
 42
-0.3419987131196734
  0
VERTEX
  5
99D
  8
LAYER1
 10
13.4373940411876696
 20
150.6313355652110886
 30
0.0
  0
VERTEX
  5
99E
  8
LAYER1
 10
10.7129861829827995
 20
150.6313355652119981
 30
0.0
 42
-0.414213562373085
  0
VERTEX
  5
99F
  8
LAYER1
 10
10.4629861829828599
 20
150.8813355652121118
 30
0.0
  0
VERTEX
  5
9A0
  8
LAYER1
 10
10.4629861829829398
 20
151.0913355652120913
 30
0.0
 42
-0.4142135623730783
  0
VERTEX
  5
9A1
  8
LAYER1
 10
10.7129861829830304
 20
151.341335565212006
 30
0.0
  0
VERTEX
  5
9A2
  8
LAYER1
 10
11.1729861829830401
 20
151.3413355652118923
 30
0.0
  0
VERTEX
  5
9A3
  8
LAYER1
 10
11.1729861829834292
 20
152.5614981829625094
 30
0.0
 42
-0.414213562373113
  0
VERTEX
  5
9A4
  8
LAYER1
 10
11.4229861829835198
 20
152.8114981829625094
 30
0.0
  0
VERTEX
  5
9A5
  8
LAYER1
 10
13.4629861829835402
 20
152.8114981829617989
 30
0.0
  0
VERTEX
  5
9A6
  8
LAYER1
 10
13.4629861829839701
 20
154.0412542563356908
 30
0.0
  0
VERTEX
  5
9A7
  8
LAYER1
 10
10.7129861829838493
 20
154.0412542563366003
 30
0.0
 42
-0.4142135623730822
  0
VERTEX
  5
9A8
  8
LAYER1
 10
10.4629861829839399
 20
154.291254256336714
 30
0.0
  0
VERTEX
  5
9A9
  8
LAYER1
 10
10.4629861829841406
 20
154.8813355652125097
 30
0.0
 42
-0.4142135623731143
  0
VERTEX
  5
9AA
  8
LAYER1
 10
10.7129861829842206
 20
155.131335565212396
 30
0.0
  0
VERTEX
  5
9AB
  8
LAYER1
 10
11.1729861829842303
 20
155.1313355652123107
 30
0.0
  0
SEQEND
  5
9AC
  8
LAYER1
  0
POLYLINE
  5
49E
  8
LAYER1
 66
     1
 10
0.0
 20
0.0
 30
0.0
 70
     1
  0
VERTEX
  5
9AD
  8
LAYER1
 10
35.5879861829834923
 20
152.4364981829548924
 30
0.0
  0
VERTEX
  5
9AE
  8
LAYER1
 10
35.5879861829835704
 20
152.6864981829550061
 30
0.0
 42
0.4142135623718103
  0
VERTEX
  5
9AF
  8
LAYER1
 10
35.4629861829835988
 20
152.8114981829544945
 30
0.0
  0
VERTEX
  5
9B0
  8
LAYER1
 10
34.4629861829835704
 20
152.8114981829548071
 30
0.0
 42
0.4142135623718103
  0
VERTEX
  5
9B1
  8
LAYER1
 10
34.337986182983542
 20
152.686498182955404
 30
0.0
  0
VERTEX
  5
9B2
  8
LAYER1
 10
34.3379861829834567
 20
152.436498182955404
 30
0.0
 42
0.4142135623730688
  0
VERTEX
  5
9B3
  8
LAYER1
 10
34.4629861829833999
 20
152.3114981829552903
 30
0.0
  0
VERTEX
  5
9B4
  8
LAYER1
 10
35.4629861829834567
 20
152.3114981829550061
 30
0.0
 42
0.4142135623730818
  0
SEQEND
  5
9B5
  8
LAYER1
  0
POLYLINE
  5
49F
  8
LAYER1
 66
     1
 10
0.0
 20
0.0
 30
0.0
 70
     1
  0
VERTEX
  5
9B6
  8
LAYER1
 10
17.5879861829834496
 20
152.4364981829610031
 30
0.0
  0
VERTEX
  5
9B7
  8
LAYER1
 10
17.5879861829835704
 20
152.6864981829610031
 30
0.0
 42
0.414213562371794
  0
VERTEX
  5
9B8
  8
LAYER1
 10
17.4629861829835988
 20
152.8114981829604062
 30
0.0
  0
VERTEX
  5
9B9
  8
LAYER1
 10
16.4629861829835704
 20
152.8114981829608041
 30
0.0
 42
0.4142135623717906
  0
VERTEX
  5
9BA
  8
LAYER1
 10
16.33798618298351
 20
152.686498182961401
 30
0.0
  0
VERTEX
  5
9BB
  8
LAYER1
 10
16.3379861829834283
 20
152.436498182961401
 30
0.0
 42
0.4142135623730673
  0
VERTEX
  5
9BC
  8
LAYER1
 10
16.4629861829833999
 20
152.3114981829612873
 30
0.0
  0
VERTEX
  5
9BD
  8
LAYER1
 10
17.4629861829834283
 20
152.3114981829610031
 30
0.0
 42
0.4142135623730853
  0
SEQEND
  5
9BE
  8
LAYER1
  0
POLYLINE
  5
4A0
  8
LAYER1
 66
     1
 10
0.0
 20
0.0
 30
0.0
 70
     1
  0
VERTEX
  5
9BF
  8
LAYER1
 10
50.3292687087480033
 20
152.4364981829500039
 30
0.0
  0
VERTEX
  5
9C0
  8
LAYER1
 10
50.3292687087480886
 20
152.6864981829500039
 30
0.0
 42
0.4142135623718037
  0
VERTEX
  5
9C1
  8
LAYER1
 10
50.2042687087481099
 20
152.8114981829494923
 30
0.0
  0
VERTEX
  5
9C2
  8
LAYER1
 10
49.2042687087480601
 20
152.8114981829498902
 30
0.0
 42
0.4142135623717906
  0
VERTEX
  5
9C3
  8
LAYER1
 10
49.0792687087480317
 20
152.686498182950487
 30
0.0
  0
VERTEX
  5
9C4
  8
LAYER1
 10
49.0792687087479464
 20
152.436498182950487
 30
0.0
 42
0.4142135623731016
  0
VERTEX
  5
9C5
  8
LAYER1
 10
49.2042687087479109
 20
152.3114981829504018
 30
0.0
  0
VERTEX
  5
9C6
  8
LAYER1
 10
50.2042687087479464
 20
152.3114981829500891
 30
0.0
 42
0.4142135623730557
  0
SEQEND
  5
9C7
  8
LAYER1
  0
POLYLINE
  5
4A1
  8
LAYER1
 66
     1
 10
0.0
 20
0.0
 30
0.0
 70
     1
  0
VERTEX
  5
9C8
  8
LAYER1
 10
50.329268708760253
 20
189.2171890988257985
 30
0.0
  0
VERTEX
  5
9C9
  8
LAYER1
 10
50.3292687087603383
 20
189.4671890988257985
 30
0.0
 42
0.4142135623731082
  0
VERTEX
  5
9CA
  8
LAYER1
 10
50.2042687087604023
 20
189.5921890988259122
 30
0.0
  0
VERTEX
  5
9CB
  8
LAYER1
 10
49.2042687087603383
 20
189.5921890988261964
 30
0.0
 42
0.4142135623730753
  0
VERTEX
  5
9CC
  8
LAYER1
 10
49.0792687087603099
 20
189.4671890988261964
 30
0.0
  0
VERTEX
  5
9CD
  8
LAYER1
 10
49.0792687087601891
 20
189.2171890988261964
 30
0.0
 42
0.4142135623730884
  0
VERTEX
  5
9CE
  8
LAYER1
 10
49.2042687087601678
 20
189.0921890988261964
 30
0.0
  0
VERTEX
  5
9CF
  8
LAYER1
 10
50.2042687087601891
 20
189.0921890988257985
 30
0.0
 42
0.4142135623731082
  0
SEQEND
  5
9D0
  8
LAYER1
  0
POLYLINE
  5
4A2
  8
LAYER1
 66
     1
 10
0.0
 20
0.0
 30
0.0
 70
     1
  0
VERTEX
  5
9D1
  8
LAYER1
 10
17.5879861829957314
 20
189.2171890988367124
 30
0.0
  0
VERTEX
  5
9D2
  8
LAYER1
 10
17.5879861829958202
 20
189.4671890988367977
 30
0.0
 42
0.4142135623731049
  0
VERTEX
  5
9D3
  8
LAYER1
 10
17.4629861829958806
 20
189.5921890988367977
 30
0.0
  0
VERTEX
  5
9D4
  8
LAYER1
 10
16.4629861829958486
 20
189.5921890988371104
 30
0.0
 42
0.4142135623731181
  0
VERTEX
  5
9D5
  8
LAYER1
 10
16.3379861829957918
 20
189.4671890988371104
 30
0.0
  0
VERTEX
  5
9D6
  8
LAYER1
 10
16.3379861829956816
 20
189.2171890988371956
 30
0.0
 42
0.4142135623730902
  0
VERTEX
  5
9D7
  8
LAYER1
 10
16.4629861829956496
 20
189.0921890988371104
 30
0.0
  0
VERTEX
  5
9D8
  8
LAYER1
 10
17.4629861829956816
 20
189.0921890988367977
 30
0.0
 42
0.4142135623731147
  0
SEQEND
  5
9D9
  8
LAYER1
  0
POLYLINE
  5
4A3
  8
LAYER1
 66
     1
 10
0.0
 20
0.0
 30
0.0
 70
     1
  0
VERTEX
  5
9DA
  8
LAYER1
 10
35.5879861829957633
 20
189.217189098830687
 30
0.0
  0
VERTEX
  5
9DB
  8
LAYER1
 10
35.5879861829958486
 20
189.467189098830687
 30
0.0
 42
0.4142135623730818
  0
VERTEX
  5
9DC
  8
LAYER1
 10
35.4629861829959125
 20
189.5921890988308007
 30
0.0
  0
VERTEX
  5
9DD
  8
LAYER1
 10
34.4629861829958486
 20
189.5921890988311134
 30
0.0
 42
0.4142135623730884
  0
VERTEX
  5
9DE
  8
LAYER1
 10
34.3379861829957918
 20
189.4671890988311986
 30
0.0
  0
VERTEX
  5
9DF
  8
LAYER1
 10
34.3379861829957065
 20
189.2171890988311986
 30
0.0
 42
0.4142135623730818
  0
VERTEX
  5
9E0
  8
LAYER1
 10
34.4629861829956781
 20
189.0921890988311134
 30
0.0
  0
VERTEX
  5
9E1
  8
LAYER1
 10
35.4629861829957065
 20
189.0921890988308007
 30
0.0
 42
0.4142135623730951
  0
SEQEND
  5
9E2
  8
LAYER1
  0
CIRCLE
  5
4CA
  8
LAYER1
 10
56.8164056294718876
 20
166.6782105772988984
 30
0.0
 40
1.5000000000000011
  0
CIRCLE
  5
4CB
  8
LAYER1
 10
61.2011712544718876
 20
162.4047730772988984
 30
0.0
 40
1.5
  0
CIRCLE
  5
4CC
  8
LAYER1
 10
65.6406243794718876
 20
158.1313355772988984
 30
0.0
 40
1.5000000000000011
  0
CIRCLE
  5
4CD
  8
LAYER1
 10
74.4648431294719444
 20
175.2250855772988984
 30
0.0
 40
1.5000000000000011
  0
CIRCLE
  5
4CE
  8
LAYER1
 10
78.8678379211385732
 20
179.4985230772988984
 30
0.0
 40
1.5
  0
CIRCLE
  5
4CF
  8
LAYER1
 10
83.2890618794719444
 20
175.2250855772988984
 30
0.0
 40
1.5000000000000011
  0
CIRCLE
  5
4D0
  8
LAYER1
 10
87.7011712544719444
 20
170.9516480772988984
 30
0.0
 40
1.5
  0
CIRCLE
  5
4D1
  8
LAYER1
 10
92.1132806294719444
 20
158.1313355772988984
 30
0.0
 40
1.5000000000000011
  0
CIRCLE
  5
4D2
  8
LAYER1
 10
92.1132806294719444
 20
166.6782105772988984
 30
0.0
 40
1.5000000000000011
  0
CIRCLE
  5
4D3
  8
LAYER1
 10
87.7011712544718876
 20
179.4985230772988984
 30
0.0
 40
1.5
  0
CIRCLE
  5
4D4
  8
LAYER1
 10
83.2890618794718733
 20
183.7719605772988984
 30
0.0
 40
1.5000000000000011
  0
CIRCLE
  5
4D5
  8
LAYER1
 10
74.4648431294719444
 20
158.1313355772988984
 30
0.0
 40
1.5000000000000011
  0
CIRCLE
  5
4D6
  8
LAYER1
 10
74.4648431294719444
 20
183.7719605772988984
 30
0.0
 40
1.5000000000000011
  0
CIRCLE
  5
4D7
  8
LAYER1
 10
65.6406243794718876
 20
166.6782105772988984
 30
0.0
 40
1.5000000000000011
  0
CIRCLE
  5
4D8
  8
LAYER1
 10
61.2011712544718876
 20
170.9516480772988984
 30
0.0
 40
1.5
  0
CIRCLE
  5
4D9
  8
LAYER1
 10
56.8164056294718876
 20
175.2250855772988984
 30
0.0
 40
1.5000000000000011
  0
CIRCLE
  5
4DA
  8
LAYER1
 10
56.8164056294718876
 20
158.1313355772988984
 30
0.0
 40
1.5000000000000011
  0
CIRCLE
  5
4DB
  8
LAYER1
 10
65.6406243794718876
 20
183.7719605772988984
 30
0.0
 40
1.5000000000000011
  0
CIRCLE
  5
4DC
  8
LAYER1
 10
70.0345045878052019
 20
179.4985230772988984
 30
0.0
 40
1.5
  0
CIRCLE
  5
4DD
  8
LAYER1
 10
74.4648431294719444
 20
166.6782105772988984
 30
0.0
 40
1.5000000000000011
  0
CIRCLE
  5
4DE
  8
LAYER1
 10
78.8678379211385732
 20
170.9516480772988984
 30
0.0
 40
1.5
  0
CIRCLE
  5
4DF
  8
LAYER1
 10
83.2890618794718733
 20
166.6782105772988984
 30
0.0
 40
1.5000000000000011
  0
CIRCLE
  5
4E0
  8
LAYER1
 10
92.1132806294719444
 20
183.7719605772988984
 30
0.0
 40
1.5000000000000011
  0
CIRCLE
  5
4E1
  8
LAYER1
 10
87.7011712544719444
 20
162.4047730772988984
 30
0.0
 40
1.5
  0
CIRCLE
  5
4E2
  8
LAYER1
 10
92.1132806294719444
 20
175.2250855772988984
 30
0.0
 40
1.5000000000000011
  0
CIRCLE
  5
4E3
  8
LAYER1
 10
83.2890618794719444
 20
158.1313355772988984
 30
0.0
 40
1.5000000000000011
  0
CIRCLE
  5
4E4
  8
LAYER1
 10
78.8678379211385732
 20
162.4047730772988984
 30
0.0
 40
1.5
  0
CIRCLE
  5
4E5
  8
LAYER1
 10
70.0345045878052019
 20
162.4047730772988984
 30
0.0
 40
1.5
  0
CIRCLE
  5
4E6
  8
LAYER1
 10
70.0345045878052019
 20
170.9516480772988984
 30
0.0
 40
1.5
  0
CIRCLE
  5
4E7
  8
LAYER1
 10
65.6406243794718876
 20
175.2250855772988984
 30
0.0
 40
1.5000000000000011
  0
CIRCLE
  5
4E8
  8
LAYER1
 10
61.2011712544718876
 20
179.4985230772988984
 30
0.0
 40
1.5
  0
CIRCLE
  5
4E9
  8
LAYER1
 10
56.8164056294718876
 20
183.7719605772988984
 30
0.0
 40
1.5000000000000011
  0
POLYLINE
  5
4EA
  8
LAYER1
 66
     1
 10
0.0
 20
0.0
 30
0.0
 70
     1
  0
VERTEX
  5
9E3
  8
LAYER1
 10
57.6723567279223133
 20
190.8552182410068951
 30
0.0
 42
-0.5554967086617538
  0
VERTEX
  5
9E4
  8
LAYER1
 10
58.0966288801031112
 20
190.8411737451170893
 30
0.0
  0
VERTEX
  5
9E5
  8
LAYER1
 10
58.8898992785158768
 20
189.467189110926796
 30
0.0
 42
-0.5773502691896355
  0
VERTEX
  5
9E6
  8
LAYER1
 10
58.6733929275698927
 20
189.092189110926796
 30
0.0
  0
VERTEX
  5
9E7
  8
LAYER1
 10
56.1064056294621025
 20
189.0921891109258866
 30
0.0
  0
VERTEX
  5
9E8
  8
LAYER1
 10
56.1064056294625289
 20
187.8624330375519946
 30
0.0
  0
VERTEX
  5
9E9
  8
LAYER1
 10
70.2520680621651081
 20
187.8624330375567126
 30
0.0
 42
0.2679491924311069
  0
VERTEX
  5
9EA
  8
LAYER1
 10
70.4685744131111846
 20
187.9874330375567979
 30
0.0
  0
VERTEX
  5
9EB
  8
LAYER1
 10
72.2929543200481817
 20
191.1473517286819117
 30
0.0
 42
-0.267949192431123
  0
VERTEX
  5
9EC
  8
LAYER1
 10
72.509460670994315
 20
191.272351728681997
 30
0.0
  0
VERTEX
  5
9ED
  8
LAYER1
 10
75.7033505879284689
 20
191.2723517286831054
 30
0.0
 42
-0.2679491924311314
  0
VERTEX
  5
9EE
  8
LAYER1
 10
75.9198569388746023
 20
191.1473517286831054
 30
0.0
  0
VERTEX
  5
9EF
  8
LAYER1
 10
76.8898992785158839
 20
189.467189110932793
 30
0.0
 42
-0.5773502691896463
  0
VERTEX
  5
9F0
  8
LAYER1
 10
76.6733929275698642
 20
189.0921891109327078
 30
0.0
  0
VERTEX
  5
9F1
  8
LAYER1
 10
74.1064056294621309
 20
189.092189110931912
 30
0.0
  0
VERTEX
  5
9F2
  8
LAYER1
 10
74.1064056294625857
 20
187.8624330375579063
 30
0.0
  0
VERTEX
  5
9F3
  8
LAYER1
 10
84.9933505879295552
 20
187.8624330375616012
 30
0.0
 42
0.2679491924311223
  0
VERTEX
  5
9F4
  8
LAYER1
 10
85.2098569388757028
 20
187.9874330375616012
 30
0.0
  0
VERTEX
  5
9F5
  8
LAYER1
 10
87.0342368458127567
 20
191.1473517286868002
 30
0.0
 42
-0.2679491924311357
  0
VERTEX
  5
9F6
  8
LAYER1
 10
87.2507431967588332
 20
191.2723517286869139
 30
0.0
  0
VERTEX
  5
9F7
  8
LAYER1
 10
90.4446331136929871
 20
191.272351728687994
 30
0.0
 42
-0.2679491924311407
  0
VERTEX
  5
9F8
  8
LAYER1
 10
90.6611394646391346
 20
191.147351728687994
 30
0.0
  0
VERTEX
  5
9F9
  8
LAYER1
 10
91.6311818042804163
 20
189.46718911093771
 30
0.0
 42
-0.5773502691896381
  0
VERTEX
  5
9FA
  8
LAYER1
 10
91.4146754533343966
 20
189.0921891109375963
 30
0.0
  0
VERTEX
  5
9FB
  8
LAYER1
 10
88.8476881552266491
 20
189.0921891109366868
 30
0.0
  0
VERTEX
  5
9FC
  8
LAYER1
 10
88.847688155227047
 20
187.8624330375627949
 30
0.0
  0
VERTEX
  5
9FD
  8
LAYER1
 10
94.8564056294623441
 20
187.8624330375648128
 30
0.0
 42
-0.4142135623730884
  0
VERTEX
  5
9FE
  8
LAYER1
 10
95.1064056294624862
 20
187.6124330375648981
 30
0.0
  0
VERTEX
  5
9FF
  8
LAYER1
 10
95.1064056294735565
 20
154.2912542684364894
 30
0.0
 42
-0.4142135623731016
  0
VERTEX
  5
A00
  8
LAYER1
 10
94.8564056294736702
 20
154.0412542684364041
 30
0.0
  0
VERTEX
  5
A01
  8
LAYER1
 10
88.847688155238302
 20
154.0412542684343862
 30
0.0
  0
VERTEX
  5
A02
  8
LAYER1
 10
88.8476881552386857
 20
152.8114981950604943
 30
0.0
  0
VERTEX
  5
A03
  8
LAYER1
 10
91.4146754533464332
 20
152.8114981950614037
 30
0.0
 42
-0.577350269189659
  0
VERTEX
  5
A04
  8
LAYER1
 10
91.6311818042926802
 20
152.4364981950614037
 30
0.0
  0
VERTEX
  5
A05
  8
LAYER1
 10
90.6611394646525355
 20
150.7563355773104945
 30
0.0
 42
-0.2679491924311137
  0
VERTEX
  5
A06
  8
LAYER1
 10
90.444633113706459
 20
150.6313355773104092
 30
0.0
  0
VERTEX
  5
A07
  8
LAYER1
 10
87.250743196772234
 20
150.6313355773093008
 30
0.0
 42
-0.2679491924311176
  0
VERTEX
  5
A08
  8
LAYER1
 10
87.0342368458261149
 20
150.7563355773091871
 30
0.0
  0
VERTEX
  5
A09
  8
LAYER1
 10
85.2098569388869436
 20
153.9162542684331925
 30
0.0
 42
0.2679491924311169
  0
VERTEX
  5
A0A
  8
LAYER1
 10
84.9933505879408244
 20
154.0412542684331925
 30
0.0
  0
VERTEX
  5
A0B
  8
LAYER1
 10
74.1064056294737838
 20
154.0412542684296113
 30
0.0
  0
VERTEX
  5
A0C
  8
LAYER1
 10
74.1064056294741818
 20
152.8114981950556057
 30
0.0
  0
VERTEX
  5
A0D
  8
LAYER1
 10
76.673392927581915
 20
152.8114981950564868
 30
0.0
 42
-0.5773502691896426
  0
VERTEX
  5
A0E
  8
LAYER1
 10
76.8898992785281621
 20
152.4364981950566005
 30
0.0
  0
VERTEX
  5
A0F
  8
LAYER1
 10
75.9198569388880031
 20
150.7563355773054923
 30
0.0
 42
-0.2679491924311048
  0
VERTEX
  5
A10
  8
LAYER1
 10
75.7033505879419408
 20
150.6313355773054923
 30
0.0
  0
VERTEX
  5
A11
  8
LAYER1
 10
72.5094606710077869
 20
150.6313355773044123
 30
0.0
 42
-0.2679491924311326
  0
VERTEX
  5
A12
  8
LAYER1
 10
72.2929543200616536
 20
150.7563355773042986
 30
0.0
  0
VERTEX
  5
A13
  8
LAYER1
 10
70.4685744131224965
 20
153.9162542684283039
 30
0.0
 42
0.2679491924311411
  0
VERTEX
  5
A14
  8
LAYER1
 10
70.2520680621763063
 20
154.0412542684283039
 30
0.0
  0
VERTEX
  5
A15
  8
LAYER1
 10
56.1064056294737767
 20
154.0412542684235859
 30
0.0
  0
VERTEX
  5
A16
  8
LAYER1
 10
56.1064056294741818
 20
152.8114981950496087
 30
0.0
  0
VERTEX
  5
A17
  8
LAYER1
 10
58.6733929275819719
 20
152.8114981950504898
 30
0.0
 42
-0.5773502691896278
  0
VERTEX
  5
A18
  8
LAYER1
 10
58.8898992785282189
 20
152.4364981950506035
 30
0.0
  0
VERTEX
  5
A19
  8
LAYER1
 10
58.096628880116377
 20
151.0625135608597986
 30
0.0
 42
-0.5554967086617832
  0
VERTEX
  5
A1A
  8
LAYER1
 10
57.6723567279355791
 20
151.0484690649695949
 30
0.0
 42
0.6477376408541123
  0
VERTEX
  5
A1B
  8
LAYER1
 10
56.3228749468176986
 20
150.8188355772990974
 30
0.0
 42
-0.3419987131196534
  0
VERTEX
  5
A1C
  8
LAYER1
 10
56.0808134876798121
 20
150.6313355772990121
 30
0.0
  0
VERTEX
  5
A1D
  8
LAYER1
 10
53.356405629474807
 20
150.6313355772981026
 30
0.0
 42
-0.4142135623731377
  0
VERTEX
  5
A1E
  8
LAYER1
 10
53.1064056294747502
 20
150.8813355772979889
 30
0.0
  0
VERTEX
  5
A1F
  8
LAYER1
 10
53.1064056294746578
 20
151.0913355772979969
 30
0.0
 42
-0.4142135623731011
  0
VERTEX
  5
A20
  8
LAYER1
 10
53.3564056294745797
 20
151.3413355772981106
 30
0.0
  0
VERTEX
  5
A21
  8
LAYER1
 10
53.8164056294745592
 20
151.3413355772981959
 30
0.0
  0
VERTEX
  5
A22
  8
LAYER1
 10
53.8164056294740689
 20
152.8114981950488982
 30
0.0
  0
VERTEX
  5
A23
  8
LAYER1
 10
53.3564056294740681
 20
152.8114981950486992
 30
0.0
 42
-0.4142135623731048
  0
VERTEX
  5
A24
  8
LAYER1
 10
53.1064056294740112
 20
153.061498195048614
 30
0.0
  0
VERTEX
  5
A25
  8
LAYER1
 10
53.1064056294733788
 20
154.8813355772983016
 30
0.0
 42
-0.4142135623730913
  0
VERTEX
  5
A26
  8
LAYER1
 10
53.3564056294733007
 20
155.1313355772983869
 30
0.0
  0
VERTEX
  5
A27
  8
LAYER1
 10
53.8164056294733086
 20
155.1313355772985005
 30
0.0
  0
VERTEX
  5
A28
  8
LAYER1
 10
53.8164056294708004
 20
162.537360981082287
 30
0.0
 42
-0.4142135623730897
  0
VERTEX
  5
A29
  8
LAYER1
 10
54.0664056294706867
 20
162.7873609810824007
 30
0.0
  0
VERTEX
  5
A2A
  8
LAYER1
 10
56.8164056294708573
 20
162.7873609810833102
 30
0.0
  0
VERTEX
  5
A2B
  8
LAYER1
 10
56.8164056294706299
 20
163.4973609810832897
 30
0.0
  0
VERTEX
  5
A2C
  8
LAYER1
 10
54.0664056294704594
 20
163.4973609810824087
 30
0.0
 42
-0.4142135623730883
  0
VERTEX
  5
A2D
  8
LAYER1
 10
53.8164056294704025
 20
163.747360981082295
 30
0.0
  0
VERTEX
  5
A2E
  8
LAYER1
 10
53.8164056294655211
 20
178.1563263248910971
 30
0.0
 42
-0.4142135623730849
  0
VERTEX
  5
A2F
  8
LAYER1
 10
54.0664056294654571
 20
178.4063263248912108
 30
0.0
  0
VERTEX
  5
A30
  8
LAYER1
 10
56.8164056294656632
 20
178.4063263248920919
 30
0.0
  0
VERTEX
  5
A31
  8
LAYER1
 10
56.8164056294654429
 20
179.1163263248922988
 30
0.0
  0
VERTEX
  5
A32
  8
LAYER1
 10
54.0664056294652369
 20
179.116326324891304
 30
0.0
 42
-0.4142135623730982
  0
VERTEX
  5
A33
  8
LAYER1
 10
53.8164056294651232
 20
179.366326324891304
 30
0.0
  0
VERTEX
  5
A34
  8
LAYER1
 10
53.8164056294627713
 20
186.7723517286754884
 30
0.0
  0
VERTEX
  5
A35
  8
LAYER1
 10
53.3564056294627491
 20
186.7723517286752895
 30
0.0
 42
-0.4142135623730853
  0
VERTEX
  5
A36
  8
LAYER1
 10
53.106405629462671
 20
187.0223517286752895
 30
0.0
  0
VERTEX
  5
A37
  8
LAYER1
 10
53.1064056294620812
 20
188.8421891109248918
 30
0.0
 42
-0.4142135623731046
  0
VERTEX
  5
A38
  8
LAYER1
 10
53.3564056294619888
 20
189.0921891109250055
 30
0.0
  0
VERTEX
  5
A39
  8
LAYER1
 10
53.8164056294619897
 20
189.0921891109250907
 30
0.0
  0
VERTEX
  5
A3A
  8
LAYER1
 10
53.8164056294614923
 20
190.5623517286757078
 30
0.0
  0
VERTEX
  5
A3B
  8
LAYER1
 10
53.3564056294614986
 20
190.5623517286755941
 30
0.0
 42
-0.4142135623731048
  0
VERTEX
  5
A3C
  8
LAYER1
 10
53.1064056294614204
 20
190.8123517286755089
 30
0.0
  0
VERTEX
  5
A3D
  8
LAYER1
 10
53.106405629461328
 20
191.0223517286754884
 30
0.0
 42
-0.4142135623731389
  0
VERTEX
  5
A3E
  8
LAYER1
 10
53.3564056294612783
 20
191.2723517286756021
 30
0.0
  0
VERTEX
  5
A3F
  8
LAYER1
 10
56.0808134876662621
 20
191.2723517286765116
 30
0.0
 42
-0.3419987131196365
  0
VERTEX
  5
A40
  8
LAYER1
 10
56.3228749468042906
 20
191.0848517286765968
 30
0.0
 42
0.6477376408541158
  0
SEQEND
  5
A41
  8
LAYER1
  0
POLYLINE
  5
4EC
  8
NOPLOT
 66
     1
 10
0.0
 20
0.0
 30
0.0
 70
     1
  0
VERTEX
  5
A42
  8
NOPLOT
 10
0.0000000000000284
 20
144.0
 30
0.0
  0
VERTEX
  5
A43
  8
NOPLOT
 10
0.0
 20
96.0
 30
0.0
  0
VERTEX
  5
A44
  8
NOPLOT
 10
96.0
 20
95.9999999999999858
 30
0.0
  0
VERTEX
  5
A45
  8
NOPLOT
 10
96.0
 20
144.0
 30
0.0
  0
SEQEND
  5
A46
  8
NOPLOT
  0
CIRCLE
  5
4ED
  8
LAYER1
 10
18.5577518079938386
 20
131.4989142165887017
 30
0.0
 40
1.5
  0
CIRCLE
  5
4EE
  8
LAYER1
 10
36.2244184746605029
 20
114.4051642165887017
 30
0.0
 40
1.5
  0
CIRCLE
  5
4EF
  8
LAYER1
 10
45.0577518079938386
 20
122.9520392165887017
 30
0.0
 40
1.5
  0
CIRCLE
  5
4F0
  8
LAYER1
 10
45.0577518079938386
 20
114.4051642165887017
 30
0.0
 40
1.5
  0
CIRCLE
  5
4F1
  8
LAYER1
 10
18.5577518079938386
 20
122.9520392165887017
 30
0.0
 40
1.5
  0
CIRCLE
  5
4F2
  8
LAYER1
 10
27.3910851413271494
 20
114.4051642165887017
 30
0.0
 40
1.5
  0
CIRCLE
  5
4F3
  8
LAYER1
 10
36.2244184746605029
 20
122.9520392165887017
 30
0.0
 40
1.5
  0
CIRCLE
  5
4F4
  8
LAYER1
 10
45.0577518079938386
 20
131.4989142165887017
 30
0.0
 40
1.5
  0
CIRCLE
  5
4F5
  8
LAYER1
 10
36.2244184746605029
 20
131.4989142165887017
 30
0.0
 40
1.5
  0
CIRCLE
  5
4F6
  8
LAYER1
 10
27.3910851413271494
 20
131.4989142165887017
 30
0.0
 40
1.5
  0
CIRCLE
  5
4F7
  8
LAYER1
 10
27.3910851413271494
 20
122.9520392165887017
 30
0.0
 40
1.5
  0
CIRCLE
  5
4F8
  8
LAYER1
 10
18.5577518079938386
 20
114.4051642165887017
 30
0.0
 40
1.5
  0
CIRCLE
  5
4F9
  8
LAYER1
 10
31.8214236829938386
 20
135.7723517165887017
 30
0.0
 40
1.5000000000000011
  0
CIRCLE
  5
4FA
  8
LAYER1
 10
40.6456424329938386
 20
127.2254767165887017
 30
0.0
 40
1.5000000000000011
  0
CIRCLE
  5
4FB
  8
LAYER1
 10
14.1729861829938102
 20
118.6786017165887017
 30
0.0
 40
1.5000000000000011
  0
CIRCLE
  5
4FC
  8
LAYER1
 10
49.4698611829938386
 20
118.6786017165887017
 30
0.0
 40
1.5000000000000011
  0
CIRCLE
  5
4FD
  8
LAYER1
 10
22.9972049329938386
 20
110.1317267165887017
 30
0.0
 40
1.5000000000000011
  0
CIRCLE
  5
4FE
  8
LAYER1
 10
31.8214236829938386
 20
110.1317267165887017
 30
0.0
 40
1.5000000000000011
  0
CIRCLE
  5
4FF
  8
LAYER1
 10
40.6456424329938386
 20
118.6786017165887017
 30
0.0
 40
1.5000000000000011
  0
CIRCLE
  5
500
  8
LAYER1
 10
14.1729861829938102
 20
127.2254767165887017
 30
0.0
 40
1.5000000000000011
  0
CIRCLE
  5
501
  8
LAYER1
 10
49.4698611829938386
 20
127.2254767165887017
 30
0.0
 40
1.5000000000000011
  0
CIRCLE
  5
502
  8
LAYER1
 10
22.9972049329938386
 20
135.7723517165887017
 30
0.0
 40
1.5000000000000011
  0
CIRCLE
  5
503
  8
LAYER1
 10
40.6456424329938386
 20
135.7723517165887017
 30
0.0
 40
1.5000000000000011
  0
CIRCLE
  5
504
  8
LAYER1
 10
31.8214236829938386
 20
127.2254767165887017
 30
0.0
 40
1.5000000000000011
  0
CIRCLE
  5
505
  8
LAYER1
 10
22.9972049329938386
 20
118.6786017165887017
 30
0.0
 40
1.5000000000000011
  0
CIRCLE
  5
506
  8
LAYER1
 10
49.4698611829938386
 20
110.1317267165887017
 30
0.0
 40
1.5000000000000011
  0
CIRCLE
  5
507
  8
LAYER1
 10
14.1729861829938102
 20
110.1317267165887017
 30
0.0
 40
1.5000000000000011
  0
CIRCLE
  5
508
  8
LAYER1
 10
40.6456424329938386
 20
110.1317267165887017
 30
0.0
 40
1.5000000000000011
  0
CIRCLE
  5
509
  8
LAYER1
 10
31.8214236829938386
 20
118.6786017165887017
 30
0.0
 40
1.5000000000000011
  0
CIRCLE
  5
50A
  8
LAYER1
 10
22.9972049329938386
 20
127.2254767165887017
 30
0.0
 40
1.5000000000000011
  0
CIRCLE
  5
50B
  8
LAYER1
 10
49.469861182993867
 20
135.7723517165887017
 30
0.0
 40
1.5000000000000011
  0
CIRCLE
  5
50C
  8
LAYER1
 10
14.1729861829938404
 20
135.7723517165887017
 30
0.0
 40
1.5000000000000011
  0
POLYLINE
  5
50D
  8
LAYER1
 66
     1
 10
0.0
 20
0.0
 30
0.0
 70
     1
  0
VERTEX
  5
A47
  8
LAYER1
 10
11.1729861829866994
 20
114.5373609689963956
 30
0.0
 42
-0.4142135623730954
  0
VERTEX
  5
A48
  8
LAYER1
 10
11.42298618298679
 20
114.7873609689962962
 30
0.0
  0
VERTEX
  5
A49
  8
LAYER1
 10
14.1729861829866994
 20
114.7873609689954009
 30
0.0
  0
VERTEX
  5
A4A
  8
LAYER1
 10
14.1729861829869304
 20
115.4973609689954941
 30
0.0
  0
VERTEX
  5
A4B
  8
LAYER1
 10
11.4229861829870192
 20
115.4973609689965031
 30
0.0
 42
-0.4142135623730936
  0
VERTEX
  5
A4C
  8
LAYER1
 10
11.1729861829870991
 20
115.7473609689966025
 30
0.0
  0
VERTEX
  5
A4D
  8
LAYER1
 10
11.1729861829919308
 20
130.1563263128053052
 30
0.0
 42
-0.4142135623730925
  0
VERTEX
  5
A4E
  8
LAYER1
 10
11.4229861829920196
 20
130.4063263128051915
 30
0.0
  0
VERTEX
  5
A4F
  8
LAYER1
 10
14.1729861829919006
 20
130.4063263128043104
 30
0.0
  0
VERTEX
  5
A50
  8
LAYER1
 10
14.1729861829921298
 20
131.11632631280429
 30
0.0
  0
VERTEX
  5
A51
  8
LAYER1
 10
11.4229861829922701
 20
131.1163263128051994
 30
0.0
 42
-0.4142135623730904
  0
VERTEX
  5
A52
  8
LAYER1
 10
11.1729861829923305
 20
131.3663263128053131
 30
0.0
  0
VERTEX
  5
A53
  8
LAYER1
 10
11.1729861829948298
 20
138.7723517165896965
 30
0.0
  0
VERTEX
  5
A54
  8
LAYER1
 10
10.7129861829948201
 20
138.7723517165898102
 30
0.0
 42
-0.4142135623730789
  0
VERTEX
  5
A55
  8
LAYER1
 10
10.4629861829949107
 20
139.0223517165898954
 30
0.0
  0
VERTEX
  5
A56
  8
LAYER1
 10
10.4629861829950492
 20
139.6124330254652079
 30
0.0
 42
-0.4142135623730799
  0
VERTEX
  5
A57
  8
LAYER1
 10
10.7129861829951398
 20
139.8624330254650943
 30
0.0
  0
VERTEX
  5
A58
  8
LAYER1
 10
13.4629861829952198
 20
139.8624330254642132
 30
0.0
  0
VERTEX
  5
A59
  8
LAYER1
 10
13.4629861829956496
 20
141.0921890988381051
 30
0.0
  0
VERTEX
  5
A5A
  8
LAYER1
 10
11.4229861829956008
 20
141.0921890988387872
 30
0.0
 42
-0.4142135623731149
  0
VERTEX
  5
A5B
  8
LAYER1
 10
11.1729861829956807
 20
141.3421890988389009
 30
0.0
  0
VERTEX
  5
A5C
  8
LAYER1
 10
11.1729861829960804
 20
142.5623517165896033
 30
0.0
  0
VERTEX
  5
A5D
  8
LAYER1
 10
10.7129861829961008
 20
142.5623517165896885
 30
0.0
 42
-0.4142135623730785
  0
VERTEX
  5
A5E
  8
LAYER1
 10
10.4629861829961897
 20
142.8123517165898022
 30
0.0
  0
VERTEX
  5
A5F
  8
LAYER1
 10
10.4629861829962501
 20
143.0223517165898102
 30
0.0
 42
-0.4142135623730897
  0
VERTEX
  5
A60
  8
LAYER1
 10
10.71298618299633
 20
143.2723517165896965
 30
0.0
  0
VERTEX
  5
A61
  8
LAYER1
 10
13.4373940412012605
 20
143.2723517165887017
 30
0.0
 42
-0.3419987131196094
  0
VERTEX
  5
A62
  8
LAYER1
 10
13.67945550033917
 20
143.084851716588588
 30
0.0
 42
0.7745966692413792
  0
VERTEX
  5
A63
  8
LAYER1
 10
15.1318242551667694
 20
143.0848517165881901
 30
0.0
 42
-0.3419987131196167
  0
VERTEX
  5
A64
  8
LAYER1
 10
15.3738857143049206
 20
143.2723517165881901
 30
0.0
  0
VERTEX
  5
A65
  8
LAYER1
 10
18.3186486156989687
 20
143.2723517165871954
 30
0.0
 42
-0.2679491924311231
  0
VERTEX
  5
A66
  8
LAYER1
 10
18.5351549666450488
 20
143.1473517165871101
 30
0.0
  0
VERTEX
  5
A67
  8
LAYER1
 10
20.3595348735820814
 20
139.987433025461911
 30
0.0
 42
0.2679491924311285
  0
VERTEX
  5
A68
  8
LAYER1
 10
20.5760412245281508
 20
139.8624330254617973
 30
0.0
  0
VERTEX
  5
A69
  8
LAYER1
 10
31.4629861829952802
 20
139.8624330254581878
 30
0.0
  0
VERTEX
  5
A6A
  8
LAYER1
 10
31.46298618299571
 20
141.0921890988321081
 30
0.0
  0
VERTEX
  5
A6B
  8
LAYER1
 10
28.8959988848878915
 20
141.0921890988329892
 30
0.0
 42
-0.5773502691896294
  0
VERTEX
  5
A6C
  8
LAYER1
 10
28.6794925339419002
 20
141.4671890988329892
 30
0.0
  0
VERTEX
  5
A6D
  8
LAYER1
 10
29.6495348735831499
 20
143.1473517165833869
 30
0.0
 42
-0.2679491924311314
  0
VERTEX
  5
A6E
  8
LAYER1
 10
29.8660412245293116
 20
143.2723517165833016
 30
0.0
  0
VERTEX
  5
A6F
  8
LAYER1
 10
36.318648615698983
 20
143.2723517165811984
 30
0.0
 42
-0.2679491924311305
  0
VERTEX
  5
A70
  8
LAYER1
 10
36.5351549666450595
 20
143.1473517165811131
 30
0.0
  0
VERTEX
  5
A71
  8
LAYER1
 10
38.3595348735820991
 20
139.987433025455914
 30
0.0
 42
0.2679491924311464
  0
VERTEX
  5
A72
  8
LAYER1
 10
38.5760412245281827
 20
139.8624330254558004
 30
0.0
  0
VERTEX
  5
A73
  8
LAYER1
 10
46.2042687087597983
 20
139.8624330254532993
 30
0.0
  0
VERTEX
  5
A74
  8
LAYER1
 10
46.2042687087602175
 20
141.0921890988271912
 30
0.0
  0
VERTEX
  5
A75
  8
LAYER1
 10
43.637281410652399
 20
141.092189098827987
 30
0.0
 42
-0.5773502691896157
  0
VERTEX
  5
A76
  8
LAYER1
 10
43.4207750597064219
 20
141.4671890988281007
 30
0.0
  0
VERTEX
  5
A77
  8
LAYER1
 10
44.3908173993476609
 20
143.1473517165784983
 30
0.0
 42
-0.2679491924311083
  0
VERTEX
  5
A78
  8
LAYER1
 10
44.6073237502938227
 20
143.2723517165784131
 30
0.0
  0
VERTEX
  5
A79
  8
LAYER1
 10
51.0599311414634869
 20
143.2723517165763099
 30
0.0
 42
-0.2679491924310869
  0
VERTEX
  5
A7A
  8
LAYER1
 10
51.2764374924095705
 20
143.1473517165761962
 30
0.0
  0
VERTEX
  5
A7B
  8
LAYER1
 10
52.4294925339416906
 20
141.1502018007174968
 30
0.0
 42
-0.1316524975873764
  0
VERTEX
  5
A7C
  8
LAYER1
 10
52.4629861829955431
 20
141.0252018007174968
 30
0.0
  0
VERTEX
  5
A7D
  8
LAYER1
 10
52.462986182983478
 20
104.8784854810564013
 30
0.0
 42
-0.1316524975873583
  0
VERTEX
  5
A7E
  8
LAYER1
 10
52.4294925339295403
 20
104.7534854810564013
 30
0.0
  0
VERTEX
  5
A7F
  8
LAYER1
 10
51.2764374923960915
 20
102.7563355651984978
 30
0.0
 42
-0.2679491924311159
  0
VERTEX
  5
A80
  8
LAYER1
 10
51.0599311414499084
 20
102.6313355651984978
 30
0.0
  0
VERTEX
  5
A81
  8
LAYER1
 10
44.6073237502802726
 20
102.6313355652007004
 30
0.0
 42
-0.2679491924311166
  0
VERTEX
  5
A82
  8
LAYER1
 10
44.3908173993342032
 20
102.7563355652007999
 30
0.0
  0
VERTEX
  5
A83
  8
LAYER1
 10
43.4207750596940514
 20
104.4364981829517944
 30
0.0
 42
-0.5773502691896232
  0
VERTEX
  5
A84
  8
LAYER1
 10
43.6372814106402913
 20
104.811498182951695
 30
0.0
  0
VERTEX
  5
A85
  8
LAYER1
 10
46.2042687087481099
 20
104.8114981829508991
 30
0.0
  0
VERTEX
  5
A86
  8
LAYER1
 10
46.2042687087485078
 20
106.0412542563248053
 30
0.0
  0
VERTEX
  5
A87
  8
LAYER1
 10
38.5760412245168993
 20
106.0412542563273064
 30
0.0
 42
0.2679491924311135
  0
VERTEX
  5
A88
  8
LAYER1
 10
38.3595348735707375
 20
105.9162542563274059
 30
0.0
  0
VERTEX
  5
A89
  8
LAYER1
 10
36.5351549666315805
 20
102.7563355652034005
 30
0.0
 42
-0.2679491924311345
  0
VERTEX
  5
A8A
  8
LAYER1
 10
36.3186486156853903
 20
102.6313355652035
 30
0.0
  0
VERTEX
  5
A8B
  8
LAYER1
 10
29.8660412245157616
 20
102.6313355652056032
 30
0.0
 42
-0.2679491924311162
  0
VERTEX
  5
A8C
  8
LAYER1
 10
29.6495348735696815
 20
102.7563355652057027
 30
0.0
  0
VERTEX
  5
A8D
  8
LAYER1
 10
28.6794925339295403
 20
104.4364981829566972
 30
0.0
 42
-0.5773502691896379
  0
VERTEX
  5
A8E
  8
LAYER1
 10
28.8959988848757803
 20
104.8114981829565977
 30
0.0
  0
VERTEX
  5
A8F
  8
LAYER1
 10
31.4629861829835988
 20
104.8114981829558019
 30
0.0
  0
VERTEX
  5
A90
  8
LAYER1
 10
31.4629861829840003
 20
106.0412542563296938
 30
0.0
  0
VERTEX
  5
A91
  8
LAYER1
 10
20.5760412245168993
 20
106.0412542563333034
 30
0.0
 42
0.2679491924311281
  0
VERTEX
  5
A92
  8
LAYER1
 10
20.3595348735707091
 20
105.9162542563334029
 30
0.0
  0
VERTEX
  5
A93
  8
LAYER1
 10
18.5351549666315805
 20
102.7563355652093975
 30
0.0
 42
-0.2679491924311245
  0
VERTEX
  5
A94
  8
LAYER1
 10
18.3186486156853903
 20
102.631335565209497
 30
0.0
  0
VERTEX
  5
A95
  8
LAYER1
 10
15.3738857142914203
 20
102.6313355652104065
 30
0.0
 42
-0.3419987131196757
  0
VERTEX
  5
A96
  8
LAYER1
 10
15.1318242551535
 20
102.8188355652105059
 30
0.0
 42
0.7745966692415543
  0
VERTEX
  5
A97
  8
LAYER1
 10
13.6794555003255596
 20
102.8188355652110033
 30
0.0
 42
-0.3419987131196734
  0
VERTEX
  5
A98
  8
LAYER1
 10
13.4373940411876696
 20
102.6313355652111028
 30
0.0
  0
VERTEX
  5
A99
  8
LAYER1
 10
10.7129861829827693
 20
102.6313355652119981
 30
0.0
 42
-0.414213562373085
  0
VERTEX
  5
A9A
  8
LAYER1
 10
10.4629861829828599
 20
102.8813355652120975
 30
0.0
  0
VERTEX
  5
A9B
  8
LAYER1
 10
10.4629861829829398
 20
103.0913355652121055
 30
0.0
 42
-0.4142135623730783
  0
VERTEX
  5
A9C
  8
LAYER1
 10
10.7129861829830002
 20
103.341335565212006
 30
0.0
  0
VERTEX
  5
A9D
  8
LAYER1
 10
11.1729861829830099
 20
103.3413355652118071
 30
0.0
  0
VERTEX
  5
A9E
  8
LAYER1
 10
11.1729861829834096
 20
104.5614981829624952
 30
0.0
 42
-0.414213562373113
  0
VERTEX
  5
A9F
  8
LAYER1
 10
11.4229861829834896
 20
104.8114981829624952
 30
0.0
  0
VERTEX
  5
AA0
  8
LAYER1
 10
13.4629861829835402
 20
104.8114981829617989
 30
0.0
  0
VERTEX
  5
AA1
  8
LAYER1
 10
13.4629861829839399
 20
106.041254256335705
 30
0.0
  0
VERTEX
  5
AA2
  8
LAYER1
 10
10.7129861829838493
 20
106.0412542563366003
 30
0.0
 42
-0.4142135623730822
  0
VERTEX
  5
AA3
  8
LAYER1
 10
10.4629861829839399
 20
106.2912542563366998
 30
0.0
  0
VERTEX
  5
AA4
  8
LAYER1
 10
10.4629861829841406
 20
106.8813355652124955
 30
0.0
 42
-0.4142135623731143
  0
VERTEX
  5
AA5
  8
LAYER1
 10
10.7129861829842206
 20
107.131335565212396
 30
0.0
  0
VERTEX
  5
AA6
  8
LAYER1
 10
11.1729861829842001
 20
107.1313355652122965
 30
0.0
  0
SEQEND
  5
AA7
  8
LAYER1
  0
POLYLINE
  5
50E
  8
LAYER1
 66
     1
 10
0.0
 20
0.0
 30
0.0
 70
     1
  0
VERTEX
  5
AA8
  8
LAYER1
 10
35.5879861829834923
 20
104.4364981829549066
 30
0.0
  0
VERTEX
  5
AA9
  8
LAYER1
 10
35.5879861829835704
 20
104.6864981829550061
 30
0.0
 42
0.4142135623718103
  0
VERTEX
  5
AAA
  8
LAYER1
 10
35.4629861829835988
 20
104.811498182954395
 30
0.0
  0
VERTEX
  5
AAB
  8
LAYER1
 10
34.4629861829835704
 20
104.8114981829547929
 30
0.0
 42
0.4142135623718103
  0
VERTEX
  5
AAC
  8
LAYER1
 10
34.3379861829835065
 20
104.686498182955404
 30
0.0
  0
VERTEX
  5
AAD
  8
LAYER1
 10
34.3379861829834567
 20
104.436498182955404
 30
0.0
 42
0.4142135623730688
  0
VERTEX
  5
AAE
  8
LAYER1
 10
34.4629861829833999
 20
104.3114981829553045
 30
0.0
  0
VERTEX
  5
AAF
  8
LAYER1
 10
35.4629861829834567
 20
104.3114981829550061
 30
0.0
 42
0.4142135623730818
  0
SEQEND
  5
AB0
  8
LAYER1
  0
POLYLINE
  5
50F
  8
LAYER1
 66
     1
 10
0.0
 20
0.0
 30
0.0
 70
     1
  0
VERTEX
  5
AB1
  8
LAYER1
 10
17.5879861829834496
 20
104.4364981829610031
 30
0.0
  0
VERTEX
  5
AB2
  8
LAYER1
 10
17.5879861829835384
 20
104.6864981829610031
 30
0.0
 42
0.414213562371794
  0
VERTEX
  5
AB3
  8
LAYER1
 10
17.4629861829835988
 20
104.8114981829604062
 30
0.0
  0
VERTEX
  5
AB4
  8
LAYER1
 10
16.4629861829835384
 20
104.8114981829608041
 30
0.0
 42
0.4142135623717906
  0
VERTEX
  5
AB5
  8
LAYER1
 10
16.33798618298351
 20
104.686498182961401
 30
0.0
  0
VERTEX
  5
AB6
  8
LAYER1
 10
16.3379861829834283
 20
104.436498182961401
 30
0.0
 42
0.4142135623730673
  0
VERTEX
  5
AB7
  8
LAYER1
 10
16.4629861829833715
 20
104.3114981829613015
 30
0.0
  0
VERTEX
  5
AB8
  8
LAYER1
 10
17.4629861829834283
 20
104.3114981829610031
 30
0.0
 42
0.4142135623730853
  0
SEQEND
  5
AB9
  8
LAYER1
  0
POLYLINE
  5
510
  8
LAYER1
 66
     1
 10
0.0
 20
0.0
 30
0.0
 70
     1
  0
VERTEX
  5
ABA
  8
LAYER1
 10
50.3292687087479678
 20
104.4364981829500039
 30
0.0
  0
VERTEX
  5
ABB
  8
LAYER1
 10
50.3292687087480886
 20
104.6864981829500039
 30
0.0
 42
0.4142135623718037
  0
VERTEX
  5
ABC
  8
LAYER1
 10
50.2042687087480886
 20
104.8114981829495065
 30
0.0
  0
VERTEX
  5
ABD
  8
LAYER1
 10
49.2042687087480317
 20
104.8114981829499044
 30
0.0
 42
0.4142135623717906
  0
VERTEX
  5
ABE
  8
LAYER1
 10
49.0792687087480317
 20
104.6864981829505012
 30
0.0
  0
VERTEX
  5
ABF
  8
LAYER1
 10
49.0792687087479464
 20
104.4364981829504018
 30
0.0
 42
0.4142135623731016
  0
VERTEX
  5
AC0
  8
LAYER1
 10
49.2042687087479109
 20
104.3114981829504018
 30
0.0
  0
VERTEX
  5
AC1
  8
LAYER1
 10
50.2042687087479464
 20
104.3114981829501033
 30
0.0
 42
0.4142135623730557
  0
SEQEND
  5
AC2
  8
LAYER1
  0
POLYLINE
  5
511
  8
LAYER1
 66
     1
 10
0.0
 20
0.0
 30
0.0
 70
     1
  0
VERTEX
  5
AC3
  8
LAYER1
 10
50.329268708760253
 20
141.2171890988257985
 30
0.0
  0
VERTEX
  5
AC4
  8
LAYER1
 10
50.3292687087603383
 20
141.4671890988257985
 30
0.0
 42
0.4142135623731082
  0
VERTEX
  5
AC5
  8
LAYER1
 10
50.2042687087604023
 20
141.5921890988259122
 30
0.0
  0
VERTEX
  5
AC6
  8
LAYER1
 10
49.2042687087603383
 20
141.5921890988261964
 30
0.0
 42
0.4142135623730753
  0
VERTEX
  5
AC7
  8
LAYER1
 10
49.0792687087603099
 20
141.4671890988261964
 30
0.0
  0
VERTEX
  5
AC8
  8
LAYER1
 10
49.0792687087601891
 20
141.2171890988261964
 30
0.0
 42
0.4142135623730884
  0
VERTEX
  5
AC9
  8
LAYER1
 10
49.2042687087601678
 20
141.0921890988261964
 30
0.0
  0
VERTEX
  5
ACA
  8
LAYER1
 10
50.2042687087601891
 20
141.0921890988259122
 30
0.0
 42
0.4142135623731082
  0
SEQEND
  5
ACB
  8
LAYER1
  0
POLYLINE
  5
512
  8
LAYER1
 66
     1
 10
0.0
 20
0.0
 30
0.0
 70
     1
  0
VERTEX
  5
ACC
  8
LAYER1
 10
17.5879861829957314
 20
141.2171890988367124
 30
0.0
  0
VERTEX
  5
ACD
  8
LAYER1
 10
17.5879861829958202
 20
141.4671890988367124
 30
0.0
 42
0.4142135623731049
  0
VERTEX
  5
ACE
  8
LAYER1
 10
17.4629861829958486
 20
141.5921890988367977
 30
0.0
  0
VERTEX
  5
ACF
  8
LAYER1
 10
16.4629861829958202
 20
141.5921890988371104
 30
0.0
 42
0.4142135623731181
  0
VERTEX
  5
AD0
  8
LAYER1
 10
16.3379861829957918
 20
141.4671890988371956
 30
0.0
  0
VERTEX
  5
AD1
  8
LAYER1
 10
16.3379861829956816
 20
141.2171890988371104
 30
0.0
 42
0.4142135623730902
  0
VERTEX
  5
AD2
  8
LAYER1
 10
16.4629861829956496
 20
141.0921890988371104
 30
0.0
  0
VERTEX
  5
AD3
  8
LAYER1
 10
17.4629861829956816
 20
141.0921890988367977
 30
0.0
 42
0.4142135623731147
  0
SEQEND
  5
AD4
  8
LAYER1
  0
POLYLINE
  5
513
  8
LAYER1
 66
     1
 10
0.0
 20
0.0
 30
0.0
 70
     1
  0
VERTEX
  5
AD5
  8
LAYER1
 10
35.5879861829957633
 20
141.217189098830687
 30
0.0
  0
VERTEX
  5
AD6
  8
LAYER1
 10
35.5879861829958486
 20
141.467189098830687
 30
0.0
 42
0.4142135623730818
  0
VERTEX
  5
AD7
  8
LAYER1
 10
35.462986182995877
 20
141.5921890988308007
 30
0.0
  0
VERTEX
  5
AD8
  8
LAYER1
 10
34.4629861829958486
 20
141.5921890988311134
 30
0.0
 42
0.4142135623730884
  0
VERTEX
  5
AD9
  8
LAYER1
 10
34.3379861829957918
 20
141.4671890988311134
 30
0.0
  0
VERTEX
  5
ADA
  8
LAYER1
 10
34.3379861829957065
 20
141.2171890988311134
 30
0.0
 42
0.4142135623730818
  0
VERTEX
  5
ADB
  8
LAYER1
 10
34.4629861829956496
 20
141.0921890988311134
 30
0.0
  0
VERTEX
  5
ADC
  8
LAYER1
 10
35.4629861829957065
 20
141.0921890988308007
 30
0.0
 42
0.4142135623730951
  0
SEQEND
  5
ADD
  8
LAYER1
  0
CIRCLE
  5
514
  8
LAYER1
 10
56.8164056294718876
 20
118.6782105772988984
 30
0.0
 40
1.5000000000000011
  0
CIRCLE
  5
515
  8
LAYER1
 10
61.2011712544718876
 20
114.4047730772988984
 30
0.0
 40
1.5
  0
CIRCLE
  5
516
  8
LAYER1
 10
65.6406243794718876
 20
110.1313355772988984
 30
0.0
 40
1.5000000000000011
  0
CIRCLE
  5
517
  8
LAYER1
 10
74.4648431294718733
 20
127.2250855772988984
 30
0.0
 40
1.5000000000000011
  0
CIRCLE
  5
518
  8
LAYER1
 10
78.8678379211385732
 20
131.4985230772988984
 30
0.0
 40
1.5
  0
CIRCLE
  5
519
  8
LAYER1
 10
83.2890618794718733
 20
127.2250855772988984
 30
0.0
 40
1.5000000000000011
  0
CIRCLE
  5
51A
  8
LAYER1
 10
87.7011712544718876
 20
122.9516480772988984
 30
0.0
 40
1.5
  0
CIRCLE
  5
51B
  8
LAYER1
 10
92.1132806294718733
 20
110.1313355772988984
 30
0.0
 40
1.5000000000000011
  0
CIRCLE
  5
51C
  8
LAYER1
 10
92.1132806294718733
 20
118.6782105772988984
 30
0.0
 40
1.5000000000000011
  0
CIRCLE
  5
51D
  8
LAYER1
 10
87.7011712544718876
 20
131.4985230772988984
 30
0.0
 40
1.5
  0
CIRCLE
  5
51E
  8
LAYER1
 10
83.2890618794718733
 20
135.7719605772988984
 30
0.0
 40
1.5000000000000011
  0
CIRCLE
  5
51F
  8
LAYER1
 10
74.4648431294718733
 20
110.1313355772988984
 30
0.0
 40
1.5000000000000011
  0
CIRCLE
  5
520
  8
LAYER1
 10
74.4648431294718733
 20
135.7719605772988984
 30
0.0
 40
1.5000000000000011
  0
CIRCLE
  5
521
  8
LAYER1
 10
65.6406243794718876
 20
118.6782105772988984
 30
0.0
 40
1.5000000000000011
  0
CIRCLE
  5
522
  8
LAYER1
 10
61.2011712544718876
 20
122.9516480772988984
 30
0.0
 40
1.5
  0
CIRCLE
  5
523
  8
LAYER1
 10
56.8164056294718876
 20
127.2250855772988984
 30
0.0
 40
1.5000000000000011
  0
CIRCLE
  5
524
  8
LAYER1
 10
56.8164056294718876
 20
110.1313355772988984
 30
0.0
 40
1.5000000000000011
  0
CIRCLE
  5
525
  8
LAYER1
 10
65.6406243794718876
 20
135.7719605772988984
 30
0.0
 40
1.5000000000000011
  0
CIRCLE
  5
526
  8
LAYER1
 10
70.0345045878052019
 20
131.4985230772988984
 30
0.0
 40
1.5
  0
CIRCLE
  5
527
  8
LAYER1
 10
74.4648431294718733
 20
118.6782105772988984
 30
0.0
 40
1.5000000000000011
  0
CIRCLE
  5
528
  8
LAYER1
 10
78.8678379211385732
 20
122.9516480772988984
 30
0.0
 40
1.5
  0
CIRCLE
  5
529
  8
LAYER1
 10
83.2890618794718733
 20
118.6782105772988984
 30
0.0
 40
1.5000000000000011
  0
CIRCLE
  5
52A
  8
LAYER1
 10
92.1132806294718733
 20
135.7719605772988984
 30
0.0
 40
1.5000000000000011
  0
CIRCLE
  5
52B
  8
LAYER1
 10
87.7011712544718876
 20
114.4047730772988984
 30
0.0
 40
1.5
  0
CIRCLE
  5
52C
  8
LAYER1
 10
92.1132806294718733
 20
127.2250855772988984
 30
0.0
 40
1.5000000000000011
  0
CIRCLE
  5
52D
  8
LAYER1
 10
83.2890618794718733
 20
110.1313355772988984
 30
0.0
 40
1.5000000000000011
  0
CIRCLE
  5
52E
  8
LAYER1
 10
78.8678379211385732
 20
114.4047730772988984
 30
0.0
 40
1.5
  0
CIRCLE
  5
52F
  8
LAYER1
 10
70.0345045878052019
 20
114.4047730772988984
 30
0.0
 40
1.5
  0
CIRCLE
  5
530
  8
LAYER1
 10
70.0345045878052019
 20
122.9516480772988984
 30
0.0
 40
1.5
  0
CIRCLE
  5
531
  8
LAYER1
 10
65.6406243794718876
 20
127.2250855772988984
 30
0.0
 40
1.5000000000000011
  0
CIRCLE
  5
532
  8
LAYER1
 10
61.2011712544718876
 20
131.4985230772988984
 30
0.0
 40
1.5
  0
CIRCLE
  5
533
  8
LAYER1
 10
56.8164056294718876
 20
135.7719605772988984
 30
0.0
 40
1.5000000000000011
  0
POLYLINE
  5
534
  8
LAYER1
 66
     1
 10
0.0
 20
0.0
 30
0.0
 70
     1
  0
VERTEX
  5
ADE
  8
LAYER1
 10
57.6723567279223133
 20
142.8552182410068951
 30
0.0
 42
-0.5554967086617538
  0
VERTEX
  5
ADF
  8
LAYER1
 10
58.0966288801030828
 20
142.8411737451170893
 30
0.0
  0
VERTEX
  5
AE0
  8
LAYER1
 10
58.8898992785158768
 20
141.467189110926796
 30
0.0
 42
-0.5773502691896355
  0
VERTEX
  5
AE1
  8
LAYER1
 10
58.6733929275698571
 20
141.092189110926796
 30
0.0
  0
VERTEX
  5
AE2
  8
LAYER1
 10
56.106405629462067
 20
141.0921891109258866
 30
0.0
  0
VERTEX
  5
AE3
  8
LAYER1
 10
56.1064056294625004
 20
139.8624330375519946
 30
0.0
  0
VERTEX
  5
AE4
  8
LAYER1
 10
70.2520680621651081
 20
139.8624330375565989
 30
0.0
 42
0.2679491924311069
  0
VERTEX
  5
AE5
  8
LAYER1
 10
70.4685744131111846
 20
139.9874330375567126
 30
0.0
  0
VERTEX
  5
AE6
  8
LAYER1
 10
72.2929543200481817
 20
143.1473517286819117
 30
0.0
 42
-0.267949192431123
  0
VERTEX
  5
AE7
  8
LAYER1
 10
72.5094606709942582
 20
143.272351728681997
 30
0.0
  0
VERTEX
  5
AE8
  8
LAYER1
 10
75.7033505879284689
 20
143.2723517286831054
 30
0.0
 42
-0.2679491924311314
  0
VERTEX
  5
AE9
  8
LAYER1
 10
75.9198569388746023
 20
143.1473517286831054
 30
0.0
  0
VERTEX
  5
AEA
  8
LAYER1
 10
76.8898992785158839
 20
141.467189110932793
 30
0.0
 42
-0.5773502691896463
  0
VERTEX
  5
AEB
  8
LAYER1
 10
76.6733929275698642
 20
141.0921891109327078
 30
0.0
  0
VERTEX
  5
AEC
  8
LAYER1
 10
74.1064056294621309
 20
141.092189110931912
 30
0.0
  0
VERTEX
  5
AED
  8
LAYER1
 10
74.1064056294625289
 20
139.8624330375579063
 30
0.0
  0
VERTEX
  5
AEE
  8
LAYER1
 10
84.9933505879295552
 20
139.8624330375616012
 30
0.0
 42
0.2679491924311223
  0
VERTEX
  5
AEF
  8
LAYER1
 10
85.2098569388756459
 20
139.9874330375616012
 30
0.0
  0
VERTEX
  5
AF0
  8
LAYER1
 10
87.0342368458126998
 20
143.1473517286868002
 30
0.0
 42
-0.2679491924311357
  0
VERTEX
  5
AF1
  8
LAYER1
 10
87.2507431967588332
 20
143.2723517286869139
 30
0.0
  0
VERTEX
  5
AF2
  8
LAYER1
 10
90.4446331136929302
 20
143.272351728687994
 30
0.0
 42
-0.2679491924311407
  0
VERTEX
  5
AF3
  8
LAYER1
 10
90.6611394646391346
 20
143.147351728687994
 30
0.0
  0
VERTEX
  5
AF4
  8
LAYER1
 10
91.6311818042804163
 20
141.4671891109375963
 30
0.0
 42
-0.5773502691896381
  0
VERTEX
  5
AF5
  8
LAYER1
 10
91.4146754533343966
 20
141.0921891109375963
 30
0.0
  0
VERTEX
  5
AF6
  8
LAYER1
 10
88.8476881552266491
 20
141.0921891109366868
 30
0.0
  0
VERTEX
  5
AF7
  8
LAYER1
 10
88.847688155227047
 20
139.8624330375627949
 30
0.0
  0
VERTEX
  5
AF8
  8
LAYER1
 10
94.8564056294623441
 20
139.8624330375648128
 30
0.0
 42
-0.4142135623730884
  0
VERTEX
  5
AF9
  8
LAYER1
 10
95.1064056294624862
 20
139.6124330375648981
 30
0.0
  0
VERTEX
  5
AFA
  8
LAYER1
 10
95.1064056294735565
 20
106.2912542684365036
 30
0.0
 42
-0.4142135623731016
  0
VERTEX
  5
AFB
  8
LAYER1
 10
94.8564056294736133
 20
106.0412542684364041
 30
0.0
  0
VERTEX
  5
AFC
  8
LAYER1
 10
88.847688155238302
 20
106.0412542684344999
 30
0.0
  0
VERTEX
  5
AFD
  8
LAYER1
 10
88.8476881552386857
 20
104.8114981950604943
 30
0.0
  0
VERTEX
  5
AFE
  8
LAYER1
 10
91.4146754533464332
 20
104.8114981950614037
 30
0.0
 42
-0.577350269189659
  0
VERTEX
  5
AFF
  8
LAYER1
 10
91.6311818042926802
 20
104.4364981950614037
 30
0.0
  0
VERTEX
  5
B00
  8
LAYER1
 10
90.6611394646525355
 20
102.756335577310395
 30
0.0
 42
-0.2679491924311137
  0
VERTEX
  5
B01
  8
LAYER1
 10
90.444633113706459
 20
102.631335577310395
 30
0.0
  0
VERTEX
  5
B02
  8
LAYER1
 10
87.250743196772234
 20
102.6313355773093008
 30
0.0
 42
-0.2679491924311176
  0
VERTEX
  5
B03
  8
LAYER1
 10
87.0342368458261149
 20
102.7563355773093008
 30
0.0
  0
VERTEX
  5
B04
  8
LAYER1
 10
85.2098569388869436
 20
105.9162542684332067
 30
0.0
 42
0.2679491924311169
  0
VERTEX
  5
B05
  8
LAYER1
 10
84.9933505879408244
 20
106.0412542684332067
 30
0.0
  0
VERTEX
  5
B06
  8
LAYER1
 10
74.1064056294737838
 20
106.0412542684294976
 30
0.0
  0
VERTEX
  5
B07
  8
LAYER1
 10
74.1064056294741818
 20
104.8114981950556057
 30
0.0
  0
VERTEX
  5
B08
  8
LAYER1
 10
76.673392927581915
 20
104.811498195056501
 30
0.0
 42
-0.5773502691896426
  0
VERTEX
  5
B09
  8
LAYER1
 10
76.8898992785281621
 20
104.436498195056501
 30
0.0
  0
VERTEX
  5
B0A
  8
LAYER1
 10
75.9198569388880031
 20
102.7563355773055065
 30
0.0
 42
-0.2679491924311048
  0
VERTEX
  5
B0B
  8
LAYER1
 10
75.7033505879419408
 20
102.6313355773055065
 30
0.0
  0
VERTEX
  5
B0C
  8
LAYER1
 10
72.5094606710077869
 20
102.631335577304398
 30
0.0
 42
-0.2679491924311326
  0
VERTEX
  5
B0D
  8
LAYER1
 10
72.2929543200616536
 20
102.7563355773042986
 30
0.0
  0
VERTEX
  5
B0E
  8
LAYER1
 10
70.4685744131224965
 20
105.9162542684283039
 30
0.0
 42
0.2679491924311411
  0
VERTEX
  5
B0F
  8
LAYER1
 10
70.2520680621763063
 20
106.0412542684283039
 30
0.0
  0
VERTEX
  5
B10
  8
LAYER1
 10
56.1064056294737767
 20
106.0412542684235007
 30
0.0
  0
VERTEX
  5
B11
  8
LAYER1
 10
56.1064056294741818
 20
104.8114981950495945
 30
0.0
  0
VERTEX
  5
B12
  8
LAYER1
 10
58.6733929275819719
 20
104.811498195050504
 30
0.0
 42
-0.5773502691896278
  0
VERTEX
  5
B13
  8
LAYER1
 10
58.8898992785282189
 20
104.4364981950506035
 30
0.0
  0
VERTEX
  5
B14
  8
LAYER1
 10
58.0966288801163628
 20
103.0625135608597986
 30
0.0
 42
-0.5554967086617832
  0
VERTEX
  5
B15
  8
LAYER1
 10
57.6723567279355791
 20
103.0484690649695949
 30
0.0
 42
0.6477376408541123
  0
VERTEX
  5
B16
  8
LAYER1
 10
56.3228749468176986
 20
102.8188355772990974
 30
0.0
 42
-0.3419987131196534
  0
VERTEX
  5
B17
  8
LAYER1
 10
56.0808134876798121
 20
102.6313355772989979
 30
0.0
  0
VERTEX
  5
B18
  8
LAYER1
 10
53.356405629474807
 20
102.6313355772981026
 30
0.0
 42
-0.4142135623731377
  0
VERTEX
  5
B19
  8
LAYER1
 10
53.1064056294747218
 20
102.8813355772980032
 30
0.0
  0
VERTEX
  5
B1A
  8
LAYER1
 10
53.1064056294746578
 20
103.0913355772979969
 30
0.0
 42
-0.4142135623731011
  0
VERTEX
  5
B1B
  8
LAYER1
 10
53.3564056294745797
 20
103.3413355772980964
 30
0.0
  0
VERTEX
  5
B1C
  8
LAYER1
 10
53.8164056294745592
 20
103.3413355772981959
 30
0.0
  0
VERTEX
  5
B1D
  8
LAYER1
 10
53.8164056294740689
 20
104.8114981950488982
 30
0.0
  0
VERTEX
  5
B1E
  8
LAYER1
 10
53.3564056294740681
 20
104.8114981950486992
 30
0.0
 42
-0.4142135623731048
  0
VERTEX
  5
B1F
  8
LAYER1
 10
53.1064056294740112
 20
105.0614981950485998
 30
0.0
  0
VERTEX
  5
B20
  8
LAYER1
 10
53.1064056294733788
 20
106.8813355772983016
 30
0.0
 42
-0.4142135623730913
  0
VERTEX
  5
B21
  8
LAYER1
 10
53.3564056294733007
 20
107.1313355772984011
 30
0.0
  0
VERTEX
  5
B22
  8
LAYER1
 10
53.8164056294733086
 20
107.1313355772985005
 30
0.0
  0
VERTEX
  5
B23
  8
LAYER1
 10
53.8164056294708004
 20
114.5373609810823012
 30
0.0
 42
-0.4142135623730897
  0
VERTEX
  5
B24
  8
LAYER1
 10
54.0664056294706867
 20
114.7873609810824007
 30
0.0
  0
VERTEX
  5
B25
  8
LAYER1
 10
56.8164056294708573
 20
114.787360981083296
 30
0.0
  0
VERTEX
  5
B26
  8
LAYER1
 10
56.8164056294706299
 20
115.497360981083304
 30
0.0
  0
VERTEX
  5
B27
  8
LAYER1
 10
54.0664056294704594
 20
115.4973609810823945
 30
0.0
 42
-0.4142135623730883
  0
VERTEX
  5
B28
  8
LAYER1
 10
53.8164056294703812
 20
115.747360981082295
 30
0.0
  0
VERTEX
  5
B29
  8
LAYER1
 10
53.8164056294655211
 20
130.1563263248910971
 30
0.0
 42
-0.4142135623730849
  0
VERTEX
  5
B2A
  8
LAYER1
 10
54.0664056294654287
 20
130.4063263248910971
 30
0.0
  0
VERTEX
  5
B2B
  8
LAYER1
 10
56.8164056294656632
 20
130.4063263248920919
 30
0.0
  0
VERTEX
  5
B2C
  8
LAYER1
 10
56.8164056294654003
 20
131.1163263248922988
 30
0.0
  0
VERTEX
  5
B2D
  8
LAYER1
 10
54.0664056294652013
 20
131.116326324891304
 30
0.0
 42
-0.4142135623730982
  0
VERTEX
  5
B2E
  8
LAYER1
 10
53.8164056294651232
 20
131.366326324891304
 30
0.0
  0
VERTEX
  5
B2F
  8
LAYER1
 10
53.8164056294627713
 20
138.7723517286754884
 30
0.0
  0
VERTEX
  5
B30
  8
LAYER1
 10
53.3564056294627491
 20
138.7723517286752895
 30
0.0
 42
-0.4142135623730853
  0
VERTEX
  5
B31
  8
LAYER1
 10
53.106405629462671
 20
139.0223517286752042
 30
0.0
  0
VERTEX
  5
B32
  8
LAYER1
 10
53.1064056294620812
 20
140.8421891109248918
 30
0.0
 42
-0.4142135623731046
  0
VERTEX
  5
B33
  8
LAYER1
 10
53.3564056294619888
 20
141.0921891109250055
 30
0.0
  0
VERTEX
  5
B34
  8
LAYER1
 10
53.8164056294619897
 20
141.0921891109252044
 30
0.0
  0
VERTEX
  5
B35
  8
LAYER1
 10
53.8164056294614923
 20
142.5623517286757931
 30
0.0
  0
VERTEX
  5
B36
  8
LAYER1
 10
53.3564056294614986
 20
142.5623517286755941
 30
0.0
 42
-0.4142135623731048
  0
VERTEX
  5
B37
  8
LAYER1
 10
53.1064056294614204
 20
142.8123517286755089
 30
0.0
  0
VERTEX
  5
B38
  8
LAYER1
 10
53.106405629461328
 20
143.0223517286754884
 30
0.0
 42
-0.4142135623731389
  0
VERTEX
  5
B39
  8
LAYER1
 10
53.3564056294612428
 20
143.2723517286756021
 30
0.0
  0
VERTEX
  5
B3A
  8
LAYER1
 10
56.0808134876662621
 20
143.2723517286765116
 30
0.0
 42
-0.3419987131196365
  0
VERTEX
  5
B3B
  8
LAYER1
 10
56.3228749468042906
 20
143.0848517286765968
 30
0.0
 42
0.6477376408541158
  0
SEQEND
  5
B3C
  8
LAYER1
  0
POLYLINE
  5
537
  8
NOPLOT
 66
     1
 10
0.0
 20
0.0
 30
0.0
 70
     1
  0
VERTEX
  5
B3D
  8
NOPLOT
 10
0.0
 20
96.0
 30
0.0
  0
VERTEX
  5
B3E
  8
NOPLOT
 10
0.0
 20
48.0
 30
0.0
  0
VERTEX
  5
B3F
  8
NOPLOT
 10
96.0
 20
47.9999999999999716
 30
0.0
  0
VERTEX
  5
B40
  8
NOPLOT
 10
96.0
 20
95.9999999999999858
 30
0.0
  0
SEQEND
  5
B41
  8
NOPLOT
  0
CIRCLE
  5
538
  8
LAYER1
 10
18.5577518079938102
 20
83.4989142165887159
 30
0.0
 40
1.5
  0
CIRCLE
  5
539
  8
LAYER1
 10
36.2244184746605029
 20
66.4051642165887017
 30
0.0
 40
1.5
  0
CIRCLE
  5
53A
  8
LAYER1
 10
45.0577518079938386
 20
74.9520392165886875
 30
0.0
 40
1.5
  0
CIRCLE
  5
53B
  8
LAYER1
 10
45.0577518079938386
 20
66.4051642165886875
 30
0.0
 40
1.5
  0
CIRCLE
  5
53C
  8
LAYER1
 10
18.5577518079938102
 20
74.9520392165887017
 30
0.0
 40
1.5
  0
CIRCLE
  5
53D
  8
LAYER1
 10
27.3910851413271494
 20
66.4051642165887017
 30
0.0
 40
1.5
  0
CIRCLE
  5
53E
  8
LAYER1
 10
36.2244184746605029
 20
74.9520392165887017
 30
0.0
 40
1.5
  0
CIRCLE
  5
53F
  8
LAYER1
 10
45.0577518079938386
 20
83.4989142165887017
 30
0.0
 40
1.5
  0
CIRCLE
  5
540
  8
LAYER1
 10
36.2244184746605029
 20
83.4989142165887159
 30
0.0
 40
1.5
  0
CIRCLE
  5
541
  8
LAYER1
 10
27.3910851413271494
 20
83.4989142165887159
 30
0.0
 40
1.5
  0
CIRCLE
  5
542
  8
LAYER1
 10
27.3910851413271494
 20
74.9520392165887017
 30
0.0
 40
1.5
  0
CIRCLE
  5
543
  8
LAYER1
 10
18.5577518079938102
 20
66.4051642165887017
 30
0.0
 40
1.5
  0
CIRCLE
  5
544
  8
LAYER1
 10
31.8214236829938386
 20
87.7723517165887159
 30
0.0
 40
1.5000000000000011
  0
CIRCLE
  5
545
  8
LAYER1
 10
40.6456424329938386
 20
79.2254767165887017
 30
0.0
 40
1.5000000000000011
  0
CIRCLE
  5
546
  8
LAYER1
 10
14.1729861829938102
 20
70.6786017165887017
 30
0.0
 40
1.5000000000000011
  0
CIRCLE
  5
547
  8
LAYER1
 10
49.4698611829938386
 20
70.6786017165886733
 30
0.0
 40
1.5000000000000011
  0
CIRCLE
  5
548
  8
LAYER1
 10
22.9972049329938102
 20
62.1317267165887017
 30
0.0
 40
1.5000000000000011
  0
CIRCLE
  5
549
  8
LAYER1
 10
31.8214236829938102
 20
62.1317267165887017
 30
0.0
 40
1.5000000000000011
  0
CIRCLE
  5
54A
  8
LAYER1
 10
40.6456424329938386
 20
70.6786017165886733
 30
0.0
 40
1.5000000000000011
  0
CIRCLE
  5
54B
  8
LAYER1
 10
14.1729861829938102
 20
79.2254767165887159
 30
0.0
 40
1.5000000000000011
  0
CIRCLE
  5
54C
  8
LAYER1
 10
49.4698611829938386
 20
79.2254767165887017
 30
0.0
 40
1.5000000000000011
  0
CIRCLE
  5
54D
  8
LAYER1
 10
22.9972049329938102
 20
87.7723517165887159
 30
0.0
 40
1.5000000000000011
  0
CIRCLE
  5
54E
  8
LAYER1
 10
40.6456424329938386
 20
87.7723517165887159
 30
0.0
 40
1.5000000000000011
  0
CIRCLE
  5
54F
  8
LAYER1
 10
31.8214236829938386
 20
79.2254767165887159
 30
0.0
 40
1.5000000000000011
  0
CIRCLE
  5
550
  8
LAYER1
 10
22.9972049329938102
 20
70.6786017165887017
 30
0.0
 40
1.5000000000000011
  0
CIRCLE
  5
551
  8
LAYER1
 10
49.4698611829938386
 20
62.1317267165887017
 30
0.0
 40
1.5000000000000011
  0
CIRCLE
  5
552
  8
LAYER1
 10
14.1729861829938102
 20
62.1317267165887017
 30
0.0
 40
1.5000000000000011
  0
CIRCLE
  5
553
  8
LAYER1
 10
40.6456424329938386
 20
62.1317267165887017
 30
0.0
 40
1.5000000000000011
  0
CIRCLE
  5
554
  8
LAYER1
 10
31.8214236829938386
 20
70.6786017165887017
 30
0.0
 40
1.5000000000000011
  0
CIRCLE
  5
555
  8
LAYER1
 10
22.9972049329938102
 20
79.2254767165887159
 30
0.0
 40
1.5000000000000011
  0
CIRCLE
  5
556
  8
LAYER1
 10
49.4698611829938386
 20
87.7723517165887159
 30
0.0
 40
1.5000000000000011
  0
CIRCLE
  5
557
  8
LAYER1
 10
14.1729861829938102
 20
87.7723517165887159
 30
0.0
 40
1.5000000000000011
  0
POLYLINE
  5
558
  8
LAYER1
 66
     1
 10
0.0
 20
0.0
 30
0.0
 70
     1
  0
VERTEX
  5
B42
  8
LAYER1
 10
11.1729861829866692
 20
66.5373609689963814
 30
0.0
 42
-0.4142135623730954
  0
VERTEX
  5
B43
  8
LAYER1
 10
11.4229861829867598
 20
66.7873609689962962
 30
0.0
  0
VERTEX
  5
B44
  8
LAYER1
 10
14.1729861829866692
 20
66.7873609689953867
 30
0.0
  0
VERTEX
  5
B45
  8
LAYER1
 10
14.1729861829869304
 20
67.4973609689955651
 30
0.0
  0
VERTEX
  5
B46
  8
LAYER1
 10
11.4229861829870192
 20
67.4973609689964889
 30
0.0
 42
-0.4142135623730936
  0
VERTEX
  5
B47
  8
LAYER1
 10
11.1729861829870991
 20
67.7473609689965741
 30
0.0
  0
VERTEX
  5
B48
  8
LAYER1
 10
11.1729861829919308
 20
82.1563263128053052
 30
0.0
 42
-0.4142135623730925
  0
VERTEX
  5
B49
  8
LAYER1
 10
11.4229861829920196
 20
82.4063263128052341
 30
0.0
  0
VERTEX
  5
B4A
  8
LAYER1
 10
14.1729861829919006
 20
82.4063263128043246
 30
0.0
  0
VERTEX
  5
B4B
  8
LAYER1
 10
14.1729861829921298
 20
83.1163263128043042
 30
0.0
  0
VERTEX
  5
B4C
  8
LAYER1
 10
11.4229861829922399
 20
83.1163263128052137
 30
0.0
 42
-0.4142135623730904
  0
VERTEX
  5
B4D
  8
LAYER1
 10
11.1729861829923305
 20
83.3663263128053131
 30
0.0
  0
VERTEX
  5
B4E
  8
LAYER1
 10
11.1729861829948298
 20
90.7723517165897107
 30
0.0
  0
VERTEX
  5
B4F
  8
LAYER1
 10
10.7129861829948201
 20
90.772351716589867
 30
0.0
 42
-0.4142135623730789
  0
VERTEX
  5
B50
  8
LAYER1
 10
10.4629861829949107
 20
91.0223517165899381
 30
0.0
  0
VERTEX
  5
B51
  8
LAYER1
 10
10.4629861829950208
 20
91.6124330254652079
 30
0.0
 42
-0.4142135623730799
  0
VERTEX
  5
B52
  8
LAYER1
 10
10.7129861829951096
 20
91.8624330254651369
 30
0.0
  0
VERTEX
  5
B53
  8
LAYER1
 10
13.4629861829952198
 20
91.862433025464199
 30
0.0
  0
VERTEX
  5
B54
  8
LAYER1
 10
13.4629861829956496
 20
93.0921890988381335
 30
0.0
  0
VERTEX
  5
B55
  8
LAYER1
 10
11.4229861829956008
 20
93.0921890988388157
 30
0.0
 42
-0.4142135623731149
  0
VERTEX
  5
B56
  8
LAYER1
 10
11.1729861829956807
 20
93.3421890988389009
 30
0.0
  0
VERTEX
  5
B57
  8
LAYER1
 10
11.1729861829960804
 20
94.5623517165896033
 30
0.0
  0
VERTEX
  5
B58
  8
LAYER1
 10
10.7129861829960706
 20
94.5623517165897738
 30
0.0
 42
-0.4142135623730785
  0
VERTEX
  5
B59
  8
LAYER1
 10
10.4629861829961897
 20
94.8123517165898448
 30
0.0
  0
VERTEX
  5
B5A
  8
LAYER1
 10
10.4629861829962501
 20
95.0223517165898386
 30
0.0
 42
-0.4142135623730897
  0
VERTEX
  5
B5B
  8
LAYER1
 10
10.71298618299633
 20
95.2723517165897533
 30
0.0
  0
VERTEX
  5
B5C
  8
LAYER1
 10
13.4373940412012605
 20
95.2723517165887301
 30
0.0
 42
-0.3419987131196094
  0
VERTEX
  5
B5D
  8
LAYER1
 10
13.6794555003391398
 20
95.0848517165886591
 30
0.0
 42
0.7745966692413792
  0
VERTEX
  5
B5E
  8
LAYER1
 10
15.1318242551667694
 20
95.0848517165882186
 30
0.0
 42
-0.3419987131196167
  0
VERTEX
  5
B5F
  8
LAYER1
 10
15.3738857143049206
 20
95.2723517165881901
 30
0.0
  0
VERTEX
  5
B60
  8
LAYER1
 10
18.318648615698951
 20
95.2723517165872238
 30
0.0
 42
-0.2679491924311231
  0
VERTEX
  5
B61
  8
LAYER1
 10
18.5351549666450204
 20
95.1473517165871243
 30
0.0
  0
VERTEX
  5
B62
  8
LAYER1
 10
20.3595348735820814
 20
91.9874330254619252
 30
0.0
 42
0.2679491924311285
  0
VERTEX
  5
B63
  8
LAYER1
 10
20.5760412245281508
 20
91.8624330254618542
 30
0.0
  0
VERTEX
  5
B64
  8
LAYER1
 10
31.4629861829952802
 20
91.8624330254582162
 30
0.0
  0
VERTEX
  5
B65
  8
LAYER1
 10
31.4629861829956816
 20
93.0921890988321081
 30
0.0
  0
VERTEX
  5
B66
  8
LAYER1
 10
28.8959988848878915
 20
93.092189098832975
 30
0.0
 42
-0.5773502691896294
  0
VERTEX
  5
B67
  8
LAYER1
 10
28.6794925339419002
 20
93.467189098833046
 30
0.0
  0
VERTEX
  5
B68
  8
LAYER1
 10
29.6495348735831499
 20
95.1473517165834153
 30
0.0
 42
-0.2679491924311314
  0
VERTEX
  5
B69
  8
LAYER1
 10
29.8660412245293116
 20
95.2723517165833584
 30
0.0
  0
VERTEX
  5
B6A
  8
LAYER1
 10
36.318648615698983
 20
95.2723517165812126
 30
0.0
 42
-0.2679491924311305
  0
VERTEX
  5
B6B
  8
LAYER1
 10
36.5351549666450168
 20
95.1473517165811558
 30
0.0
  0
VERTEX
  5
B6C
  8
LAYER1
 10
38.3595348735820991
 20
91.987433025455914
 30
0.0
 42
0.2679491924311464
  0
VERTEX
  5
B6D
  8
LAYER1
 10
38.5760412245281827
 20
91.862433025455843
 30
0.0
  0
VERTEX
  5
B6E
  8
LAYER1
 10
46.2042687087597628
 20
91.8624330254532993
 30
0.0
  0
VERTEX
  5
B6F
  8
LAYER1
 10
46.2042687087601891
 20
93.0921890988271912
 30
0.0
  0
VERTEX
  5
B70
  8
LAYER1
 10
43.6372814106523705
 20
93.092189098828058
 30
0.0
 42
-0.5773502691896157
  0
VERTEX
  5
B71
  8
LAYER1
 10
43.4207750597063793
 20
93.4671890988281433
 30
0.0
  0
VERTEX
  5
B72
  8
LAYER1
 10
44.3908173993476609
 20
95.1473517165784983
 30
0.0
 42
-0.2679491924311083
  0
VERTEX
  5
B73
  8
LAYER1
 10
44.6073237502938014
 20
95.2723517165784131
 30
0.0
  0
VERTEX
  5
B74
  8
LAYER1
 10
51.0599311414634727
 20
95.2723517165762672
 30
0.0
 42
-0.2679491924310869
  0
VERTEX
  5
B75
  8
LAYER1
 10
51.2764374924095421
 20
95.1473517165762104
 30
0.0
  0
VERTEX
  5
B76
  8
LAYER1
 10
52.4294925339416693
 20
93.1502018007175252
 30
0.0
 42
-0.1316524975873764
  0
VERTEX
  5
B77
  8
LAYER1
 10
52.4629861829955075
 20
93.0252018007175394
 30
0.0
  0
VERTEX
  5
B78
  8
LAYER1
 10
52.462986182983478
 20
56.87848548105638
 30
0.0
 42
-0.1316524975873583
  0
VERTEX
  5
B79
  8
LAYER1
 10
52.4294925339295403
 20
56.7534854810564013
 30
0.0
  0
VERTEX
  5
B7A
  8
LAYER1
 10
51.2764374923960702
 20
54.7563355651985191
 30
0.0
 42
-0.2679491924311159
  0
VERTEX
  5
B7B
  8
LAYER1
 10
51.0599311414499084
 20
54.631335565198583
 30
0.0
  0
VERTEX
  5
B7C
  8
LAYER1
 10
44.6073237502802726
 20
54.6313355652007431
 30
0.0
 42
-0.2679491924311166
  0
VERTEX
  5
B7D
  8
LAYER1
 10
44.3908173993342032
 20
54.7563355652007928
 30
0.0
  0
VERTEX
  5
B7E
  8
LAYER1
 10
43.4207750596940514
 20
56.4364981829518229
 30
0.0
 42
-0.5773502691896232
  0
VERTEX
  5
B7F
  8
LAYER1
 10
43.63728141064027
 20
56.8114981829517589
 30
0.0
  0
VERTEX
  5
B80
  8
LAYER1
 10
46.2042687087481099
 20
56.8114981829509134
 30
0.0
  0
VERTEX
  5
B81
  8
LAYER1
 10
46.2042687087485078
 20
58.0412542563248124
 30
0.0
  0
VERTEX
  5
B82
  8
LAYER1
 10
38.5760412245168993
 20
58.0412542563273703
 30
0.0
 42
0.2679491924311135
  0
VERTEX
  5
B83
  8
LAYER1
 10
38.3595348735707375
 20
57.9162542563274201
 30
0.0
  0
VERTEX
  5
B84
  8
LAYER1
 10
36.5351549666315805
 20
54.7563355652034431
 30
0.0
 42
-0.2679491924311345
  0
VERTEX
  5
B85
  8
LAYER1
 10
36.3186486156853903
 20
54.6313355652035
 30
0.0
  0
VERTEX
  5
B86
  8
LAYER1
 10
29.8660412245157616
 20
54.6313355652056316
 30
0.0
 42
-0.2679491924311162
  0
VERTEX
  5
B87
  8
LAYER1
 10
29.6495348735696815
 20
54.7563355652057382
 30
0.0
  0
VERTEX
  5
B88
  8
LAYER1
 10
28.6794925339295403
 20
56.4364981829567398
 30
0.0
 42
-0.5773502691896379
  0
VERTEX
  5
B89
  8
LAYER1
 10
28.8959988848757803
 20
56.8114981829566474
 30
0.0
  0
VERTEX
  5
B8A
  8
LAYER1
 10
31.4629861829835988
 20
56.8114981829558019
 30
0.0
  0
VERTEX
  5
B8B
  8
LAYER1
 10
31.4629861829840003
 20
58.0412542563297222
 30
0.0
  0
VERTEX
  5
B8C
  8
LAYER1
 10
20.5760412245168709
 20
58.0412542563333602
 30
0.0
 42
0.2679491924311281
  0
VERTEX
  5
B8D
  8
LAYER1
 10
20.3595348735707091
 20
57.9162542563334526
 30
0.0
  0
VERTEX
  5
B8E
  8
LAYER1
 10
18.5351549666315805
 20
54.7563355652094401
 30
0.0
 42
-0.2679491924311245
  0
VERTEX
  5
B8F
  8
LAYER1
 10
18.3186486156853903
 20
54.631335565209497
 30
0.0
  0
VERTEX
  5
B90
  8
LAYER1
 10
15.3738857142914203
 20
54.6313355652103994
 30
0.0
 42
-0.3419987131196757
  0
VERTEX
  5
B91
  8
LAYER1
 10
15.1318242551535
 20
54.8188355652104917
 30
0.0
 42
0.7745966692415543
  0
VERTEX
  5
B92
  8
LAYER1
 10
13.6794555003255596
 20
54.8188355652110104
 30
0.0
 42
-0.3419987131196734
  0
VERTEX
  5
B93
  8
LAYER1
 10
13.4373940411876394
 20
54.6313355652111383
 30
0.0
  0
VERTEX
  5
B94
  8
LAYER1
 10
10.7129861829827693
 20
54.631335565211991
 30
0.0
 42
-0.414213562373085
  0
VERTEX
  5
B95
  8
LAYER1
 10
10.4629861829828599
 20
54.8813355652121118
 30
0.0
  0
VERTEX
  5
B96
  8
LAYER1
 10
10.4629861829829096
 20
55.0913355652120913
 30
0.0
 42
-0.4142135623730783
  0
VERTEX
  5
B97
  8
LAYER1
 10
10.7129861829830002
 20
55.3413355652120131
 30
0.0
  0
VERTEX
  5
B98
  8
LAYER1
 10
11.1729861829830099
 20
55.341335565211871
 30
0.0
  0
VERTEX
  5
B99
  8
LAYER1
 10
11.1729861829834096
 20
56.5614981829625592
 30
0.0
 42
-0.414213562373113
  0
VERTEX
  5
B9A
  8
LAYER1
 10
11.4229861829834896
 20
56.8114981829625094
 30
0.0
  0
VERTEX
  5
B9B
  8
LAYER1
 10
13.4629861829835402
 20
56.8114981829618273
 30
0.0
  0
VERTEX
  5
B9C
  8
LAYER1
 10
13.4629861829839399
 20
58.0412542563357121
 30
0.0
  0
VERTEX
  5
B9D
  8
LAYER1
 10
10.7129861829838209
 20
58.0412542563366287
 30
0.0
 42
-0.4142135623730822
  0
VERTEX
  5
B9E
  8
LAYER1
 10
10.4629861829839097
 20
58.2912542563367069
 30
0.0
  0
VERTEX
  5
B9F
  8
LAYER1
 10
10.4629861829841104
 20
58.8813355652125665
 30
0.0
 42
-0.4142135623731143
  0
VERTEX
  5
BA0
  8
LAYER1
 10
10.7129861829842206
 20
59.1313355652124528
 30
0.0
  0
VERTEX
  5
BA1
  8
LAYER1
 10
11.1729861829842001
 20
59.1313355652123107
 30
0.0
  0
SEQEND
  5
BA2
  8
LAYER1
  0
POLYLINE
  5
559
  8
LAYER1
 66
     1
 10
0.0
 20
0.0
 30
0.0
 70
     1
  0
VERTEX
  5
BA3
  8
LAYER1
 10
35.5879861829834567
 20
56.4364981829549706
 30
0.0
  0
VERTEX
  5
BA4
  8
LAYER1
 10
35.5879861829835704
 20
56.6864981829549777
 30
0.0
 42
0.4142135623718103
  0
VERTEX
  5
BA5
  8
LAYER1
 10
35.4629861829835988
 20
56.8114981829544874
 30
0.0
  0
VERTEX
  5
BA6
  8
LAYER1
 10
34.462986182983542
 20
56.8114981829548
 30
0.0
 42
0.4142135623718103
  0
VERTEX
  5
BA7
  8
LAYER1
 10
34.3379861829835065
 20
56.6864981829553969
 30
0.0
  0
VERTEX
  5
BA8
  8
LAYER1
 10
34.3379861829834283
 20
56.4364981829553969
 30
0.0
 42
0.4142135623730688
  0
VERTEX
  5
BA9
  8
LAYER1
 10
34.4629861829833999
 20
56.3114981829553471
 30
0.0
  0
VERTEX
  5
BAA
  8
LAYER1
 10
35.4629861829834283
 20
56.3114981829550274
 30
0.0
 42
0.4142135623730818
  0
SEQEND
  5
BAB
  8
LAYER1
  0
POLYLINE
  5
55A
  8
LAYER1
 66
     1
 10
0.0
 20
0.0
 30
0.0
 70
     1
  0
VERTEX
  5
BAC
  8
LAYER1
 10
17.5879861829834496
 20
56.4364981829609675
 30
0.0
  0
VERTEX
  5
BAD
  8
LAYER1
 10
17.5879861829835384
 20
56.6864981829609675
 30
0.0
 42
0.414213562371794
  0
VERTEX
  5
BAE
  8
LAYER1
 10
17.4629861829835704
 20
56.8114981829604631
 30
0.0
  0
VERTEX
  5
BAF
  8
LAYER1
 10
16.4629861829835384
 20
56.8114981829608112
 30
0.0
 42
0.4142135623717906
  0
VERTEX
  5
BB0
  8
LAYER1
 10
16.3379861829834816
 20
56.6864981829614294
 30
0.0
  0
VERTEX
  5
BB1
  8
LAYER1
 10
16.3379861829834283
 20
56.4364981829614294
 30
0.0
 42
0.4142135623730673
  0
VERTEX
  5
BB2
  8
LAYER1
 10
16.4629861829833715
 20
56.3114981829613725
 30
0.0
  0
VERTEX
  5
BB3
  8
LAYER1
 10
17.4629861829833999
 20
56.3114981829610315
 30
0.0
 42
0.4142135623730853
  0
SEQEND
  5
BB4
  8
LAYER1
  0
POLYLINE
  5
55B
  8
LAYER1
 66
     1
 10
0.0
 20
0.0
 30
0.0
 70
     1
  0
VERTEX
  5
BB5
  8
LAYER1
 10
50.3292687087479678
 20
56.4364981829500607
 30
0.0
  0
VERTEX
  5
BB6
  8
LAYER1
 10
50.3292687087480601
 20
56.6864981829500607
 30
0.0
 42
0.4142135623718037
  0
VERTEX
  5
BB7
  8
LAYER1
 10
50.2042687087480886
 20
56.811498182949542
 30
0.0
  0
VERTEX
  5
BB8
  8
LAYER1
 10
49.2042687087480317
 20
56.8114981829498902
 30
0.0
 42
0.4142135623717906
  0
VERTEX
  5
BB9
  8
LAYER1
 10
49.0792687087480317
 20
56.6864981829504799
 30
0.0
  0
VERTEX
  5
BBA
  8
LAYER1
 10
49.079268708747918
 20
56.436498182950487
 30
0.0
 42
0.4142135623731016
  0
VERTEX
  5
BBB
  8
LAYER1
 10
49.2042687087478896
 20
56.3114981829504586
 30
0.0
  0
VERTEX
  5
BBC
  8
LAYER1
 10
50.204268708747918
 20
56.3114981829501104
 30
0.0
 42
0.4142135623730557
  0
SEQEND
  5
BBD
  8
LAYER1
  0
POLYLINE
  5
55C
  8
LAYER1
 66
     1
 10
0.0
 20
0.0
 30
0.0
 70
     1
  0
VERTEX
  5
BBE
  8
LAYER1
 10
50.329268708760253
 20
93.2171890988258269
 30
0.0
  0
VERTEX
  5
BBF
  8
LAYER1
 10
50.3292687087603099
 20
93.4671890988258269
 30
0.0
 42
0.4142135623731082
  0
VERTEX
  5
BC0
  8
LAYER1
 10
50.2042687087603596
 20
93.5921890988258696
 30
0.0
  0
VERTEX
  5
BC1
  8
LAYER1
 10
49.2042687087603099
 20
93.5921890988261964
 30
0.0
 42
0.4142135623730753
  0
VERTEX
  5
BC2
  8
LAYER1
 10
49.0792687087602815
 20
93.4671890988262248
 30
0.0
  0
VERTEX
  5
BC3
  8
LAYER1
 10
49.0792687087601891
 20
93.217189098826239
 30
0.0
 42
0.4142135623730884
  0
VERTEX
  5
BC4
  8
LAYER1
 10
49.2042687087601323
 20
93.0921890988261964
 30
0.0
  0
VERTEX
  5
BC5
  8
LAYER1
 10
50.2042687087601891
 20
93.0921890988258554
 30
0.0
 42
0.4142135623731082
  0
SEQEND
  5
BC6
  8
LAYER1
  0
POLYLINE
  5
55D
  8
LAYER1
 66
     1
 10
0.0
 20
0.0
 30
0.0
 70
     1
  0
VERTEX
  5
BC7
  8
LAYER1
 10
17.5879861829957314
 20
93.2171890988367551
 30
0.0
  0
VERTEX
  5
BC8
  8
LAYER1
 10
17.5879861829958202
 20
93.4671890988367551
 30
0.0
 42
0.4142135623731049
  0
VERTEX
  5
BC9
  8
LAYER1
 10
17.4629861829958486
 20
93.5921890988367835
 30
0.0
  0
VERTEX
  5
BCA
  8
LAYER1
 10
16.4629861829958202
 20
93.5921890988371246
 30
0.0
 42
0.4142135623731181
  0
VERTEX
  5
BCB
  8
LAYER1
 10
16.3379861829957598
 20
93.4671890988371672
 30
0.0
  0
VERTEX
  5
BCC
  8
LAYER1
 10
16.3379861829956816
 20
93.2171890988371672
 30
0.0
 42
0.4142135623730902
  0
VERTEX
  5
BCD
  8
LAYER1
 10
16.4629861829956212
 20
93.0921890988371246
 30
0.0
  0
VERTEX
  5
BCE
  8
LAYER1
 10
17.4629861829956816
 20
93.0921890988367977
 30
0.0
 42
0.4142135623731147
  0
SEQEND
  5
BCF
  8
LAYER1
  0
POLYLINE
  5
55E
  8
LAYER1
 66
     1
 10
0.0
 20
0.0
 30
0.0
 70
     1
  0
VERTEX
  5
BD0
  8
LAYER1
 10
35.587986182995742
 20
93.2171890988307581
 30
0.0
  0
VERTEX
  5
BD1
  8
LAYER1
 10
35.5879861829958202
 20
93.4671890988307581
 30
0.0
 42
0.4142135623730818
  0
VERTEX
  5
BD2
  8
LAYER1
 10
35.462986182995877
 20
93.5921890988308149
 30
0.0
  0
VERTEX
  5
BD3
  8
LAYER1
 10
34.4629861829958202
 20
93.5921890988311276
 30
0.0
 42
0.4142135623730884
  0
VERTEX
  5
BD4
  8
LAYER1
 10
34.3379861829957918
 20
93.4671890988311702
 30
0.0
  0
VERTEX
  5
BD5
  8
LAYER1
 10
34.3379861829956781
 20
93.2171890988311702
 30
0.0
 42
0.4142135623730818
  0
VERTEX
  5
BD6
  8
LAYER1
 10
34.4629861829956496
 20
93.0921890988311134
 30
0.0
  0
VERTEX
  5
BD7
  8
LAYER1
 10
35.4629861829956781
 20
93.0921890988308007
 30
0.0
 42
0.4142135623730951
  0
SEQEND
  5
BD8
  8
LAYER1
  0
CIRCLE
  5
55F
  8
LAYER1
 10
56.8164056294718876
 20
70.6782105772989269
 30
0.0
 40
1.5000000000000011
  0
CIRCLE
  5
560
  8
LAYER1
 10
61.2011712544718591
 20
66.4047730772989411
 30
0.0
 40
1.5
  0
CIRCLE
  5
561
  8
LAYER1
 10
65.6406243794718307
 20
62.1313355772989624
 30
0.0
 40
1.5000000000000011
  0
CIRCLE
  5
562
  8
LAYER1
 10
74.4648431294718733
 20
79.2250855772989411
 30
0.0
 40
1.5000000000000011
  0
CIRCLE
  5
563
  8
LAYER1
 10
78.8678379211385732
 20
83.4985230772989553
 30
0.0
 40
1.5
  0
CIRCLE
  5
564
  8
LAYER1
 10
83.2890618794718733
 20
79.2250855772989411
 30
0.0
 40
1.5000000000000011
  0
CIRCLE
  5
565
  8
LAYER1
 10
87.7011712544718876
 20
74.9516480772989411
 30
0.0
 40
1.5
  0
CIRCLE
  5
566
  8
LAYER1
 10
92.1132806294718733
 20
62.1313355772989269
 30
0.0
 40
1.5000000000000011
  0
CIRCLE
  5
567
  8
LAYER1
 10
92.1132806294718733
 20
70.6782105772989269
 30
0.0
 40
1.5000000000000011
  0
CIRCLE
  5
568
  8
LAYER1
 10
87.7011712544718876
 20
83.4985230772989553
 30
0.0
 40
1.5
  0
CIRCLE
  5
569
  8
LAYER1
 10
83.2890618794718733
 20
87.7719605772989269
 30
0.0
 40
1.5000000000000011
  0
CIRCLE
  5
56A
  8
LAYER1
 10
74.4648431294718733
 20
62.1313355772989624
 30
0.0
 40
1.5000000000000011
  0
CIRCLE
  5
56B
  8
LAYER1
 10
74.4648431294718733
 20
87.7719605772989269
 30
0.0
 40
1.5000000000000011
  0
CIRCLE
  5
56C
  8
LAYER1
 10
65.6406243794718876
 20
70.6782105772989269
 30
0.0
 40
1.5000000000000011
  0
CIRCLE
  5
56D
  8
LAYER1
 10
61.2011712544718876
 20
74.9516480772989411
 30
0.0
 40
1.5
  0
CIRCLE
  5
56E
  8
LAYER1
 10
56.8164056294718591
 20
79.2250855772989411
 30
0.0
 40
1.5000000000000011
  0
CIRCLE
  5
56F
  8
LAYER1
 10
56.8164056294718591
 20
62.1313355772989624
 30
0.0
 40
1.5000000000000011
  0
CIRCLE
  5
570
  8
LAYER1
 10
65.6406243794718876
 20
87.7719605772989269
 30
0.0
 40
1.5000000000000011
  0
CIRCLE
  5
571
  8
LAYER1
 10
70.0345045878052019
 20
83.4985230772989553
 30
0.0
 40
1.5
  0
CIRCLE
  5
572
  8
LAYER1
 10
74.4648431294718733
 20
70.6782105772989269
 30
0.0
 40
1.5000000000000011
  0
CIRCLE
  5
573
  8
LAYER1
 10
78.8678379211385732
 20
74.9516480772989411
 30
0.0
 40
1.5
  0
CIRCLE
  5
574
  8
LAYER1
 10
83.2890618794718733
 20
70.6782105772989269
 30
0.0
 40
1.5000000000000011
  0
CIRCLE
  5
575
  8
LAYER1
 10
92.1132806294718733
 20
87.7719605772989269
 30
0.0
 40
1.5000000000000011
  0
CIRCLE
  5
576
  8
LAYER1
 10
87.7011712544718876
 20
66.4047730772989411
 30
0.0
 40
1.5
  0
CIRCLE
  5
577
  8
LAYER1
 10
92.1132806294718733
 20
79.2250855772989411
 30
0.0
 40
1.5000000000000011
  0
CIRCLE
  5
578
  8
LAYER1
 10
83.2890618794718733
 20
62.1313355772989269
 30
0.0
 40
1.5000000000000011
  0
CIRCLE
  5
579
  8
LAYER1
 10
78.8678379211385732
 20
66.4047730772989411
 30
0.0
 40
1.5
  0
CIRCLE
  5
57A
  8
LAYER1
 10
70.0345045878052019
 20
66.4047730772989411
 30
0.0
 40
1.5
  0
CIRCLE
  5
57B
  8
LAYER1
 10
70.0345045878052019
 20
74.9516480772989411
 30
0.0
 40
1.5
  0
CIRCLE
  5
57C
  8
LAYER1
 10
65.6406243794718876
 20
79.2250855772989411
 30
0.0
 40
1.5000000000000011
  0
CIRCLE
  5
57D
  8
LAYER1
 10
61.2011712544718876
 20
83.4985230772989553
 30
0.0
 40
1.5
  0
CIRCLE
  5
57E
  8
LAYER1
 10
56.8164056294718876
 20
87.7719605772989269
 30
0.0
 40
1.5000000000000011
  0
POLYLINE
  5
57F
  8
LAYER1
 66
     1
 10
0.0
 20
0.0
 30
0.0
 70
     1
  0
VERTEX
  5
BD9
  8
LAYER1
 10
57.6723567279222777
 20
94.8552182410069946
 30
0.0
 42
-0.5554967086617538
  0
VERTEX
  5
BDA
  8
LAYER1
 10
58.0966288801030828
 20
94.8411737451170893
 30
0.0
  0
VERTEX
  5
BDB
  8
LAYER1
 10
58.8898992785158626
 20
93.4671891109268387
 30
0.0
 42
-0.5773502691896355
  0
VERTEX
  5
BDC
  8
LAYER1
 10
58.6733929275698571
 20
93.0921891109267818
 30
0.0
  0
VERTEX
  5
BDD
  8
LAYER1
 10
56.106405629462067
 20
93.092189110925915
 30
0.0
  0
VERTEX
  5
BDE
  8
LAYER1
 10
56.1064056294625004
 20
91.8624330375520088
 30
0.0
  0
VERTEX
  5
BDF
  8
LAYER1
 10
70.2520680621651081
 20
91.8624330375566984
 30
0.0
 42
0.2679491924311069
  0
VERTEX
  5
BE0
  8
LAYER1
 10
70.4685744131111846
 20
91.9874330375567553
 30
0.0
  0
VERTEX
  5
BE1
  8
LAYER1
 10
72.2929543200481817
 20
95.1473517286819401
 30
0.0
 42
-0.267949192431123
  0
VERTEX
  5
BE2
  8
LAYER1
 10
72.5094606709942582
 20
95.272351728681997
 30
0.0
  0
VERTEX
  5
BE3
  8
LAYER1
 10
75.7033505879284689
 20
95.272351728683077
 30
0.0
 42
-0.2679491924311314
  0
VERTEX
  5
BE4
  8
LAYER1
 10
75.9198569388746023
 20
95.1473517286831481
 30
0.0
  0
VERTEX
  5
BE5
  8
LAYER1
 10
76.8898992785158839
 20
93.467189110932793
 30
0.0
 42
-0.5773502691896463
  0
VERTEX
  5
BE6
  8
LAYER1
 10
76.6733929275698642
 20
93.0921891109327078
 30
0.0
  0
VERTEX
  5
BE7
  8
LAYER1
 10
74.1064056294621309
 20
93.0921891109318693
 30
0.0
  0
VERTEX
  5
BE8
  8
LAYER1
 10
74.1064056294625289
 20
91.8624330375579632
 30
0.0
  0
VERTEX
  5
BE9
  8
LAYER1
 10
84.9933505879295552
 20
91.8624330375615727
 30
0.0
 42
0.2679491924311223
  0
VERTEX
  5
BEA
  8
LAYER1
 10
85.2098569388756459
 20
91.9874330375616438
 30
0.0
  0
VERTEX
  5
BEB
  8
LAYER1
 10
87.0342368458126998
 20
95.1473517286868571
 30
0.0
 42
-0.2679491924311357
  0
VERTEX
  5
BEC
  8
LAYER1
 10
87.2507431967588332
 20
95.2723517286869139
 30
0.0
  0
VERTEX
  5
BED
  8
LAYER1
 10
90.4446331136929302
 20
95.272351728687994
 30
0.0
 42
-0.2679491924311407
  0
VERTEX
  5
BEE
  8
LAYER1
 10
90.6611394646391346
 20
95.147351728688065
 30
0.0
  0
VERTEX
  5
BEF
  8
LAYER1
 10
91.6311818042804163
 20
93.4671891109376816
 30
0.0
 42
-0.5773502691896381
  0
VERTEX
  5
BF0
  8
LAYER1
 10
91.4146754533343966
 20
93.0921891109376105
 30
0.0
  0
VERTEX
  5
BF1
  8
LAYER1
 10
88.8476881552266491
 20
93.0921891109367863
 30
0.0
  0
VERTEX
  5
BF2
  8
LAYER1
 10
88.847688155227047
 20
91.8624330375628517
 30
0.0
  0
VERTEX
  5
BF3
  8
LAYER1
 10
94.8564056294623441
 20
91.8624330375648412
 30
0.0
 42
-0.4142135623730884
  0
VERTEX
  5
BF4
  8
LAYER1
 10
95.1064056294624862
 20
91.6124330375648981
 30
0.0
  0
VERTEX
  5
BF5
  8
LAYER1
 10
95.1064056294735565
 20
58.2912542684365391
 30
0.0
 42
-0.4142135623731016
  0
VERTEX
  5
BF6
  8
LAYER1
 10
94.8564056294736133
 20
58.041254268436461
 30
0.0
  0
VERTEX
  5
BF7
  8
LAYER1
 10
88.847688155238302
 20
58.0412542684344714
 30
0.0
  0
VERTEX
  5
BF8
  8
LAYER1
 10
88.8476881552386857
 20
56.8114981950605227
 30
0.0
  0
VERTEX
  5
BF9
  8
LAYER1
 10
91.4146754533464332
 20
56.8114981950613966
 30
0.0
 42
-0.577350269189659
  0
VERTEX
  5
BFA
  8
LAYER1
 10
91.6311818042926802
 20
56.4364981950614606
 30
0.0
  0
VERTEX
  5
BFB
  8
LAYER1
 10
90.6611394646525355
 20
54.7563355773104732
 30
0.0
 42
-0.2679491924311137
  0
VERTEX
  5
BFC
  8
LAYER1
 10
90.444633113706459
 20
54.6313355773104021
 30
0.0
  0
VERTEX
  5
BFD
  8
LAYER1
 10
87.250743196772234
 20
54.6313355773093292
 30
0.0
 42
-0.2679491924311176
  0
VERTEX
  5
BFE
  8
LAYER1
 10
87.0342368458261149
 20
54.7563355773092724
 30
0.0
  0
VERTEX
  5
BFF
  8
LAYER1
 10
85.2098569388869436
 20
57.9162542684332422
 30
0.0
 42
0.2679491924311169
  0
VERTEX
  5
C00
  8
LAYER1
 10
84.9933505879408244
 20
58.0412542684331925
 30
0.0
  0
VERTEX
  5
C01
  8
LAYER1
 10
74.1064056294737838
 20
58.0412542684295829
 30
0.0
  0
VERTEX
  5
C02
  8
LAYER1
 10
74.1064056294741818
 20
56.8114981950556626
 30
0.0
  0
VERTEX
  5
C03
  8
LAYER1
 10
76.673392927581915
 20
56.8114981950565223
 30
0.0
 42
-0.5773502691896426
  0
VERTEX
  5
C04
  8
LAYER1
 10
76.8898992785281621
 20
56.4364981950565721
 30
0.0
  0
VERTEX
  5
C05
  8
LAYER1
 10
75.9198569388880031
 20
54.7563355773055704
 30
0.0
 42
-0.2679491924311048
  0
VERTEX
  5
C06
  8
LAYER1
 10
75.7033505879419408
 20
54.6313355773055207
 30
0.0
  0
VERTEX
  5
C07
  8
LAYER1
 10
72.5094606710077869
 20
54.6313355773044407
 30
0.0
 42
-0.2679491924311326
  0
VERTEX
  5
C08
  8
LAYER1
 10
72.2929543200615967
 20
54.7563355773043625
 30
0.0
  0
VERTEX
  5
C09
  8
LAYER1
 10
70.4685744131224396
 20
57.9162542684283608
 30
0.0
 42
0.2679491924311411
  0
VERTEX
  5
C0A
  8
LAYER1
 10
70.2520680621763063
 20
58.0412542684282968
 30
0.0
  0
VERTEX
  5
C0B
  8
LAYER1
 10
56.1064056294737767
 20
58.0412542684235788
 30
0.0
  0
VERTEX
  5
C0C
  8
LAYER1
 10
56.1064056294741818
 20
56.8114981950496585
 30
0.0
  0
VERTEX
  5
C0D
  8
LAYER1
 10
58.6733929275819719
 20
56.8114981950505111
 30
0.0
 42
-0.5773502691896278
  0
VERTEX
  5
C0E
  8
LAYER1
 10
58.8898992785282189
 20
56.4364981950506106
 30
0.0
  0
VERTEX
  5
C0F
  8
LAYER1
 10
58.0966288801163628
 20
55.06251356085982
 30
0.0
 42
-0.5554967086617832
  0
VERTEX
  5
C10
  8
LAYER1
 10
57.6723567279355507
 20
55.0484690649696518
 30
0.0
 42
0.6477376408541123
  0
VERTEX
  5
C11
  8
LAYER1
 10
56.3228749468176986
 20
54.8188355772991187
 30
0.0
 42
-0.3419987131196534
  0
VERTEX
  5
C12
  8
LAYER1
 10
56.0808134876797908
 20
54.6313355772990406
 30
0.0
  0
VERTEX
  5
C13
  8
LAYER1
 10
53.356405629474807
 20
54.6313355772981311
 30
0.0
 42
-0.4142135623731377
  0
VERTEX
  5
C14
  8
LAYER1
 10
53.1064056294747218
 20
54.8813355772980387
 30
0.0
  0
VERTEX
  5
C15
  8
LAYER1
 10
53.1064056294746365
 20
55.0913355772980466
 30
0.0
 42
-0.4142135623731011
  0
VERTEX
  5
C16
  8
LAYER1
 10
53.3564056294745512
 20
55.341335577298139
 30
0.0
  0
VERTEX
  5
C17
  8
LAYER1
 10
53.8164056294745592
 20
55.3413355772982811
 30
0.0
  0
VERTEX
  5
C18
  8
LAYER1
 10
53.8164056294740689
 20
56.8114981950488982
 30
0.0
  0
VERTEX
  5
C19
  8
LAYER1
 10
53.3564056294740681
 20
56.811498195048749
 30
0.0
 42
-0.4142135623731048
  0
VERTEX
  5
C1A
  8
LAYER1
 10
53.1064056294739828
 20
57.0614981950486708
 30
0.0
  0
VERTEX
  5
C1B
  8
LAYER1
 10
53.1064056294733788
 20
58.88133557729833
 30
0.0
 42
-0.4142135623730913
  0
VERTEX
  5
C1C
  8
LAYER1
 10
53.3564056294733007
 20
59.1313355772984224
 30
0.0
  0
VERTEX
  5
C1D
  8
LAYER1
 10
53.8164056294733086
 20
59.1313355772985574
 30
0.0
  0
VERTEX
  5
C1E
  8
LAYER1
 10
53.8164056294707791
 20
66.5373609810823581
 30
0.0
 42
-0.4142135623730897
  0
VERTEX
  5
C1F
  8
LAYER1
 10
54.0664056294706867
 20
66.7873609810824291
 30
0.0
  0
VERTEX
  5
C20
  8
LAYER1
 10
56.8164056294708573
 20
66.7873609810833528
 30
0.0
  0
VERTEX
  5
C21
  8
LAYER1
 10
56.8164056294706299
 20
67.4973609810833466
 30
0.0
  0
VERTEX
  5
C22
  8
LAYER1
 10
54.0664056294704594
 20
67.4973609810824371
 30
0.0
 42
-0.4142135623730883
  0
VERTEX
  5
C23
  8
LAYER1
 10
53.8164056294703812
 20
67.7473609810823518
 30
0.0
  0
VERTEX
  5
C24
  8
LAYER1
 10
53.8164056294655211
 20
82.1563263248910971
 30
0.0
 42
-0.4142135623730849
  0
VERTEX
  5
C25
  8
LAYER1
 10
54.0664056294654287
 20
82.4063263248911824
 30
0.0
  0
VERTEX
  5
C26
  8
LAYER1
 10
56.8164056294656277
 20
82.4063263248920919
 30
0.0
  0
VERTEX
  5
C27
  8
LAYER1
 10
56.8164056294654003
 20
83.1163263248922846
 30
0.0
  0
VERTEX
  5
C28
  8
LAYER1
 10
54.0664056294652013
 20
83.1163263248913609
 30
0.0
 42
-0.4142135623730982
  0
VERTEX
  5
C29
  8
LAYER1
 10
53.8164056294651232
 20
83.3663263248912898
 30
0.0
  0
VERTEX
  5
C2A
  8
LAYER1
 10
53.8164056294627287
 20
90.7723517286755168
 30
0.0
  0
VERTEX
  5
C2B
  8
LAYER1
 10
53.3564056294627491
 20
90.7723517286753463
 30
0.0
 42
-0.4142135623730853
  0
VERTEX
  5
C2C
  8
LAYER1
 10
53.1064056294626425
 20
91.022351728675261
 30
0.0
  0
VERTEX
  5
C2D
  8
LAYER1
 10
53.1064056294620812
 20
92.8421891109249344
 30
0.0
 42
-0.4142135623731046
  0
VERTEX
  5
C2E
  8
LAYER1
 10
53.3564056294619604
 20
93.0921891109250055
 30
0.0
  0
VERTEX
  5
C2F
  8
LAYER1
 10
53.8164056294619684
 20
93.0921891109251618
 30
0.0
  0
VERTEX
  5
C30
  8
LAYER1
 10
53.8164056294614923
 20
94.5623517286757647
 30
0.0
  0
VERTEX
  5
C31
  8
LAYER1
 10
53.3564056294614772
 20
94.5623517286756368
 30
0.0
 42
-0.4142135623731048
  0
VERTEX
  5
C32
  8
LAYER1
 10
53.106405629461392
 20
94.8123517286755373
 30
0.0
  0
VERTEX
  5
C33
  8
LAYER1
 10
53.106405629461328
 20
95.022351728675531
 30
0.0
 42
-0.4142135623731389
  0
VERTEX
  5
C34
  8
LAYER1
 10
53.3564056294612428
 20
95.2723517286756305
 30
0.0
  0
VERTEX
  5
C35
  8
LAYER1
 10
56.0808134876662621
 20
95.2723517286765258
 30
0.0
 42
-0.3419987131196365
  0
VERTEX
  5
C36
  8
LAYER1
 10
56.3228749468042906
 20
95.0848517286766111
 30
0.0
 42
0.6477376408541158
  0
SEQEND
  5
C37
  8
LAYER1
  0
POLYLINE
  5
589
  8
LAYER1
 66
     1
 10
0.0
 20
0.0
 30
0.0
 70
     1
  0
VERTEX
  5
C38
  8
LAYER1
 10
5.4179049342101271
 20
43.0848628667414104
 30
0.0
  0
VERTEX
  5
C39
  8
LAYER1
 10
5.062904934209711
 20
43.6997409034284985
 30
0.0
  0
VERTEX
  5
C3A
  8
LAYER1
 10
4.448026897522765
 20
43.3447409034284803
 30
0.0
  0
VERTEX
  5
C3B
  8
LAYER1
 10
4.8030268975231527
 20
42.7298628667413922
 30
0.0
  0
SEQEND
  5
C3C
  8
LAYER1
  0
POLYLINE
  5
58A
  8
LAYER1
 66
     1
 10
0.0
 20
0.0
 30
0.0
 70
     1
  0
VERTEX
  5
C3D
  8
LAYER1
 10
1.1466614848293371
 20
40.3612654931905581
 30
0.0
 42
-0.427010202730012
  0
VERTEX
  5
C3E
  8
LAYER1
 10
1.0456236109407371
 20
40.7080018925615832
 30
0.0
  0
VERTEX
  5
C3F
  8
LAYER1
 10
3.2914798921391082
 20
44.5979390780950027
 30
0.0
 42
-0.577350269189616
  0
VERTEX
  5
C40
  8
LAYER1
 10
3.724492594031346
 20
44.5979390780950382
 30
0.0
  0
VERTEX
  5
C41
  8
LAYER1
 10
3.8379455886473859
 20
44.401432727148709
 30
0.0
  0
VERTEX
  5
C42
  8
LAYER1
 10
4.4528236253345312
 20
44.7564327271486988
 30
0.0
 42
-0.3753807278219695
  0
VERTEX
  5
C43
  8
LAYER1
 10
4.7005698169764107
 20
44.9729390780947824
 30
0.0
  0
VERTEX
  5
C44
  8
LAYER1
 10
5.4179049342100711
 20
44.9729390780950595
 30
0.0
  0
VERTEX
  5
C45
  8
LAYER1
 10
5.4179049342100418
 20
45.6829390780950391
 30
0.0
  0
VERTEX
  5
C46
  8
LAYER1
 10
4.350917636101939
 20
45.682939078094762
 30
0.0
 42
-0.5773502691896324
  0
VERTEX
  5
C47
  8
LAYER1
 10
4.1344112851558057
 20
46.057939078094762
 30
0.0
  0
VERTEX
  5
C48
  8
LAYER1
 10
4.7117615543453999
 20
47.0579390780947122
 30
0.0
 42
-0.2679491924311257
  0
VERTEX
  5
C49
  8
LAYER1
 10
4.9282679052915048
 20
47.1829390780947335
 30
0.0
  0
VERTEX
  5
C4A
  8
LAYER1
 10
12.8239303379941099
 20
47.1829390780948401
 30
0.0
 42
-0.4142135623730902
  0
VERTEX
  5
C4B
  8
LAYER1
 10
13.0739303379941099
 20
46.9329390780948685
 30
0.0
  0
VERTEX
  5
C4C
  8
LAYER1
 10
13.0739303379941099
 20
46.4729390780947469
 30
0.0
  0
VERTEX
  5
C4D
  8
LAYER1
 10
13.7839303379941196
 20
46.4729390780947824
 30
0.0
  0
VERTEX
  5
C4E
  8
LAYER1
 10
13.7839303379940894
 20
46.9329390780948685
 30
0.0
 42
-0.4142135623731082
  0
VERTEX
  5
C4F
  8
LAYER1
 10
14.0339303379940894
 20
47.182939078094897
 30
0.0
  0
VERTEX
  5
C50
  8
LAYER1
 10
28.4428956818027814
 20
47.1829390780951599
 30
0.0
 42
-0.4142135623730918
  0
VERTEX
  5
C51
  8
LAYER1
 10
28.6928956818027814
 20
46.9329390780951599
 30
0.0
  0
VERTEX
  5
C52
  8
LAYER1
 10
28.6928956818028098
 20
46.4729390780951803
 30
0.0
  0
VERTEX
  5
C53
  8
LAYER1
 10
29.4028956818028213
 20
46.4729390780952087
 30
0.0
  0
VERTEX
  5
C54
  8
LAYER1
 10
29.4028956818027893
 20
46.9329390780951812
 30
0.0
 42
-0.4142135623730918
  0
VERTEX
  5
C55
  8
LAYER1
 10
29.6528956818027893
 20
47.1829390780952096
 30
0.0
  0
VERTEX
  5
C56
  8
LAYER1
 10
37.548558114505397
 20
47.1829390780953588
 30
0.0
 42
-0.2679491924311372
  0
VERTEX
  5
C57
  8
LAYER1
 10
37.765064465451502
 20
47.0579390780953517
 30
0.0
  0
VERTEX
  5
C58
  8
LAYER1
 10
38.342414734640947
 20
46.0579390780956928
 30
0.0
 42
-0.5773502691896133
  0
VERTEX
  5
C59
  8
LAYER1
 10
38.1259083836948491
 20
45.6829390780956714
 30
0.0
  0
VERTEX
  5
C5A
  8
LAYER1
 10
37.0589210855872011
 20
45.6829390780954085
 30
0.0
  0
VERTEX
  5
C5B
  8
LAYER1
 10
37.0589210855872579
 20
44.972939078095429
 30
0.0
  0
VERTEX
  5
C5C
  8
LAYER1
 10
38.1490023944623076
 20
44.9729390780955498
 30
0.0
  0
VERTEX
  5
C5D
  8
LAYER1
 10
38.7638804311495235
 20
44.6179390780953611
 30
0.0
 42
-0.5476801762481118
  0
VERTEX
  5
C5E
  8
LAYER1
 10
39.1847599625384078
 20
44.5989543458641435
 30
0.0
  0
VERTEX
  5
C5F
  8
LAYER1
 10
41.4312024088563291
 20
40.7080018925622866
 30
0.0
 42
-0.4270102027300326
  0
VERTEX
  5
C60
  8
LAYER1
 10
41.3301645349677571
 20
40.3612654931912687
 30
0.0
 42
-0.1206064267194109
  0
VERTEX
  5
C61
  8
LAYER1
 10
38.5589210855872579
 20
39.6829390780953588
 30
0.0
  0
VERTEX
  5
C62
  8
LAYER1
 10
29.6528956818029314
 20
39.6829390780951883
 30
0.0
 42
-0.4142135623731049
  0
VERTEX
  5
C63
  8
LAYER1
 10
29.4028956818029314
 20
39.9329390780951883
 30
0.0
  0
VERTEX
  5
C64
  8
LAYER1
 10
29.4028956818028995
 20
40.3929390780951891
 30
0.0
  0
VERTEX
  5
C65
  8
LAYER1
 10
28.6928956818029199
 20
40.3929390780951891
 30
0.0
  0
VERTEX
  5
C66
  8
LAYER1
 10
28.6928956818029199
 20
39.9329390780951883
 30
0.0
 42
-0.4142135623730967
  0
VERTEX
  5
C67
  8
LAYER1
 10
28.4428956818029199
 20
39.6829390780951599
 30
0.0
  0
VERTEX
  5
C68
  8
LAYER1
 10
14.0339303379943505
 20
39.6829390780949112
 30
0.0
 42
-0.4142135623730884
  0
VERTEX
  5
C69
  8
LAYER1
 10
13.7839303379943505
 20
39.9329390780949112
 30
0.0
  0
VERTEX
  5
C6A
  8
LAYER1
 10
13.7839303379943203
 20
40.3929390780947912
 30
0.0
  0
VERTEX
  5
C6B
  8
LAYER1
 10
13.0739303379943106
 20
40.3929390780947415
 30
0.0
  0
VERTEX
  5
C6C
  8
LAYER1
 10
13.0739303379943408
 20
39.9329390780948685
 30
0.0
 42
-0.4142135623730951
  0
VERTEX
  5
C6D
  8
LAYER1
 10
12.8239303379943408
 20
39.6829390780948827
 30
0.0
  0
VERTEX
  5
C6E
  8
LAYER1
 10
3.917904934209758
 20
39.6829390780947122
 30
0.0
 42
-0.1206064267194026
  0
SEQEND
  5
C6F
  8
LAYER1
  0
POLYLINE
  5
58B
  8
LAYER1
 66
     1
 10
0.0
 20
0.0
 30
0.0
 70
     1
  0
VERTEX
  5
C70
  8
LAYER1
 10
38.0287991222740018
 20
43.3447409034292832
 30
0.0
  0
VERTEX
  5
C71
  8
LAYER1
 10
37.4139210855870488
 20
43.699740903429273
 30
0.0
  0
VERTEX
  5
C72
  8
LAYER1
 10
37.0589210855871372
 20
43.0848628667418367
 30
0.0
  0
VERTEX
  5
C73
  8
LAYER1
 10
37.6737991222741186
 20
42.729862866741847
 30
0.0
  0
SEQEND
  5
C74
  8
LAYER1
  0
POLYLINE
  5
58D
  8
LAYER1
 66
     1
 10
0.0
 20
0.0
 30
0.0
 70
     1
  0
VERTEX
  5
C75
  8
LAYER1
 10
5.4179049342100987
 20
33.5208278411840581
 30
0.0
  0
VERTEX
  5
C76
  8
LAYER1
 10
5.0629049342096826
 20
34.1357058778711533
 30
0.0
  0
VERTEX
  5
C77
  8
LAYER1
 10
4.4480268975227366
 20
33.780705877871128
 30
0.0
  0
VERTEX
  5
C78
  8
LAYER1
 10
4.8030268975231527
 20
33.1658278411840399
 30
0.0
  0
SEQEND
  5
C79
  8
LAYER1
  0
POLYLINE
  5
58E
  8
LAYER1
 66
     1
 10
0.0
 20
0.0
 30
0.0
 70
     1
  0
VERTEX
  5
C7A
  8
LAYER1
 10
1.1466614848293371
 20
30.7972304676331987
 30
0.0
 42
-0.427010202730012
  0
VERTEX
  5
C7B
  8
LAYER1
 10
1.0456236109407371
 20
31.1439668670042202
 30
0.0
  0
VERTEX
  5
C7C
  8
LAYER1
 10
3.2914798921391082
 20
35.0339040525376504
 30
0.0
 42
-0.577350269189616
  0
VERTEX
  5
C7D
  8
LAYER1
 10
3.724492594031346
 20
35.0339040525376788
 30
0.0
  0
VERTEX
  5
C7E
  8
LAYER1
 10
3.8379455886473859
 20
34.8373977015913567
 30
0.0
  0
VERTEX
  5
C7F
  8
LAYER1
 10
4.4528236253345312
 20
35.1923977015913465
 30
0.0
 42
-0.3753807278219695
  0
VERTEX
  5
C80
  8
LAYER1
 10
4.7005698169764107
 20
35.4089040525374301
 30
0.0
  0
VERTEX
  5
C81
  8
LAYER1
 10
5.4179049342100711
 20
35.4089040525377072
 30
0.0
  0
VERTEX
  5
C82
  8
LAYER1
 10
5.4179049342100418
 20
36.1189040525376868
 30
0.0
  0
VERTEX
  5
C83
  8
LAYER1
 10
4.350917636101939
 20
36.1189040525374097
 30
0.0
 42
-0.5773502691896324
  0
VERTEX
  5
C84
  8
LAYER1
 10
4.1344112851558057
 20
36.4939040525374025
 30
0.0
  0
VERTEX
  5
C85
  8
LAYER1
 10
4.7117615543453999
 20
37.4939040525373528
 30
0.0
 42
-0.2679491924311257
  0
VERTEX
  5
C86
  8
LAYER1
 10
4.9282679052915048
 20
37.618904052537367
 30
0.0
  0
VERTEX
  5
C87
  8
LAYER1
 10
12.8239303379941099
 20
37.6189040525374878
 30
0.0
 42
-0.4142135623730902
  0
VERTEX
  5
C88
  8
LAYER1
 10
13.0739303379941099
 20
37.3689040525375233
 30
0.0
  0
VERTEX
  5
C89
  8
LAYER1
 10
13.0739303379941099
 20
36.9089040525373875
 30
0.0
  0
VERTEX
  5
C8A
  8
LAYER1
 10
13.7839303379941196
 20
36.9089040525374301
 30
0.0
  0
VERTEX
  5
C8B
  8
LAYER1
 10
13.7839303379940894
 20
37.3689040525375233
 30
0.0
 42
-0.4142135623731082
  0
VERTEX
  5
C8C
  8
LAYER1
 10
14.0339303379940894
 20
37.6189040525375518
 30
0.0
  0
VERTEX
  5
C8D
  8
LAYER1
 10
28.4428956818027814
 20
37.6189040525378005
 30
0.0
 42
-0.4142135623730918
  0
VERTEX
  5
C8E
  8
LAYER1
 10
28.6928956818027814
 20
37.3689040525378005
 30
0.0
  0
VERTEX
  5
C8F
  8
LAYER1
 10
28.6928956818028098
 20
36.9089040525378209
 30
0.0
  0
VERTEX
  5
C90
  8
LAYER1
 10
29.4028956818028213
 20
36.9089040525378493
 30
0.0
  0
VERTEX
  5
C91
  8
LAYER1
 10
29.4028956818027893
 20
37.3689040525378289
 30
0.0
 42
-0.4142135623730918
  0
VERTEX
  5
C92
  8
LAYER1
 10
29.6528956818027893
 20
37.6189040525378573
 30
0.0
  0
VERTEX
  5
C93
  8
LAYER1
 10
37.548558114505397
 20
37.6189040525379994
 30
0.0
 42
-0.2679491924311372
  0
VERTEX
  5
C94
  8
LAYER1
 10
37.765064465451502
 20
37.4939040525379994
 30
0.0
  0
VERTEX
  5
C95
  8
LAYER1
 10
38.342414734640947
 20
36.4939040525383405
 30
0.0
 42
-0.5773502691896133
  0
VERTEX
  5
C96
  8
LAYER1
 10
38.1259083836948491
 20
36.118904052538312
 30
0.0
  0
VERTEX
  5
C97
  8
LAYER1
 10
37.0589210855872011
 20
36.1189040525380634
 30
0.0
  0
VERTEX
  5
C98
  8
LAYER1
 10
37.0589210855872579
 20
35.4089040525380767
 30
0.0
  0
VERTEX
  5
C99
  8
LAYER1
 10
38.1490023944623076
 20
35.4089040525381904
 30
0.0
  0
VERTEX
  5
C9A
  8
LAYER1
 10
38.7638804311495235
 20
35.0539040525380017
 30
0.0
 42
-0.5476801762481118
  0
VERTEX
  5
C9B
  8
LAYER1
 10
39.1847599625384078
 20
35.0349193203067912
 30
0.0
  0
VERTEX
  5
C9C
  8
LAYER1
 10
41.4312024088563291
 20
31.1439668670049308
 30
0.0
 42
-0.4270102027300326
  0
VERTEX
  5
C9D
  8
LAYER1
 10
41.3301645349677571
 20
30.7972304676339093
 30
0.0
 42
-0.1206064267194109
  0
VERTEX
  5
C9E
  8
LAYER1
 10
38.5589210855872579
 20
30.1189040525379994
 30
0.0
  0
VERTEX
  5
C9F
  8
LAYER1
 10
29.6528956818029314
 20
30.1189040525378289
 30
0.0
 42
-0.4142135623731049
  0
VERTEX
  5
CA0
  8
LAYER1
 10
29.4028956818029314
 20
30.3689040525378289
 30
0.0
  0
VERTEX
  5
CA1
  8
LAYER1
 10
29.4028956818028995
 20
30.8289040525378404
 30
0.0
  0
VERTEX
  5
CA2
  8
LAYER1
 10
28.6928956818029199
 20
30.8289040525378404
 30
0.0
  0
VERTEX
  5
CA3
  8
LAYER1
 10
28.6928956818029199
 20
30.3689040525378289
 30
0.0
 42
-0.4142135623730967
  0
VERTEX
  5
CA4
  8
LAYER1
 10
28.4428956818029199
 20
30.1189040525378005
 30
0.0
  0
VERTEX
  5
CA5
  8
LAYER1
 10
14.0339303379943505
 20
30.1189040525375518
 30
0.0
 42
-0.4142135623730884
  0
VERTEX
  5
CA6
  8
LAYER1
 10
13.7839303379943505
 20
30.3689040525375518
 30
0.0
  0
VERTEX
  5
CA7
  8
LAYER1
 10
13.7839303379943203
 20
30.8289040525374389
 30
0.0
  0
VERTEX
  5
CA8
  8
LAYER1
 10
13.0739303379943106
 20
30.8289040525373785
 30
0.0
  0
VERTEX
  5
CA9
  8
LAYER1
 10
13.0739303379943408
 20
30.3689040525375198
 30
0.0
 42
-0.4142135623730951
  0
VERTEX
  5
CAA
  8
LAYER1
 10
12.8239303379943408
 20
30.1189040525375198
 30
0.0
  0
VERTEX
  5
CAB
  8
LAYER1
 10
3.917904934209758
 20
30.1189040525373493
 30
0.0
 42
-0.1206064267194026
  0
SEQEND
  5
CAC
  8
LAYER1
  0
POLYLINE
  5
58F
  8
LAYER1
 66
     1
 10
0.0
 20
0.0
 30
0.0
 70
     1
  0
VERTEX
  5
CAD
  8
LAYER1
 10
38.0287991222740018
 20
33.7807058778719167
 30
0.0
  0
VERTEX
  5
CAE
  8
LAYER1
 10
37.4139210855870488
 20
34.1357058778719065
 30
0.0
  0
VERTEX
  5
CAF
  8
LAYER1
 10
37.0589210855871372
 20
33.5208278411844915
 30
0.0
  0
VERTEX
  5
CB0
  8
LAYER1
 10
37.6737991222741186
 20
33.1658278411845018
 30
0.0
  0
SEQEND
  5
CB1
  8
LAYER1
  0
POLYLINE
  5
591
  8
LAYER1
 66
     1
 10
0.0
 20
0.0
 30
0.0
 70
     1
  0
VERTEX
  5
CB2
  8
LAYER1
 10
5.4179049342100987
 20
24.5943948415147986
 30
0.0
  0
VERTEX
  5
CB3
  8
LAYER1
 10
5.0629049342096826
 20
25.2092728782018902
 30
0.0
  0
VERTEX
  5
CB4
  8
LAYER1
 10
4.4480268975227366
 20
24.8542728782018685
 30
0.0
  0
VERTEX
  5
CB5
  8
LAYER1
 10
4.8030268975231527
 20
24.2393948415147804
 30
0.0
  0
SEQEND
  5
CB6
  8
LAYER1
  0
POLYLINE
  5
592
  8
LAYER1
 66
     1
 10
0.0
 20
0.0
 30
0.0
 70
     1
  0
VERTEX
  5
CB7
  8
LAYER1
 10
1.1466614848293371
 20
21.8707974679639392
 30
0.0
 42
-0.427010202730012
  0
VERTEX
  5
CB8
  8
LAYER1
 10
1.0456236109407371
 20
22.2175338673349607
 30
0.0
  0
VERTEX
  5
CB9
  8
LAYER1
 10
3.2914798921391082
 20
26.1074710528683909
 30
0.0
 42
-0.577350269189616
  0
VERTEX
  5
CBA
  8
LAYER1
 10
3.724492594031346
 20
26.1074710528684193
 30
0.0
  0
VERTEX
  5
CBB
  8
LAYER1
 10
3.8379455886473859
 20
25.9109647019221008
 30
0.0
  0
VERTEX
  5
CBC
  8
LAYER1
 10
4.4528236253345312
 20
26.2659647019220905
 30
0.0
 42
-0.3753807278219695
  0
VERTEX
  5
CBD
  8
LAYER1
 10
4.7005698169764107
 20
26.4824710528681706
 30
0.0
  0
VERTEX
  5
CBE
  8
LAYER1
 10
5.4179049342100711
 20
26.4824710528684513
 30
0.0
  0
VERTEX
  5
CBF
  8
LAYER1
 10
5.4179049342100418
 20
27.1924710528684308
 30
0.0
  0
VERTEX
  5
CC0
  8
LAYER1
 10
4.3509176361019106
 20
27.1924710528681501
 30
0.0
 42
-0.5773502691896324
  0
VERTEX
  5
CC1
  8
LAYER1
 10
4.1344112851558057
 20
27.5674710528681501
 30
0.0
  0
VERTEX
  5
CC2
  8
LAYER1
 10
4.7117615543453999
 20
28.5674710528680897
 30
0.0
 42
-0.2679491924311257
  0
VERTEX
  5
CC3
  8
LAYER1
 10
4.9282679052915048
 20
28.6924710528681217
 30
0.0
  0
VERTEX
  5
CC4
  8
LAYER1
 10
12.8239303379941099
 20
28.6924710528682283
 30
0.0
 42
-0.4142135623730902
  0
VERTEX
  5
CC5
  8
LAYER1
 10
13.0739303379941099
 20
28.4424710528682603
 30
0.0
  0
VERTEX
  5
CC6
  8
LAYER1
 10
13.0739303379941099
 20
27.9824710528681386
 30
0.0
  0
VERTEX
  5
CC7
  8
LAYER1
 10
13.7839303379941196
 20
27.9824710528681599
 30
0.0
  0
VERTEX
  5
CC8
  8
LAYER1
 10
13.7839303379940894
 20
28.4424710528682603
 30
0.0
 42
-0.4142135623731082
  0
VERTEX
  5
CC9
  8
LAYER1
 10
14.0339303379940894
 20
28.6924710528682887
 30
0.0
  0
VERTEX
  5
CCA
  8
LAYER1
 10
28.4428956818027814
 20
28.6924710528685409
 30
0.0
 42
-0.4142135623730918
  0
VERTEX
  5
CCB
  8
LAYER1
 10
28.6928956818027814
 20
28.4424710528685409
 30
0.0
  0
VERTEX
  5
CCC
  8
LAYER1
 10
28.6928956818028098
 20
27.9824710528685614
 30
0.0
  0
VERTEX
  5
CCD
  8
LAYER1
 10
29.4028956818028213
 20
27.9824710528685898
 30
0.0
  0
VERTEX
  5
CCE
  8
LAYER1
 10
29.4028956818027893
 20
28.4424710528685694
 30
0.0
 42
-0.4142135623730918
  0
VERTEX
  5
CCF
  8
LAYER1
 10
29.6528956818027893
 20
28.6924710528686013
 30
0.0
  0
VERTEX
  5
CD0
  8
LAYER1
 10
37.548558114505397
 20
28.6924710528687399
 30
0.0
 42
-0.2679491924311372
  0
VERTEX
  5
CD1
  8
LAYER1
 10
37.765064465451502
 20
28.5674710528687399
 30
0.0
  0
VERTEX
  5
CD2
  8
LAYER1
 10
38.342414734640947
 20
27.5674710528690809
 30
0.0
 42
-0.5773502691896133
  0
VERTEX
  5
CD3
  8
LAYER1
 10
38.1259083836948491
 20
27.1924710528690596
 30
0.0
  0
VERTEX
  5
CD4
  8
LAYER1
 10
37.0589210855872011
 20
27.1924710528688003
 30
0.0
  0
VERTEX
  5
CD5
  8
LAYER1
 10
37.0589210855872579
 20
26.4824710528688207
 30
0.0
  0
VERTEX
  5
CD6
  8
LAYER1
 10
38.1490023944623076
 20
26.4824710528689309
 30
0.0
  0
VERTEX
  5
CD7
  8
LAYER1
 10
38.7638804311495235
 20
26.1274710528687386
 30
0.0
 42
-0.5476801762481118
  0
VERTEX
  5
CD8
  8
LAYER1
 10
39.1847599625384078
 20
26.1084863206375317
 30
0.0
  0
VERTEX
  5
CD9
  8
LAYER1
 10
41.4312024088563291
 20
22.2175338673356713
 30
0.0
 42
-0.4270102027300326
  0
VERTEX
  5
CDA
  8
LAYER1
 10
41.3301645349677571
 20
21.8707974679646497
 30
0.0
 42
-0.1206064267194109
  0
VERTEX
  5
CDB
  8
LAYER1
 10
38.5589210855872579
 20
21.1924710528687399
 30
0.0
  0
VERTEX
  5
CDC
  8
LAYER1
 10
29.6528956818029314
 20
21.1924710528685694
 30
0.0
 42
-0.4142135623731049
  0
VERTEX
  5
CDD
  8
LAYER1
 10
29.4028956818029314
 20
21.4424710528685694
 30
0.0
  0
VERTEX
  5
CDE
  8
LAYER1
 10
29.4028956818028995
 20
21.9024710528685809
 30
0.0
  0
VERTEX
  5
CDF
  8
LAYER1
 10
28.6928956818029199
 20
21.9024710528685809
 30
0.0
  0
VERTEX
  5
CE0
  8
LAYER1
 10
28.6928956818029199
 20
21.4424710528685694
 30
0.0
 42
-0.4142135623730967
  0
VERTEX
  5
CE1
  8
LAYER1
 10
28.4428956818029199
 20
21.1924710528685409
 30
0.0
  0
VERTEX
  5
CE2
  8
LAYER1
 10
14.0339303379943505
 20
21.1924710528682887
 30
0.0
 42
-0.4142135623730884
  0
VERTEX
  5
CE3
  8
LAYER1
 10
13.7839303379943505
 20
21.4424710528682887
 30
0.0
  0
VERTEX
  5
CE4
  8
LAYER1
 10
13.7839303379943203
 20
21.9024710528681794
 30
0.0
  0
VERTEX
  5
CE5
  8
LAYER1
 10
13.0739303379943106
 20
21.902471052868119
 30
0.0
  0
VERTEX
  5
CE6
  8
LAYER1
 10
13.0739303379943408
 20
21.4424710528682603
 30
0.0
 42
-0.4142135623730951
  0
VERTEX
  5
CE7
  8
LAYER1
 10
12.8239303379943408
 20
21.1924710528682603
 30
0.0
  0
VERTEX
  5
CE8
  8
LAYER1
 10
3.917904934209758
 20
21.1924710528680897
 30
0.0
 42
-0.1206064267194026
  0
SEQEND
  5
CE9
  8
LAYER1
  0
POLYLINE
  5
593
  8
LAYER1
 66
     1
 10
0.0
 20
0.0
 30
0.0
 70
     1
  0
VERTEX
  5
CEA
  8
LAYER1
 10
38.0287991222740018
 20
24.8542728782026714
 30
0.0
  0
VERTEX
  5
CEB
  8
LAYER1
 10
37.4139210855870488
 20
25.2092728782026612
 30
0.0
  0
VERTEX
  5
CEC
  8
LAYER1
 10
37.0589210855871372
 20
24.5943948415152285
 30
0.0
  0
VERTEX
  5
CED
  8
LAYER1
 10
37.6737991222741186
 20
24.2393948415152387
 30
0.0
  0
SEQEND
  5
CEE
  8
LAYER1
  0
POLYLINE
  5
599
  8
NOPLOT
 66
     1
 10
0.0
 20
0.0
 30
0.0
 70
     1
  0
VERTEX
  5
CEF
  8
NOPLOT
 10
0.0
 20
48.0
 30
0.0
  0
VERTEX
  5
CF0
  8
NOPLOT
 10
0.0
 20
0.0
 30
0.0
  0
VERTEX
  5
CF1
  8
NOPLOT
 10
96.0
 20
-0.0000000000000284
 30
0.0
  0
VERTEX
  5
CF2
  8
NOPLOT
 10
96.0
 20
47.9999999999999716
 30
0.0
  0
SEQEND
  5
CF3
  8
NOPLOT
  0
POLYLINE
  5
5A2
  8
LAYER1
 66
     1
 10
0.0
 20
0.0
 30
0.0
 70
     1
  0
VERTEX
  5
CF4
  8
LAYER1
 10
5.6544484914950308
 20
154.8923581489688956
 30
0.0
  0
VERTEX
  5
CF5
  8
LAYER1
 10
5.0395704548079427
 20
154.5373581489683943
 30
0.0
  0
VERTEX
  5
CF6
  8
LAYER1
 10
5.3945704548079609
 20
153.9224801122815052
 30
0.0
  0
VERTEX
  5
CF7
  8
LAYER1
 10
6.009448491495049
 20
154.2774801122818928
 30
0.0
  0
SEQEND
  5
CF8
  8
LAYER1
  0
POLYLINE
  5
5A3
  8
LAYER1
 66
     1
 10
0.0
 20
0.0
 30
0.0
 70
     1
  0
VERTEX
  5
CF9
  8
LAYER1
 10
8.3780458650458911
 20
150.6211146995881052
 30
0.0
 42
-0.427010202730012
  0
VERTEX
  5
CFA
  8
LAYER1
 10
8.031309465674866
 20
150.5200768256995048
 30
0.0
  0
VERTEX
  5
CFB
  8
LAYER1
 10
4.1413722801414394
 20
152.7659331068979043
 30
0.0
 42
-0.577350269189616
  0
VERTEX
  5
CFC
  8
LAYER1
 10
4.141372280141411
 20
153.1989458087901141
 30
0.0
  0
VERTEX
  5
CFD
  8
LAYER1
 10
4.3378786310877331
 20
153.3123988034062108
 30
0.0
  0
VERTEX
  5
CFE
  8
LAYER1
 10
3.9828786310877429
 20
153.9272768400932989
 30
0.0
 42
-0.3753807278219695
  0
VERTEX
  5
CFF
  8
LAYER1
 10
3.7663722801416659
 20
154.1750230317352077
 30
0.0
  0
VERTEX
  5
D00
  8
LAYER1
 10
3.7663722801413821
 20
154.8923581489688104
 30
0.0
  0
VERTEX
  5
D01
  8
LAYER1
 10
3.0563722801414031
 20
154.8923581489688104
 30
0.0
  0
VERTEX
  5
D02
  8
LAYER1
 10
3.0563722801416868
 20
153.8253708508607076
 30
0.0
 42
-0.5773502691896324
  0
VERTEX
  5
D03
  8
LAYER1
 10
2.6813722801416868
 20
153.6088644999146027
 30
0.0
  0
VERTEX
  5
D04
  8
LAYER1
 10
1.6813722801417439
 20
154.1862147691041116
 30
0.0
 42
-0.2679491924311257
  0
VERTEX
  5
D05
  8
LAYER1
 10
1.556372280141715
 20
154.4027211200501881
 30
0.0
  0
VERTEX
  5
D06
  8
LAYER1
 10
1.556372280141602
 20
162.2983835527529095
 30
0.0
 42
-0.4142135623730902
  0
VERTEX
  5
D07
  8
LAYER1
 10
1.8063722801415729
 20
162.5483835527529095
 30
0.0
  0
VERTEX
  5
D08
  8
LAYER1
 10
2.2663722801416948
 20
162.5483835527529095
 30
0.0
  0
VERTEX
  5
D09
  8
LAYER1
 10
2.2663722801416659
 20
163.258383552752889
 30
0.0
  0
VERTEX
  5
D0A
  8
LAYER1
 10
1.8063722801415729
 20
163.258383552752889
 30
0.0
 42
-0.4142135623731082
  0
VERTEX
  5
D0B
  8
LAYER1
 10
1.5563722801415449
 20
163.508383552752889
 30
0.0
  0
VERTEX
  5
D0C
  8
LAYER1
 10
1.5563722801412889
 20
177.9173488965616059
 30
0.0
 42
-0.4142135623730918
  0
VERTEX
  5
D0D
  8
LAYER1
 10
1.8063722801412889
 20
178.1673488965616059
 30
0.0
  0
VERTEX
  5
D0E
  8
LAYER1
 10
2.266372280141268
 20
178.1673488965616059
 30
0.0
  0
VERTEX
  5
D0F
  8
LAYER1
 10
2.26637228014124
 20
178.8773488965616139
 30
0.0
  0
VERTEX
  5
D10
  8
LAYER1
 10
1.8063722801412601
 20
178.8773488965616139
 30
0.0
 42
-0.4142135623730918
  0
VERTEX
  5
D11
  8
LAYER1
 10
1.5563722801412321
 20
179.1273488965615002
 30
0.0
  0
VERTEX
  5
D12
  8
LAYER1
 10
1.55637228014109
 20
187.0230113292641931
 30
0.0
 42
-0.2679491924311372
  0
VERTEX
  5
D13
  8
LAYER1
 10
1.68137228014109
 20
187.2395176802102981
 30
0.0
  0
VERTEX
  5
D14
  8
LAYER1
 10
2.6813722801407489
 20
187.8168679493996933
 30
0.0
 42
-0.5773502691896133
  0
VERTEX
  5
D15
  8
LAYER1
 10
3.0563722801407769
 20
187.6003615984535884
 30
0.0
  0
VERTEX
  5
D16
  8
LAYER1
 10
3.0563722801410331
 20
186.5333743003459972
 30
0.0
  0
VERTEX
  5
D17
  8
LAYER1
 10
3.7663722801410131
 20
186.5333743003459972
 30
0.0
  0
VERTEX
  5
D18
  8
LAYER1
 10
3.766372280140899
 20
187.6234556092211108
 30
0.0
  0
VERTEX
  5
D19
  8
LAYER1
 10
4.1213722801410881
 20
188.2383336459083125
 30
0.0
 42
-0.5476801762481118
  0
VERTEX
  5
D1A
  8
LAYER1
 10
4.1403570123723048
 20
188.6592131772972039
 30
0.0
  0
VERTEX
  5
D1B
  8
LAYER1
 10
8.0313094656741555
 20
190.9056556236151039
 30
0.0
 42
-0.4270102027300326
  0
VERTEX
  5
D1C
  8
LAYER1
 10
8.3780458650451806
 20
190.8046177497265035
 30
0.0
 42
-0.1206064267194109
  0
VERTEX
  5
D1D
  8
LAYER1
 10
9.0563722801410904
 20
188.0333743003459972
 30
0.0
  0
VERTEX
  5
D1E
  8
LAYER1
 10
9.0563722801412592
 20
179.1273488965616991
 30
0.0
 42
-0.4142135623731049
  0
VERTEX
  5
D1F
  8
LAYER1
 10
8.8063722801412592
 20
178.8773488965616991
 30
0.0
  0
VERTEX
  5
D20
  8
LAYER1
 10
8.3463722801412512
 20
178.8773488965616991
 30
0.0
  0
VERTEX
  5
D21
  8
LAYER1
 10
8.3463722801412512
 20
178.1673488965616912
 30
0.0
  0
VERTEX
  5
D22
  8
LAYER1
 10
8.8063722801412592
 20
178.1673488965616912
 30
0.0
 42
-0.4142135623730967
  0
VERTEX
  5
D23
  8
LAYER1
 10
9.0563722801412894
 20
177.9173488965616912
 30
0.0
  0
VERTEX
  5
D24
  8
LAYER1
 10
9.0563722801415452
 20
163.508383552753088
 30
0.0
 42
-0.4142135623730884
  0
VERTEX
  5
D25
  8
LAYER1
 10
8.8063722801415452
 20
163.258383552753088
 30
0.0
  0
VERTEX
  5
D26
  8
LAYER1
 10
8.3463722801416491
 20
163.258383552753088
 30
0.0
  0
VERTEX
  5
D27
  8
LAYER1
 10
8.3463722801417077
 20
162.5483835527531085
 30
0.0
  0
VERTEX
  5
D28
  8
LAYER1
 10
8.8063722801415736
 20
162.5483835527531085
 30
0.0
 42
-0.4142135623730951
  0
VERTEX
  5
D29
  8
LAYER1
 10
9.0563722801415736
 20
162.2983835527531085
 30
0.0
  0
VERTEX
  5
D2A
  8
LAYER1
 10
9.0563722801417441
 20
153.3923581489684977
 30
0.0
 42
-0.1206064267194026
  0
SEQEND
  5
D2B
  8
LAYER1
  0
POLYLINE
  5
5A4
  8
LAYER1
 66
     1
 10
0.0
 20
0.0
 30
0.0
 70
     1
  0
VERTEX
  5
D2C
  8
LAYER1
 10
5.394570454807166
 20
187.5032523370327908
 30
0.0
  0
VERTEX
  5
D2D
  8
LAYER1
 10
5.0395704548071762
 20
186.888374300345788
 30
0.0
  0
VERTEX
  5
D2E
  8
LAYER1
 10
5.6544484914946054
 20
186.5333743003459119
 30
0.0
  0
VERTEX
  5
D2F
  8
LAYER1
 10
6.0094484914945951
 20
187.1482523370328863
 30
0.0
  0
SEQEND
  5
D30
  8
LAYER1
  0
POLYLINE
  5
5AD
  8
LAYER1
 66
     1
 10
0.0
 20
0.0
 30
0.0
 70
     1
  0
VERTEX
  5
D31
  8
LAYER1
 10
87.8695682383219747
 20
15.1617054251054793
 30
0.0
  0
VERTEX
  5
D32
  8
LAYER1
 10
87.8695682383206957
 20
13.6617054251054508
 30
0.0
 42
1.0
  0
VERTEX
  5
D33
  8
LAYER1
 10
88.3695682383219605
 20
13.6617054251054508
 30
0.0
  0
VERTEX
  5
D34
  8
LAYER1
 10
88.3695682383219605
 20
15.1617054251054508
 30
0.0
 42
1.0
  0
SEQEND
  5
D35
  8
LAYER1
  0
POLYLINE
  5
5AE
  8
LAYER1
 66
     1
 10
0.0
 20
0.0
 30
0.0
 70
     1
  0
VERTEX
  5
D36
  8
LAYER1
 10
87.8695682383232111
 20
3.772740081296575
 30
0.0
  0
VERTEX
  5
D37
  8
LAYER1
 10
87.8695682383219747
 20
2.272740081296575
 30
0.0
 42
1.0
  0
VERTEX
  5
D38
  8
LAYER1
 10
88.3695682383219605
 20
2.272740081296575
 30
0.0
  0
VERTEX
  5
D39
  8
LAYER1
 10
88.3695682383219605
 20
3.772740081296575
 30
0.0
 42
1.0
  0
SEQEND
  5
D3A
  8
LAYER1
  0
POLYLINE
  5
5AF
  8
LAYER1
 66
     1
 10
0.0
 20
0.0
 30
0.0
 70
     1
  0
VERTEX
  5
D3B
  8
LAYER1
 10
88.3995682383219332
 20
1.272740081296547
 30
0.0
  0
VERTEX
  5
D3C
  8
LAYER1
 10
62.4345682383407734
 20
1.272740081296575
 30
0.0
  0
VERTEX
  5
D3D
  8
LAYER1
 10
62.4345682383407734
 20
0.5527400812965766
 30
0.0
  0
VERTEX
  5
D3E
  8
LAYER1
 10
61.7145682383408101
 20
0.5527400812965766
 30
0.0
  0
VERTEX
  5
D3F
  8
LAYER1
 10
61.7145682383408101
 20
8.3572227532010004
 30
0.0
  0
VERTEX
  5
D40
  8
LAYER1
 10
60.9945682383407828
 20
8.3572227532010004
 30
0.0
  0
VERTEX
  5
D41
  8
LAYER1
 10
60.9945682383407828
 20
9.0772227532009993
 30
0.0
  0
VERTEX
  5
D42
  8
LAYER1
 10
61.7145682383408101
 20
9.0772227532009993
 30
0.0
  0
VERTEX
  5
D43
  8
LAYER1
 10
61.7145682383408101
 20
16.8817054251055083
 30
0.0
  0
VERTEX
  5
D44
  8
LAYER1
 10
62.4345682383407734
 20
16.8817054251055083
 30
0.0
  0
VERTEX
  5
D45
  8
LAYER1
 10
62.4345682383407734
 20
16.1617054251055094
 30
0.0
  0
VERTEX
  5
D46
  8
LAYER1
 10
88.3995682383219332
 20
16.161705425105481
 30
0.0
  0
VERTEX
  5
D47
  8
LAYER1
 10
88.3995682383219332
 20
16.8817054251054799
 30
0.0
  0
VERTEX
  5
D48
  8
LAYER1
 10
89.1195682383219747
 20
16.8817054251054799
 30
0.0
  0
VERTEX
  5
D49
  8
LAYER1
 10
89.1195682383219747
 20
0.5527400812965482
 30
0.0
  0
VERTEX
  5
D4A
  8
LAYER1
 10
88.3995682383219332
 20
0.5527400812965482
 30
0.0
  0
SEQEND
  5
D4B
  8
LAYER1
  0
POLYLINE
  5
5C9
  8
LAYER1
 66
     1
 10
0.0
 20
0.0
 30
0.0
 70
     1
  0
VERTEX
  5
D4C
  8
LAYER1
 10
53.832418566174681
 20
26.724499990240961
 30
0.0
 42
-0.1989123673796621
  0
VERTEX
  5
D4D
  8
LAYER1
 10
53.4788651755814115
 20
26.8709465996476808
 30
0.0
  0
VERTEX
  5
D4E
  8
LAYER1
 10
47.5807352975120565
 20
30.2864351753674192
 30
0.0
 42
-0.3766004905019189
  0
VERTEX
  5
D4F
  8
LAYER1
 10
46.9478031815593724
 20
32.1614230671640087
 30
0.0
  0
VERTEX
  5
D50
  8
LAYER1
 10
53.332418566174681
 20
47.4844999902408276
 30
0.0
  0
VERTEX
  5
D51
  8
LAYER1
 10
79.9574185661558658
 20
47.4844999902408915
 30
0.0
 42
-0.4142135623730994
  0
VERTEX
  5
D52
  8
LAYER1
 10
81.4574185661558658
 20
45.9844999902408915
 30
0.0
  0
VERTEX
  5
D53
  8
LAYER1
 10
81.4574185661558658
 20
40.9844999902408915
 30
0.0
  0
VERTEX
  5
D54
  8
LAYER1
 10
80.7374185661558244
 20
40.9844999902408915
 30
0.0
  0
VERTEX
  5
D55
  8
LAYER1
 10
80.7374185661558244
 20
40.2644999902408927
 30
0.0
  0
VERTEX
  5
D56
  8
LAYER1
 10
81.4574185661558658
 20
40.2644999902408927
 30
0.0
  0
VERTEX
  5
D57
  8
LAYER1
 10
81.4574185661558658
 20
39.4844999902408915
 30
0.0
 42
-0.4142135623731082
  0
VERTEX
  5
D58
  8
LAYER1
 10
80.9574185661558658
 20
38.9844999902408915
 30
0.0
  0
VERTEX
  5
D59
  8
LAYER1
 10
59.2924185661718113
 20
38.9844999902409199
 30
0.0
  0
VERTEX
  5
D5A
  8
LAYER1
 10
59.2924185661718113
 20
30.224499990240929
 30
0.0
  0
VERTEX
  5
D5B
  8
LAYER1
 10
80.9574185661558658
 20
30.2244999902409006
 30
0.0
 42
-0.4142135623731082
  0
VERTEX
  5
D5C
  8
LAYER1
 10
81.4574185661558658
 20
29.7244999902409006
 30
0.0
  0
VERTEX
  5
D5D
  8
LAYER1
 10
81.4574185661558658
 20
28.9444999902408995
 30
0.0
  0
VERTEX
  5
D5E
  8
LAYER1
 10
80.7374185661558244
 20
28.9444999902408995
 30
0.0
  0
VERTEX
  5
D5F
  8
LAYER1
 10
80.7374185661558244
 20
28.2244999902409006
 30
0.0
  0
VERTEX
  5
D60
  8
LAYER1
 10
81.4574185661558658
 20
28.2244999902409006
 30
0.0
  0
VERTEX
  5
D61
  8
LAYER1
 10
81.4574185661558658
 20
27.2244999902409006
 30
0.0
 42
-0.4142135623731082
  0
VERTEX
  5
D62
  8
LAYER1
 10
80.9574185661558658
 20
26.7244999902409006
 30
0.0
  0
SEQEND
  5
D63
  8
LAYER1
  0
POLYLINE
  5
5CA
  8
LAYER1
 66
     1
 10
0.0
 20
0.0
 30
0.0
 70
     1
  0
VERTEX
  5
D64
  8
LAYER1
 10
53.332418566174681
 20
29.6644999902409303
 30
0.0
  0
VERTEX
  5
D65
  8
LAYER1
 10
53.332418566174681
 20
28.9444999902409315
 30
0.0
  0
VERTEX
  5
D66
  8
LAYER1
 10
54.0524185661746799
 20
28.9444999902409315
 30
0.0
  0
VERTEX
  5
D67
  8
LAYER1
 10
54.0524185661746799
 20
29.6644999902409303
 30
0.0
  0
SEQEND
  5
D68
  8
LAYER1
  0
CIRCLE
  5
5CB
  8
LAYER1
 10
48.3324185661747308
 20
31.5844999902409107
 30
0.0
 40
0.3124999999999955
  0
POLYLINE
  5
5CC
  8
LAYER1
 66
     1
 10
0.0
 20
0.0
 30
0.0
 70
     1
  0
VERTEX
  5
D69
  8
LAYER1
 10
80.7438768994891944
 20
39.8386666569075487
 30
0.0
 42
-1.0
  0
VERTEX
  5
D6A
  8
LAYER1
 10
80.7438768994891944
 20
39.4115833235742272
 30
0.0
  0
VERTEX
  5
D6B
  8
LAYER1
 10
77.1010197566320556
 20
39.4115833235742627
 30
0.0
 42
-1.0
  0
VERTEX
  5
D6C
  8
LAYER1
 10
77.1010197566320556
 20
39.8386666569075771
 30
0.0
  0
SEQEND
  5
D6D
  8
LAYER1
  0
POLYLINE
  5
5CD
  8
LAYER1
 66
     1
 10
0.0
 20
0.0
 30
0.0
 70
     1
  0
VERTEX
  5
D6E
  8
LAYER1
 10
67.957418566155809
 20
46.9844999902409128
 30
0.0
 42
-1.0
  0
VERTEX
  5
D6F
  8
LAYER1
 10
67.957418566155809
 20
46.4844999902409199
 30
0.0
  0
VERTEX
  5
D70
  8
LAYER1
 10
64.9574185661558658
 20
46.4844999902409199
 30
0.0
 42
-1.0
  0
VERTEX
  5
D71
  8
LAYER1
 10
64.9574185661558658
 20
46.9844999902409128
 30
0.0
  0
SEQEND
  5
D72
  8
LAYER1
  0
POLYLINE
  5
5CE
  8
LAYER1
 66
     1
 10
0.0
 20
0.0
 30
0.0
 70
     1
  0
VERTEX
  5
D73
  8
LAYER1
 10
80.4574185661558658
 20
42.9844999902408773
 30
0.0
 42
-1.0
  0
VERTEX
  5
D74
  8
LAYER1
 10
80.9574185661558658
 20
42.9844999902408773
 30
0.0
  0
VERTEX
  5
D75
  8
LAYER1
 10
80.9574185661558658
 20
41.4844999902408915
 30
0.0
 42
-1.0
  0
VERTEX
  5
D76
  8
LAYER1
 10
80.4574185661558658
 20
41.4844999902408915
 30
0.0
  0
SEQEND
  5
D77
  8
LAYER1
  0
POLYLINE
  5
5CF
  8
LAYER1
 66
     1
 10
0.0
 20
0.0
 30
0.0
 70
     1
  0
VERTEX
  5
D78
  8
LAYER1
 10
73.957418566155809
 20
46.9844999902409128
 30
0.0
 42
-1.0
  0
VERTEX
  5
D79
  8
LAYER1
 10
73.957418566155809
 20
46.4844999902409199
 30
0.0
  0
VERTEX
  5
D7A
  8
LAYER1
 10
70.9574185661558658
 20
46.4844999902409199
 30
0.0
 42
-1.0
  0
VERTEX
  5
D7B
  8
LAYER1
 10
70.957418566155809
 20
46.9844999902409128
 30
0.0
  0
SEQEND
  5
D7C
  8
LAYER1
  0
POLYLINE
  5
5D0
  8
LAYER1
 66
     1
 10
0.0
 20
0.0
 30
0.0
 70
     1
  0
VERTEX
  5
D7D
  8
LAYER1
 10
55.2438768994891802
 20
39.4115833235742627
 30
0.0
 42
-1.0
  0
VERTEX
  5
D7E
  8
LAYER1
 10
55.2438768994891802
 20
39.8386666569075771
 30
0.0
  0
VERTEX
  5
D7F
  8
LAYER1
 10
58.8867340423463403
 20
39.8386666569075771
 30
0.0
 42
-1.0
  0
VERTEX
  5
D80
  8
LAYER1
 10
58.8867340423463403
 20
39.4115833235742627
 30
0.0
  0
SEQEND
  5
D81
  8
LAYER1
  0
POLYLINE
  5
5D1
  8
LAYER1
 66
     1
 10
0.0
 20
0.0
 30
0.0
 70
     1
  0
VERTEX
  5
D82
  8
LAYER1
 10
69.8153054709177354
 20
39.4115833235742627
 30
0.0
 42
-1.0
  0
VERTEX
  5
D83
  8
LAYER1
 10
69.8153054709177354
 20
39.8386666569075771
 30
0.0
  0
VERTEX
  5
D84
  8
LAYER1
 10
73.4581626137749026
 20
39.8386666569075771
 30
0.0
 42
-1.0
  0
VERTEX
  5
D85
  8
LAYER1
 10
73.4581626137749026
 20
39.4115833235742627
 30
0.0
  0
SEQEND
  5
D86
  8
LAYER1
  0
POLYLINE
  5
5D2
  8
LAYER1
 66
     1
 10
0.0
 20
0.0
 30
0.0
 70
     1
  0
VERTEX
  5
D87
  8
LAYER1
 10
61.9574185661558303
 20
46.9844999902409128
 30
0.0
 42
-1.0
  0
VERTEX
  5
D88
  8
LAYER1
 10
61.957418566155873
 20
46.4844999902409199
 30
0.0
  0
VERTEX
  5
D89
  8
LAYER1
 10
58.9574185661558587
 20
46.4844999902409199
 30
0.0
 42
-1.0
  0
VERTEX
  5
D8A
  8
LAYER1
 10
58.9574185661558587
 20
46.9844999902409128
 30
0.0
  0
SEQEND
  5
D8B
  8
LAYER1
  0
POLYLINE
  5
5D3
  8
LAYER1
 66
     1
 10
0.0
 20
0.0
 30
0.0
 70
     1
  0
VERTEX
  5
D8C
  8
LAYER1
 10
62.5295911852034578
 20
39.4115833235742627
 30
0.0
 42
-1.0
  0
VERTEX
  5
D8D
  8
LAYER1
 10
62.5295911852034578
 20
39.8386666569075771
 30
0.0
  0
VERTEX
  5
D8E
  8
LAYER1
 10
66.172448328060625
 20
39.8386666569075771
 30
0.0
 42
-1.0
  0
VERTEX
  5
D8F
  8
LAYER1
 10
66.172448328060625
 20
39.4115833235742627
 30
0.0
  0
SEQEND
  5
D90
  8
LAYER1
  0
POLYLINE
  5
5D4
  8
LAYER1
 66
     1
 10
0.0
 20
0.0
 30
0.0
 70
     1
  0
VERTEX
  5
D91
  8
LAYER1
 10
80.4574185661558658
 20
45.9844999902408915
 30
0.0
 42
-1.0
  0
VERTEX
  5
D92
  8
LAYER1
 10
80.9574185661558658
 20
45.9844999902408915
 30
0.0
  0
VERTEX
  5
D93
  8
LAYER1
 10
80.9574185661558658
 20
44.4844999902409128
 30
0.0
 42
-1.0
  0
VERTEX
  5
D94
  8
LAYER1
 10
80.4574185661558658
 20
44.4844999902408915
 30
0.0
  0
SEQEND
  5
D95
  8
LAYER1
  0
POLYLINE
  5
5D5
  8
LAYER1
 66
     1
 10
0.0
 20
0.0
 30
0.0
 70
     1
  0
VERTEX
  5
D96
  8
LAYER1
 10
76.957418566155809
 20
46.4844999902409199
 30
0.0
  0
VERTEX
  5
D97
  8
LAYER1
 10
79.9574185661558658
 20
46.4844999902408915
 30
0.0
 42
1.0
  0
VERTEX
  5
D98
  8
LAYER1
 10
79.9574185661558658
 20
46.9844999902408915
 30
0.0
  0
VERTEX
  5
D99
  8
LAYER1
 10
76.957418566155809
 20
46.9844999902409128
 30
0.0
 42
1.0
  0
SEQEND
  5
D9A
  8
LAYER1
  0
POLYLINE
  5
5D6
  8
LAYER1
 66
     1
 10
0.0
 20
0.0
 30
0.0
 70
     1
  0
VERTEX
  5
D9B
  8
LAYER1
 10
57.9931328518701505
 20
27.724499990240961
 30
0.0
 42
-1.0
  0
VERTEX
  5
D9C
  8
LAYER1
 10
57.9931328518701505
 20
27.224499990240929
 30
0.0
  0
VERTEX
  5
D9D
  8
LAYER1
 10
54.2074185661558587
 20
27.224499990240929
 30
0.0
 42
-1.0
  0
VERTEX
  5
D9E
  8
LAYER1
 10
54.2074185661558587
 20
27.724499990240961
 30
0.0
  0
SEQEND
  5
D9F
  8
LAYER1
  0
POLYLINE
  5
5D7
  8
LAYER1
 66
     1
 10
0.0
 20
0.0
 30
0.0
 70
     1
  0
VERTEX
  5
DA0
  8
LAYER1
 10
73.1359899947272538
 20
27.724499990240961
 30
0.0
 42
-1.0
  0
VERTEX
  5
DA1
  8
LAYER1
 10
73.1359899947272538
 20
27.224499990240929
 30
0.0
  0
VERTEX
  5
DA2
  8
LAYER1
 10
69.3502757090130331
 20
27.224499990240929
 30
0.0
 42
-1.0
  0
VERTEX
  5
DA3
  8
LAYER1
 10
69.3502757090130331
 20
27.724499990240961
 30
0.0
  0
SEQEND
  5
DA4
  8
LAYER1
  0
POLYLINE
  5
5D8
  8
LAYER1
 66
     1
 10
0.0
 20
0.0
 30
0.0
 70
     1
  0
VERTEX
  5
DA5
  8
LAYER1
 10
80.7074185661558658
 20
27.7244999902409006
 30
0.0
 42
-1.0
  0
VERTEX
  5
DA6
  8
LAYER1
 10
80.7074185661558658
 20
27.2244999902409006
 30
0.0
  0
VERTEX
  5
DA7
  8
LAYER1
 10
76.9217042804415883
 20
27.224499990240929
 30
0.0
 42
-1.0
  0
VERTEX
  5
DA8
  8
LAYER1
 10
76.9217042804415883
 20
27.724499990240961
 30
0.0
  0
SEQEND
  5
DA9
  8
LAYER1
  0
POLYLINE
  5
5D9
  8
LAYER1
 66
     1
 10
0.0
 20
0.0
 30
0.0
 70
     1
  0
VERTEX
  5
DAA
  8
LAYER1
 10
65.5645614232986986
 20
27.724499990240961
 30
0.0
 42
-1.0
  0
VERTEX
  5
DAB
  8
LAYER1
 10
65.5645614232986986
 20
27.224499990240929
 30
0.0
  0
VERTEX
  5
DAC
  8
LAYER1
 10
61.778847137584421
 20
27.224499990240929
 30
0.0
 42
-1.0
  0
VERTEX
  5
DAD
  8
LAYER1
 10
61.778847137584421
 20
27.724499990240961
 30
0.0
  0
SEQEND
  5
DAE
  8
LAYER1
  0
CIRCLE
  5
5DA
  8
LAYER1
 10
73.8859899947273107
 20
27.224499990240961
 30
0.0
 40
0.1250000000000009
  0
CIRCLE
  5
5DB
  8
LAYER1
 10
80.7441952614524752
 20
29.511276685537549
 30
0.0
 40
0.1249999999999982
  0
POLYLINE
  5
5DC
  8
LAYER1
 66
     1
 10
0.0
 20
0.0
 30
0.0
 70
     1
  0
VERTEX
  5
DAF
  8
LAYER1
 10
53.332418566174681
 20
40.2644999902409211
 30
0.0
  0
VERTEX
  5
DB0
  8
LAYER1
 10
54.7724185661746716
 20
40.2644999902409211
 30
0.0
  0
VERTEX
  5
DB1
  8
LAYER1
 10
54.7724185661746716
 20
40.9844999902409199
 30
0.0
  0
VERTEX
  5
DB2
  8
LAYER1
 10
53.332418566174681
 20
40.9844999902409199
 30
0.0
  0
SEQEND
  5
DB3
  8
LAYER1
  0
POLYLINE
  5
5DD
  8
LAYER1
 66
     1
 10
0.0
 20
0.0
 30
0.0
 70
     1
  0
VERTEX
  5
DB4
  8
LAYER1
 10
54.7724185661746716
 20
28.224499990240929
 30
0.0
  0
VERTEX
  5
DB5
  8
LAYER1
 10
55.4924185661746705
 20
28.224499990240929
 30
0.0
  0
VERTEX
  5
DB6
  8
LAYER1
 10
55.4924185661746705
 20
28.9444999902409315
 30
0.0
  0
VERTEX
  5
DB7
  8
LAYER1
 10
54.7724185661746716
 20
28.9444999902409315
 30
0.0
  0
SEQEND
  5
DB8
  8
LAYER1
  0
POLYLINE
  5
5E0
  8
LAYER1
 66
     1
 10
0.0
 20
0.0
 30
0.0
 70
     1
  0
VERTEX
  5
DB9
  8
LAYER1
 10
88.2538208141971268
 20
38.3624058426111105
 30
0.0
 42
-0.1989123673796621
  0
VERTEX
  5
DBA
  8
LAYER1
 10
88.6073742047904034
 20
38.2159592332043871
 30
0.0
  0
VERTEX
  5
DBB
  8
LAYER1
 10
94.5055040828597726
 20
34.8004706574846523
 30
0.0
 42
-0.3766004905019189
  0
VERTEX
  5
DBC
  8
LAYER1
 10
95.1384361988124141
 20
32.9254827656880593
 30
0.0
  0
VERTEX
  5
DBD
  8
LAYER1
 10
88.7538208141971268
 20
17.6024058426112298
 30
0.0
  0
VERTEX
  5
DBE
  8
LAYER1
 10
62.1288208142159419
 20
17.60240584261118
 30
0.0
 42
-0.4142135623730994
  0
VERTEX
  5
DBF
  8
LAYER1
 10
60.6288208142159419
 20
19.1024058426111694
 30
0.0
  0
VERTEX
  5
DC0
  8
LAYER1
 10
60.6288208142159419
 20
24.10240584261118
 30
0.0
  0
VERTEX
  5
DC1
  8
LAYER1
 10
61.3488208142159692
 20
24.10240584261118
 30
0.0
  0
VERTEX
  5
DC2
  8
LAYER1
 10
61.3488208142159692
 20
24.8224058426111789
 30
0.0
  0
VERTEX
  5
DC3
  8
LAYER1
 10
60.6288208142159419
 20
24.8224058426111789
 30
0.0
  0
VERTEX
  5
DC4
  8
LAYER1
 10
60.6288208142159419
 20
25.60240584261118
 30
0.0
 42
-0.4142135623731082
  0
VERTEX
  5
DC5
  8
LAYER1
 10
61.1288208142159419
 20
26.10240584261118
 30
0.0
  0
VERTEX
  5
DC6
  8
LAYER1
 10
82.7938208141999894
 20
26.1024058426111516
 30
0.0
  0
VERTEX
  5
DC7
  8
LAYER1
 10
82.7938208141999894
 20
34.862405842611139
 30
0.0
  0
VERTEX
  5
DC8
  8
LAYER1
 10
61.1288208142159419
 20
34.8624058426111674
 30
0.0
 42
-0.4142135623731082
  0
VERTEX
  5
DC9
  8
LAYER1
 10
60.6288208142159419
 20
35.3624058426111674
 30
0.0
  0
VERTEX
  5
DCA
  8
LAYER1
 10
60.6288208142159419
 20
36.1424058426111685
 30
0.0
  0
VERTEX
  5
DCB
  8
LAYER1
 10
61.3488208142159692
 20
36.1424058426111685
 30
0.0
  0
VERTEX
  5
DCC
  8
LAYER1
 10
61.3488208142159692
 20
36.8624058426111674
 30
0.0
  0
VERTEX
  5
DCD
  8
LAYER1
 10
60.6288208142159419
 20
36.8624058426111674
 30
0.0
  0
VERTEX
  5
DCE
  8
LAYER1
 10
60.6288208142159419
 20
37.8624058426111674
 30
0.0
 42
-0.4142135623731082
  0
VERTEX
  5
DCF
  8
LAYER1
 10
61.1288208142159419
 20
38.3624058426111674
 30
0.0
  0
SEQEND
  5
DD0
  8
LAYER1
  0
POLYLINE
  5
5E1
  8
LAYER1
 66
     1
 10
0.0
 20
0.0
 30
0.0
 70
     1
  0
VERTEX
  5
DD1
  8
LAYER1
 10
88.7538208141971268
 20
35.4224058426111412
 30
0.0
  0
VERTEX
  5
DD2
  8
LAYER1
 10
88.7538208141971268
 20
36.1424058426111401
 30
0.0
  0
VERTEX
  5
DD3
  8
LAYER1
 10
88.0338208141971137
 20
36.1424058426111401
 30
0.0
  0
VERTEX
  5
DD4
  8
LAYER1
 10
88.0338208141971137
 20
35.4224058426111412
 30
0.0
  0
SEQEND
  5
DD5
  8
LAYER1
  0
CIRCLE
  5
5E2
  8
LAYER1
 10
93.7538208141970557
 20
33.5024058426111466
 30
0.0
 40
0.3124999999999955
  0
POLYLINE
  5
5E3
  8
LAYER1
 66
     1
 10
0.0
 20
0.0
 30
0.0
 70
     1
  0
VERTEX
  5
DD6
  8
LAYER1
 10
61.3423624808826276
 20
25.2482391759445193
 30
0.0
 42
-1.0
  0
VERTEX
  5
DD7
  8
LAYER1
 10
61.3423624808826276
 20
25.6753225092778301
 30
0.0
  0
VERTEX
  5
DD8
  8
LAYER1
 10
64.9852196237397379
 20
25.6753225092778301
 30
0.0
 42
-1.0
  0
VERTEX
  5
DD9
  8
LAYER1
 10
64.9852196237397379
 20
25.2482391759445193
 30
0.0
  0
SEQEND
  5
DDA
  8
LAYER1
  0
POLYLINE
  5
5E4
  8
LAYER1
 66
     1
 10
0.0
 20
0.0
 30
0.0
 70
     1
  0
VERTEX
  5
DDB
  8
LAYER1
 10
74.1288208142159846
 20
18.10240584261118
 30
0.0
 42
-1.0
  0
VERTEX
  5
DDC
  8
LAYER1
 10
74.1288208142159419
 20
18.60240584261118
 30
0.0
  0
VERTEX
  5
DDD
  8
LAYER1
 10
77.1288208142159419
 20
18.60240584261118
 30
0.0
 42
-1.0
  0
VERTEX
  5
DDE
  8
LAYER1
 10
77.1288208142159419
 20
18.10240584261118
 30
0.0
  0
SEQEND
  5
DDF
  8
LAYER1
  0
POLYLINE
  5
5E5
  8
LAYER1
 66
     1
 10
0.0
 20
0.0
 30
0.0
 70
     1
  0
VERTEX
  5
DE0
  8
LAYER1
 10
61.6288208142159419
 20
22.10240584261118
 30
0.0
 42
-1.0
  0
VERTEX
  5
DE1
  8
LAYER1
 10
61.1288208142159419
 20
22.10240584261118
 30
0.0
  0
VERTEX
  5
DE2
  8
LAYER1
 10
61.1288208142159419
 20
23.60240584261118
 30
0.0
 42
-1.0
  0
VERTEX
  5
DE3
  8
LAYER1
 10
61.6288208142159419
 20
23.60240584261118
 30
0.0
  0
SEQEND
  5
DE4
  8
LAYER1
  0
POLYLINE
  5
5E6
  8
LAYER1
 66
     1
 10
0.0
 20
0.0
 30
0.0
 70
     1
  0
VERTEX
  5
DE5
  8
LAYER1
 10
68.1288208142159988
 20
18.10240584261118
 30
0.0
 42
-1.0
  0
VERTEX
  5
DE6
  8
LAYER1
 10
68.1288208142159419
 20
18.60240584261118
 30
0.0
  0
VERTEX
  5
DE7
  8
LAYER1
 10
71.1288208142159419
 20
18.60240584261118
 30
0.0
 42
-1.0
  0
VERTEX
  5
DE8
  8
LAYER1
 10
71.1288208142159419
 20
18.10240584261118
 30
0.0
  0
SEQEND
  5
DE9
  8
LAYER1
  0
POLYLINE
  5
5E7
  8
LAYER1
 66
     1
 10
0.0
 20
0.0
 30
0.0
 70
     1
  0
VERTEX
  5
DEA
  8
LAYER1
 10
86.8423624808826276
 20
25.6753225092778088
 30
0.0
 42
-1.0
  0
VERTEX
  5
DEB
  8
LAYER1
 10
86.8423624808826276
 20
25.2482391759444909
 30
0.0
  0
VERTEX
  5
DEC
  8
LAYER1
 10
83.1995053380254461
 20
25.2482391759444909
 30
0.0
 42
-1.0
  0
VERTEX
  5
DED
  8
LAYER1
 10
83.1995053380254461
 20
25.6753225092778088
 30
0.0
  0
SEQEND
  5
DEE
  8
LAYER1
  0
POLYLINE
  5
5E8
  8
LAYER1
 66
     1
 10
0.0
 20
0.0
 30
0.0
 70
     1
  0
VERTEX
  5
DEF
  8
LAYER1
 10
72.2709339094540724
 20
25.6753225092778301
 30
0.0
 42
-1.0
  0
VERTEX
  5
DF0
  8
LAYER1
 10
72.2709339094540724
 20
25.2482391759445193
 30
0.0
  0
VERTEX
  5
DF1
  8
LAYER1
 10
68.6280767665969051
 20
25.2482391759445193
 30
0.0
 42
-1.0
  0
VERTEX
  5
DF2
  8
LAYER1
 10
68.6280767665969051
 20
25.6753225092778301
 30
0.0
  0
SEQEND
  5
DF3
  8
LAYER1
  0
POLYLINE
  5
5E9
  8
LAYER1
 66
     1
 10
0.0
 20
0.0
 30
0.0
 70
     1
  0
VERTEX
  5
DF4
  8
LAYER1
 10
80.1288208142159419
 20
18.1024058426111516
 30
0.0
 42
-1.0
  0
VERTEX
  5
DF5
  8
LAYER1
 10
80.1288208142159419
 20
18.6024058426111516
 30
0.0
  0
VERTEX
  5
DF6
  8
LAYER1
 10
83.1288208142159419
 20
18.6024058426111516
 30
0.0
 42
-1.0
  0
VERTEX
  5
DF7
  8
LAYER1
 10
83.1288208142159419
 20
18.1024058426111516
 30
0.0
  0
SEQEND
  5
DF8
  8
LAYER1
  0
POLYLINE
  5
5EA
  8
LAYER1
 66
     1
 10
0.0
 20
0.0
 30
0.0
 70
     1
  0
VERTEX
  5
DF9
  8
LAYER1
 10
79.5566481951682931
 20
25.6753225092778088
 30
0.0
 42
-1.0
  0
VERTEX
  5
DFA
  8
LAYER1
 10
79.5566481951682931
 20
25.2482391759444909
 30
0.0
  0
VERTEX
  5
DFB
  8
LAYER1
 10
75.9137910523111827
 20
25.2482391759445193
 30
0.0
 42
-1.0
  0
VERTEX
  5
DFC
  8
LAYER1
 10
75.9137910523111827
 20
25.6753225092778301
 30
0.0
  0
SEQEND
  5
DFD
  8
LAYER1
  0
POLYLINE
  5
5EB
  8
LAYER1
 66
     1
 10
0.0
 20
0.0
 30
0.0
 70
     1
  0
VERTEX
  5
DFE
  8
LAYER1
 10
61.6288208142159419
 20
19.1024058426111694
 30
0.0
 42
-1.0
  0
VERTEX
  5
DFF
  8
LAYER1
 10
61.1288208142159419
 20
19.1024058426111694
 30
0.0
  0
VERTEX
  5
E00
  8
LAYER1
 10
61.1288208142159419
 20
20.6024058426111516
 30
0.0
 42
-1.0
  0
VERTEX
  5
E01
  8
LAYER1
 10
61.6288208142159419
 20
20.60240584261118
 30
0.0
  0
SEQEND
  5
E02
  8
LAYER1
  0
POLYLINE
  5
5EC
  8
LAYER1
 66
     1
 10
0.0
 20
0.0
 30
0.0
 70
     1
  0
VERTEX
  5
E03
  8
LAYER1
 10
65.1288208142159419
 20
18.60240584261118
 30
0.0
  0
VERTEX
  5
E04
  8
LAYER1
 10
62.1288208142159419
 20
18.60240584261118
 30
0.0
 42
1.0
  0
VERTEX
  5
E05
  8
LAYER1
 10
62.1288208142159419
 20
18.10240584261118
 30
0.0
  0
VERTEX
  5
E06
  8
LAYER1
 10
65.1288208142159419
 20
18.10240584261118
 30
0.0
 42
1.0
  0
SEQEND
  5
E07
  8
LAYER1
  0
POLYLINE
  5
5ED
  8
LAYER1
 66
     1
 10
0.0
 20
0.0
 30
0.0
 70
     1
  0
VERTEX
  5
E08
  8
LAYER1
 10
84.0931065285016643
 20
37.3624058426111105
 30
0.0
 42
-1.0
  0
VERTEX
  5
E09
  8
LAYER1
 10
84.0931065285016643
 20
37.862405842611139
 30
0.0
  0
VERTEX
  5
E0A
  8
LAYER1
 10
87.8788208142159419
 20
37.862405842611139
 30
0.0
 42
-1.0
  0
VERTEX
  5
E0B
  8
LAYER1
 10
87.8788208142159419
 20
37.3624058426111105
 30
0.0
  0
SEQEND
  5
E0C
  8
LAYER1
  0
POLYLINE
  5
5EE
  8
LAYER1
 66
     1
 10
0.0
 20
0.0
 30
0.0
 70
     1
  0
VERTEX
  5
E0D
  8
LAYER1
 10
68.950249385644554
 20
37.362405842611139
 30
0.0
 42
-1.0
  0
VERTEX
  5
E0E
  8
LAYER1
 10
68.950249385644554
 20
37.8624058426111674
 30
0.0
  0
VERTEX
  5
E0F
  8
LAYER1
 10
72.7359636713587747
 20
37.8624058426111674
 30
0.0
 42
-1.0
  0
VERTEX
  5
E10
  8
LAYER1
 10
72.7359636713587747
 20
37.362405842611139
 30
0.0
  0
SEQEND
  5
E11
  8
LAYER1
  0
POLYLINE
  5
5EF
  8
LAYER1
 66
     1
 10
0.0
 20
0.0
 30
0.0
 70
     1
  0
VERTEX
  5
E12
  8
LAYER1
 10
61.3788208142159419
 20
37.3624058426111674
 30
0.0
 42
-1.0
  0
VERTEX
  5
E13
  8
LAYER1
 10
61.3788208142159419
 20
37.8624058426111674
 30
0.0
  0
VERTEX
  5
E14
  8
LAYER1
 10
65.1645350999302195
 20
37.8624058426111674
 30
0.0
 42
-1.0
  0
VERTEX
  5
E15
  8
LAYER1
 10
65.1645350999302195
 20
37.362405842611139
 30
0.0
  0
SEQEND
  5
E16
  8
LAYER1
  0
POLYLINE
  5
5F0
  8
LAYER1
 66
     1
 10
0.0
 20
0.0
 30
0.0
 70
     1
  0
VERTEX
  5
E17
  8
LAYER1
 10
76.5216779570731092
 20
37.362405842611139
 30
0.0
 42
-1.0
  0
VERTEX
  5
E18
  8
LAYER1
 10
76.5216779570731092
 20
37.8624058426111674
 30
0.0
  0
VERTEX
  5
E19
  8
LAYER1
 10
80.3073922427873867
 20
37.862405842611139
 30
0.0
 42
-1.0
  0
VERTEX
  5
E1A
  8
LAYER1
 10
80.3073922427873867
 20
37.3624058426111105
 30
0.0
  0
SEQEND
  5
E1B
  8
LAYER1
  0
CIRCLE
  5
5F1
  8
LAYER1
 10
68.2002493856444971
 20
37.862405842611139
 30
0.0
 40
0.1250000000000009
  0
CIRCLE
  5
5F2
  8
LAYER1
 10
61.3420441189193184
 20
35.5756291473145225
 30
0.0
 40
0.1249999999999982
  0
POLYLINE
  5
5F3
  8
LAYER1
 66
     1
 10
0.0
 20
0.0
 30
0.0
 70
     1
  0
VERTEX
  5
E1C
  8
LAYER1
 10
88.7538208141971268
 20
24.8224058426111505
 30
0.0
  0
VERTEX
  5
E1D
  8
LAYER1
 10
87.313820814197129
 20
24.8224058426111505
 30
0.0
  0
VERTEX
  5
E1E
  8
LAYER1
 10
87.313820814197129
 20
24.1024058426111516
 30
0.0
  0
VERTEX
  5
E1F
  8
LAYER1
 10
88.7538208141971268
 20
24.1024058426111516
 30
0.0
  0
SEQEND
  5
E20
  8
LAYER1
  0
POLYLINE
  5
5F4
  8
LAYER1
 66
     1
 10
0.0
 20
0.0
 30
0.0
 70
     1
  0
VERTEX
  5
E21
  8
LAYER1
 10
87.313820814197129
 20
36.862405842611139
 30
0.0
  0
VERTEX
  5
E22
  8
LAYER1
 10
86.5938208141971586
 20
36.862405842611139
 30
0.0
  0
VERTEX
  5
E23
  8
LAYER1
 10
86.5938208141971586
 20
36.1424058426111401
 30
0.0
  0
VERTEX
  5
E24
  8
LAYER1
 10
87.313820814197129
 20
36.1424058426111401
 30
0.0
  0
SEQEND
  5
E25
  8
LAYER1
  0
POLYLINE
  5
5FD
  8
LAYER1
 66
     1
 10
0.0
 20
0.0
 30
0.0
 70
     1
  0
VERTEX
  5
E26
  8
LAYER1
 10
19.2622269341062484
 20
9.4545552346660884
 30
0.0
  0
VERTEX
  5
E27
  8
LAYER1
 10
19.9822269341062508
 20
9.4545552346660884
 30
0.0
  0
VERTEX
  5
E28
  8
LAYER1
 10
19.982226934106361
 20
2.3700725627616062
 30
0.0
  0
VERTEX
  5
E29
  8
LAYER1
 10
13.4822269341063592
 20
2.370072562761635
 30
0.0
  0
VERTEX
  5
E2A
  8
LAYER1
 10
13.4822269341063592
 20
1.6500725627616071
 30
0.0
  0
VERTEX
  5
E2B
  8
LAYER1
 10
12.7622269341063603
 20
1.6500725627616071
 30
0.0
  0
VERTEX
  5
E2C
  8
LAYER1
 10
12.7622269341063603
 20
2.370072562761635
 30
0.0
  0
VERTEX
  5
E2D
  8
LAYER1
 10
2.1622269341063989
 20
2.370072562761663
 30
0.0
  0
VERTEX
  5
E2E
  8
LAYER1
 10
2.1622269341063989
 20
1.6500725627616359
 30
0.0
  0
VERTEX
  5
E2F
  8
LAYER1
 10
1.4422269341063441
 20
1.6500725627616359
 30
0.0
  0
VERTEX
  5
E30
  8
LAYER1
 10
1.4422269341063441
 20
2.370072562761663
 30
0.0
  0
VERTEX
  5
E31
  8
LAYER1
 10
0.7222269341063452
 20
2.370072562761663
 30
0.0
  0
VERTEX
  5
E32
  8
LAYER1
 10
0.7222269341063737
 20
9.4545552346661736
 30
0.0
  0
VERTEX
  5
E33
  8
LAYER1
 10
1.442226934106372
 20
9.4545552346661736
 30
0.0
  0
VERTEX
  5
E34
  8
LAYER1
 10
1.442226934106372
 20
10.1745552346661707
 30
0.0
  0
VERTEX
  5
E35
  8
LAYER1
 10
0.7222269341063737
 20
10.1745552346661707
 30
0.0
  0
VERTEX
  5
E36
  8
LAYER1
 10
0.7222269341063737
 20
17.2590379065705086
 30
0.0
  0
VERTEX
  5
E37
  8
LAYER1
 10
1.4422269341064
 20
17.2590379065705406
 30
0.0
  0
VERTEX
  5
E38
  8
LAYER1
 10
1.4422269341064
 20
17.9790379065705395
 30
0.0
  0
VERTEX
  5
E39
  8
LAYER1
 10
2.1622269341063989
 20
17.9790379065705395
 30
0.0
  0
VERTEX
  5
E3A
  8
LAYER1
 10
2.1622269341063989
 20
17.2590379065705406
 30
0.0
  0
VERTEX
  5
E3B
  8
LAYER1
 10
12.7622269341063905
 20
17.2590379065705406
 30
0.0
  0
VERTEX
  5
E3C
  8
LAYER1
 10
12.7622269341063905
 20
17.9790379065705395
 30
0.0
  0
VERTEX
  5
E3D
  8
LAYER1
 10
13.4822269341063894
 20
17.9790379065705395
 30
0.0
  0
VERTEX
  5
E3E
  8
LAYER1
 10
13.4822269341063894
 20
17.2590379065705406
 30
0.0
  0
VERTEX
  5
E3F
  8
LAYER1
 10
19.9822269341063894
 20
17.2590379065705406
 30
0.0
  0
VERTEX
  5
E40
  8
LAYER1
 10
19.9822269341062508
 20
10.1745552346660801
 30
0.0
  0
VERTEX
  5
E41
  8
LAYER1
 10
19.2622269341062484
 20
10.1745552346660801
 30
0.0
  0
SEQEND
  5
E42
  8
LAYER1
  0
POLYLINE
  5
5FE
  8
LAYER1
 66
     1
 10
0.0
 20
0.0
 30
0.0
 70
     1
  0
VERTEX
  5
E43
  8
LAYER1
 10
13.4822269341063894
 20
9.4545552346661168
 30
0.0
  0
VERTEX
  5
E44
  8
LAYER1
 10
13.4822269341063894
 20
10.1745552346661103
 30
0.0
  0
VERTEX
  5
E45
  8
LAYER1
 10
12.7622269341063905
 20
10.1745552346661103
 30
0.0
  0
VERTEX
  5
E46
  8
LAYER1
 10
12.7622269341063905
 20
9.4545552346661168
 30
0.0
  0
SEQEND
  5
E47
  8
LAYER1
  0
POLYLINE
  5
5FF
  8
LAYER1
 66
     1
 10
0.0
 20
0.0
 30
0.0
 70
     1
  0
VERTEX
  5
E48
  8
LAYER1
 10
4.722226934106402
 20
9.4545552346661452
 30
0.0
  0
VERTEX
  5
E49
  8
LAYER1
 10
5.4422269341064
 20
9.4545552346661452
 30
0.0
  0
VERTEX
  5
E4A
  8
LAYER1
 10
5.4422269341064
 20
10.1745552346661405
 30
0.0
  0
VERTEX
  5
E4B
  8
LAYER1
 10
4.722226934106402
 20
10.1745552346661405
 30
0.0
  0
SEQEND
  5
E4C
  8
LAYER1
  0
CIRCLE
  5
607
  8
LAYER1
 10
24.8735203332575807
 20
3.8287522482795282
 30
0.0
 40
0.3125000000000011
  0
POLYLINE
  5
608
  8
LAYER1
 66
     1
 10
0.0
 20
0.0
 30
0.0
 70
     1
  0
VERTEX
  5
E4D
  8
LAYER1
 10
30.5935203332575192
 20
19.0087522482794213
 30
0.0
  0
VERTEX
  5
E4E
  8
LAYER1
 10
29.8735203332575203
 20
19.0087522482794213
 30
0.0
  0
VERTEX
  5
E4F
  8
LAYER1
 10
29.8735203332576909
 20
5.1887522482795703
 30
0.0
  0
VERTEX
  5
E50
  8
LAYER1
 10
30.5935203332576897
 20
5.1887522482795703
 30
0.0
  0
VERTEX
  5
E51
  8
LAYER1
 10
30.5935203332576897
 20
4.4687522482795714
 30
0.0
  0
VERTEX
  5
E52
  8
LAYER1
 10
29.8735203332576909
 20
4.4687522482795714
 30
0.0
  0
VERTEX
  5
E53
  8
LAYER1
 10
29.8735203332574883
 20
0.4687522482795714
 30
0.0
  0
VERTEX
  5
E54
  8
LAYER1
 10
24.3732363192017409
 20
2.4146391321250169
 30
0.0
 42
-0.2302447984837644
  0
VERTEX
  5
E55
  8
LAYER1
 10
23.4523103267506485
 20
3.3490001066432171
 30
0.0
  0
VERTEX
  5
E56
  8
LAYER1
 10
20.4052723355885917
 20
17.9217541744403093
 30
0.0
 42
-0.4759578207139086
  0
VERTEX
  5
E57
  8
LAYER1
 10
21.8735203332575985
 20
19.7287522482794202
 30
0.0
  0
VERTEX
  5
E58
  8
LAYER1
 10
30.5935203332575192
 20
19.7287522482794202
 30
0.0
  0
SEQEND
  5
E59
  8
LAYER1
  0
POLYLINE
  5
619
  8
LAYER1
 66
     1
 10
0.0
 20
0.0
 30
0.0
 70
     1
  0
VERTEX
  5
E5A
  8
LAYER1
 10
37.6143922765511434
 20
2.772740081296603
 30
0.0
  0
VERTEX
  5
E5B
  8
LAYER1
 10
43.7672281840876209
 20
2.772740081296603
 30
0.0
 42
0.4142135623730951
  0
VERTEX
  5
E5C
  8
LAYER1
 10
44.2672281840876209
 20
3.272740081296603
 30
0.0
  0
VERTEX
  5
E5D
  8
LAYER1
 10
44.2672281840876209
 20
6.6155374027166536
 30
0.0
 42
0.5687427203676579
  0
VERTEX
  5
E5E
  8
LAYER1
 10
43.5285341047461714
 20
7.0548836630709673
 30
0.0
  0
VERTEX
  5
E5F
  8
LAYER1
 10
37.3756981972097222
 20
3.7120863416509162
 30
0.0
 42
0.7776734989590127
  0
SEQEND
  5
E60
  8
LAYER1
  0
POLYLINE
  5
61A
  8
LAYER1
 66
     1
 10
0.0
 20
0.0
 30
0.0
 70
     1
  0
VERTEX
  5
E61
  8
LAYER1
 10
45.7672281840876281
 20
14.1617054251054793
 30
0.0
  0
VERTEX
  5
E62
  8
LAYER1
 10
45.7672281840876281
 20
10.8189081036854002
 30
0.0
 42
0.5687427203676573
  0
VERTEX
  5
E63
  8
LAYER1
 10
46.5059222634290492
 20
10.3795618433310608
 30
0.0
  0
VERTEX
  5
E64
  8
LAYER1
 10
52.6587581709655979
 20
13.7223591647511398
 30
0.0
 42
0.7776734989590118
  0
VERTEX
  5
E65
  8
LAYER1
 10
52.4200640916241412
 20
14.6617054251054793
 30
0.0
  0
VERTEX
  5
E66
  8
LAYER1
 10
46.2672281840876209
 20
14.6617054251054793
 30
0.0
 42
0.4142135623730951
  0
SEQEND
  5
E67
  8
LAYER1
  0
POLYLINE
  5
61B
  8
LAYER1
 66
     1
 10
0.0
 20
0.0
 30
0.0
 70
     1
  0
VERTEX
  5
E68
  8
LAYER1
 10
43.7672281840876209
 20
14.6617054251054793
 30
0.0
  0
VERTEX
  5
E69
  8
LAYER1
 10
37.6143922765511434
 20
14.6617054251054793
 30
0.0
 42
0.7776734989590122
  0
VERTEX
  5
E6A
  8
LAYER1
 10
37.3756981972096867
 20
13.7223591647511398
 30
0.0
  0
VERTEX
  5
E6B
  8
LAYER1
 10
43.5285341047461714
 20
10.3795618433310892
 30
0.0
 42
0.568742720367659
  0
VERTEX
  5
E6C
  8
LAYER1
 10
44.2672281840876209
 20
10.8189081036854002
 30
0.0
  0
VERTEX
  5
E6D
  8
LAYER1
 10
44.2672281840876209
 20
14.1617054251054793
 30
0.0
 42
0.4142135623730951
  0
SEQEND
  5
E6E
  8
LAYER1
  0
POLYLINE
  5
61C
  8
LAYER1
 66
     1
 10
0.0
 20
0.0
 30
0.0
 70
     1
  0
VERTEX
  5
E6F
  8
LAYER1
 10
52.6587581709655623
 20
3.7120863416509162
 30
0.0
  0
VERTEX
  5
E70
  8
LAYER1
 10
46.5059222634290492
 20
7.0548836630709948
 30
0.0
 42
0.5687427203676579
  0
VERTEX
  5
E71
  8
LAYER1
 10
45.7672281840876281
 20
6.6155374027166536
 30
0.0
  0
VERTEX
  5
E72
  8
LAYER1
 10
45.7672281840876281
 20
3.272740081296603
 30
0.0
 42
0.4142135623730951
  0
VERTEX
  5
E73
  8
LAYER1
 10
46.2672281840876209
 20
2.772740081296603
 30
0.0
  0
VERTEX
  5
E74
  8
LAYER1
 10
52.4200640916241412
 20
2.772740081296603
 30
0.0
 42
0.7776734989590125
  0
SEQEND
  5
E75
  8
LAYER1
  0
POLYLINE
  5
61D
  8
LAYER1
 66
     1
 10
0.0
 20
0.0
 30
0.0
 70
     1
  0
VERTEX
  5
E76
  8
LAYER1
 10
32.8147281840970209
 20
7.4647080460617872
 30
0.0
  0
VERTEX
  5
E77
  8
LAYER1
 10
32.8147281840970209
 20
3.781895747703742
 30
0.0
 42
0.5687427203676571
  0
VERTEX
  5
E78
  8
LAYER1
 10
33.5534222634384776
 20
3.3425494873494008
 30
0.0
  0
VERTEX
  5
E79
  8
LAYER1
 10
40.3205849393747187
 20
7.019106705302363
 30
0.0
 42
0.7773027306773838
  0
VERTEX
  5
E7A
  8
LAYER1
 10
40.0823530240178272
 20
7.9584527520611061
 30
0.0
  0
VERTEX
  5
E7B
  8
LAYER1
 10
33.3151903480815932
 20
7.9647078324661891
 30
0.0
 42
0.4144843177265557
  0
SEQEND
  5
E7C
  8
LAYER1
  0
POLYLINE
  5
61E
  8
LAYER1
 66
     1
 10
0.0
 20
0.0
 30
0.0
 70
     1
  0
VERTEX
  5
E7D
  8
LAYER1
 10
49.903111492369419
 20
9.4493757872399726
 30
0.0
  0
VERTEX
  5
E7E
  8
LAYER1
 10
56.7192660200936416
 20
9.4430754222766762
 30
0.0
 42
0.4144843177265559
  0
VERTEX
  5
E7F
  8
LAYER1
 10
57.2197281840781997
 20
9.9430752086810799
 30
0.0
  0
VERTEX
  5
E80
  8
LAYER1
 10
57.2197281840781997
 20
13.6525497586982798
 30
0.0
 42
0.5687427203676579
  0
VERTEX
  5
E81
  8
LAYER1
 10
56.4810341047367501
 20
14.0918960190526192
 30
0.0
  0
VERTEX
  5
E82
  8
LAYER1
 10
49.6648795770125275
 20
10.3887218339987104
 30
0.0
 42
0.7773027306773818
  0
SEQEND
  5
E83
  8
LAYER1
  0
POLYLINE
  5
61F
  8
LAYER1
 66
     1
 10
0.0
 20
0.0
 30
0.0
 70
     1
  0
VERTEX
  5
E84
  8
LAYER1
 10
33.314266020112477
 20
9.4647093276358305
 30
0.0
  0
VERTEX
  5
E85
  8
LAYER1
 10
40.1137655245331288
 20
9.4584243573829667
 30
0.0
 42
0.7780444005234411
  0
VERTEX
  5
E86
  8
LAYER1
 10
40.3529217678591294
 20
10.3977704041417098
 30
0.0
  0
VERTEX
  5
E87
  8
LAYER1
 10
33.5534222634384776
 20
14.0918960190526494
 30
0.0
 42
0.5687427203676576
  0
VERTEX
  5
E88
  8
LAYER1
 10
32.8147281840970209
 20
13.65254975869831
 30
0.0
  0
VERTEX
  5
E89
  8
LAYER1
 10
32.8147281840970209
 20
9.9647091140402324
 30
0.0
 42
0.413942858846623
  0
SEQEND
  5
E8A
  8
LAYER1
  0
POLYLINE
  5
620
  8
LAYER1
 66
     1
 10
0.0
 20
0.0
 30
0.0
 70
     1
  0
VERTEX
  5
E8B
  8
LAYER1
 10
57.2197281840781997
 20
3.7818957477037709
 30
0.0
  0
VERTEX
  5
E8C
  8
LAYER1
 10
57.2197281840781997
 20
7.443074140702663
 30
0.0
 42
0.4139428588466221
  0
VERTEX
  5
E8D
  8
LAYER1
 10
56.720190348062772
 20
7.9430739271070641
 30
0.0
  0
VERTEX
  5
E8E
  8
LAYER1
 10
49.9698496833023782
 20
7.9493134584500922
 30
0.0
 42
0.7780444005234431
  0
VERTEX
  5
E8F
  8
LAYER1
 10
49.7306934399763918
 20
7.0099674116913491
 30
0.0
  0
VERTEX
  5
E90
  8
LAYER1
 10
56.4810341047367501
 20
3.3425494873494301
 30
0.0
 42
0.5687427203676575
  0
SEQEND
  5
E91
  8
LAYER1
  0
POLYLINE
  5
621
  8
LAYER1
 66
     1
 10
0.0
 20
0.0
 30
0.0
 70
     1
  0
VERTEX
  5
E92
  8
LAYER1
 10
57.4697281840769278
 20
3.772740081296575
 30
0.0
 42
-1.0
  0
VERTEX
  5
E93
  8
LAYER1
 10
57.9697281840781997
 20
3.772740081296575
 30
0.0
  0
VERTEX
  5
E94
  8
LAYER1
 10
57.9697281840781997
 20
2.272740081296575
 30
0.0
 42
-1.0
  0
VERTEX
  5
E95
  8
LAYER1
 10
57.4697281840782068
 20
2.272740081296575
 30
0.0
  0
SEQEND
  5
E96
  8
LAYER1
  0
POLYLINE
  5
622
  8
LAYER1
 66
     1
 10
0.0
 20
0.0
 30
0.0
 70
     1
  0
VERTEX
  5
E97
  8
LAYER1
 10
57.4697281840782068
 20
15.1617054251054508
 30
0.0
 42
-1.0
  0
VERTEX
  5
E98
  8
LAYER1
 10
57.9697281840781997
 20
15.1617054251054508
 30
0.0
  0
VERTEX
  5
E99
  8
LAYER1
 10
57.9697281840781997
 20
13.6617054251054508
 30
0.0
 42
-1.0
  0
VERTEX
  5
E9A
  8
LAYER1
 10
57.4697281840794574
 20
13.6617054251054508
 30
0.0
  0
SEQEND
  5
E9B
  8
LAYER1
  0
POLYLINE
  5
623
  8
LAYER1
 66
     1
 10
0.0
 20
0.0
 30
0.0
 70
     1
  0
VERTEX
  5
E9C
  8
LAYER1
 10
58.7197281840782068
 20
16.8817054251054799
 30
0.0
  0
VERTEX
  5
E9D
  8
LAYER1
 10
58.7197281840782068
 20
0.5527400812965766
 30
0.0
  0
VERTEX
  5
E9E
  8
LAYER1
 10
57.9997281840782009
 20
0.5527400812965766
 30
0.0
  0
VERTEX
  5
E9F
  8
LAYER1
 10
57.9997281840782009
 20
1.272740081296603
 30
0.0
  0
VERTEX
  5
EA0
  8
LAYER1
 10
32.7547281840970186
 20
1.272740081296603
 30
0.0
  0
VERTEX
  5
EA1
  8
LAYER1
 10
32.7547281840970186
 20
0.5527400812965766
 30
0.0
  0
VERTEX
  5
EA2
  8
LAYER1
 10
32.0347281840970481
 20
0.5527400812965766
 30
0.0
  0
VERTEX
  5
EA3
  8
LAYER1
 10
32.0347281840970481
 20
1.272740081296603
 30
0.0
  0
VERTEX
  5
EA4
  8
LAYER1
 10
31.3147281840970209
 20
1.272740081296575
 30
0.0
  0
VERTEX
  5
EA5
  8
LAYER1
 10
31.3147281840970493
 20
8.3572227532010572
 30
0.0
  0
VERTEX
  5
EA6
  8
LAYER1
 10
30.5947281840970184
 20
8.3572227532010572
 30
0.0
  0
VERTEX
  5
EA7
  8
LAYER1
 10
30.5947281840970184
 20
9.0772227532010561
 30
0.0
  0
VERTEX
  5
EA8
  8
LAYER1
 10
31.3147281840970493
 20
9.0772227532010561
 30
0.0
  0
VERTEX
  5
EA9
  8
LAYER1
 10
31.3147281840970493
 20
16.161705425105481
 30
0.0
  0
VERTEX
  5
EAA
  8
LAYER1
 10
32.0347281840970481
 20
16.161705425105481
 30
0.0
  0
VERTEX
  5
EAB
  8
LAYER1
 10
32.0347281840970481
 20
16.8817054251054799
 30
0.0
  0
VERTEX
  5
EAC
  8
LAYER1
 10
32.7547281840970186
 20
16.8817054251054799
 30
0.0
  0
VERTEX
  5
EAD
  8
LAYER1
 10
32.7547281840970186
 20
16.161705425105481
 30
0.0
  0
VERTEX
  5
EAE
  8
LAYER1
 10
57.9997281840782009
 20
16.161705425105481
 30
0.0
  0
VERTEX
  5
EAF
  8
LAYER1
 10
57.9997281840782009
 20
16.8817054251054799
 30
0.0
  0
SEQEND
  5
EB0
  8
LAYER1
  0
CIRCLE
  5
62F
  8
LAYER1
 10
79.8234372368577141
 20
148.5433519655782959
 30
0.0000000000000007
 40
0.3750000000000004
  0
POLYLINE
  5
630
  8
LAYER1
 66
     1
 10
0.0
 20
0.0
 30
0.0
 70
     1
  0
VERTEX
  5
EB8
  8
LAYER1
 10
80.9987440631771847
 20
146.7063378113865042
 30
0.0
 42
-0.3419987131196193
  0
VERTEX
  5
EB9
  8
LAYER1
 10
80.9384690324886265
 20
146.4061430068420009
 30
0.0
  0
VERTEX
  5
EBA
  8
LAYER1
 10
79.1038880624223566
 20
144.8177912406976873
 30
0.0
 42
-0.1803135956883576
  0
VERTEX
  5
EBB
  8
LAYER1
 10
78.9402506646634947
 20
144.756796007978096
 30
0.0
  0
VERTEX
  5
EBC
  8
LAYER1
 10
77.8634372368575782
 20
144.756796007978096
 30
0.0
 42
-0.4142135623730884
  0
VERTEX
  5
EBD
  8
LAYER1
 10
77.6134372368575782
 20
145.006796007978096
 30
0.0
  0
VERTEX
  5
EBE
  8
LAYER1
 10
77.6134372368575782
 20
145.2167960079781039
 30
0.0
 42
-0.4142135623730753
  0
VERTEX
  5
EBF
  8
LAYER1
 10
77.8634372368575782
 20
145.4667960079781039
 30
0.0
  0
VERTEX
  5
EC0
  8
LAYER1
 10
78.3234372368576146
 20
145.4667960079781039
 30
0.0
  0
VERTEX
  5
EC1
  8
LAYER1
 10
78.3234372368576715
 20
151.546796007978088
 30
0.0
  0
VERTEX
  5
EC2
  8
LAYER1
 10
77.8634372368576919
 20
151.546796007978088
 30
0.0
 42
-0.4142135623730884
  0
VERTEX
  5
EC3
  8
LAYER1
 10
77.6134372368576919
 20
151.796796007978088
 30
0.0
  0
VERTEX
  5
EC4
  8
LAYER1
 10
77.6134372368576919
 20
152.006796007978096
 30
0.0
 42
-0.4142135623731082
  0
VERTEX
  5
EC5
  8
LAYER1
 10
77.8634372368576919
 20
152.256796007978096
 30
0.0
  0
VERTEX
  5
EC6
  8
LAYER1
 10
79.033437236857651
 20
152.256796007978096
 30
0.0
  0
VERTEX
  5
EC7
  8
LAYER1
 10
84.1103623498821094
 20
151.4986162652012922
 30
0.0
 42
-0.3714314081957171
  0
VERTEX
  5
EC8
  8
LAYER1
 10
84.3234372368576146
 20
151.2513582298857102
 30
0.0
  0
VERTEX
  5
EC9
  8
LAYER1
 10
84.3234372368576146
 20
151.006796007978096
 30
0.0
 42
-0.4142135623730884
  0
VERTEX
  5
ECA
  8
LAYER1
 10
84.0734372368576146
 20
150.756796007978096
 30
0.0
  0
VERTEX
  5
ECB
  8
LAYER1
 10
81.3234372368576146
 20
150.756796007978096
 30
0.0
  0
VERTEX
  5
ECC
  8
LAYER1
 10
81.3234372368576146
 20
150.046796007978088
 30
0.0
  0
VERTEX
  5
ECD
  8
LAYER1
 10
86.1199300959584662
 20
150.0467960079780028
 30
0.0
 42
-0.4142135623730884
  0
VERTEX
  5
ECE
  8
LAYER1
 10
86.3699300959584662
 20
149.7967960079780028
 30
0.0
  0
VERTEX
  5
ECF
  8
LAYER1
 10
86.3699300959583951
 20
146.1845681682972895
 30
0.0
 42
-0.4142135623731147
  0
VERTEX
  5
ED0
  8
LAYER1
 10
86.1199300959583951
 20
145.9345681682972895
 30
0.0
  0
VERTEX
  5
ED1
  8
LAYER1
 10
83.6199300959583951
 20
145.9345681682974032
 30
0.0
 42
-0.4142135623730688
  0
VERTEX
  5
ED2
  8
LAYER1
 10
83.3699300959584093
 20
146.1845681682974032
 30
0.0
  0
VERTEX
  5
ED3
  8
LAYER1
 10
83.3699300959584093
 20
146.3945681682974111
 30
0.0
 42
-0.4142135623730688
  0
VERTEX
  5
ED4
  8
LAYER1
 10
83.6199300959583951
 20
146.6445681682974111
 30
0.0
  0
VERTEX
  5
ED5
  8
LAYER1
 10
84.8699300959583951
 20
146.6445681682974111
 30
0.0
  0
VERTEX
  5
ED6
  8
LAYER1
 10
84.8699300959583951
 20
147.3455681682972909
 30
0.0
  0
VERTEX
  5
ED7
  8
LAYER1
 10
83.4040598836892286
 20
147.3455681682974046
 30
0.0
 42
-0.0679444585817205
  0
VERTEX
  5
ED8
  8
LAYER1
 10
83.3370492180719538
 20
147.3547164074701925
 30
0.0
  0
VERTEX
  5
ED9
  8
LAYER1
 10
81.8715133453712269
 20
147.7624632056601115
 30
0.0
 42
0.6491335656888843
  0
SEQEND
  5
EDA
  8
LAYER1
  0
CIRCLE
  5
63B
  8
LAYER1
 10
63.9603497629139994
 20
148.5433519655782959
 30
0.0000000000000007
 40
0.3750000000000004
  0
POLYLINE
  5
63C
  8
LAYER1
 66
     1
 10
0.0
 20
0.0
 30
0.0
 70
     1
  0
VERTEX
  5
EDB
  8
LAYER1
 10
65.1356565892334629
 20
146.7063378113865042
 30
0.0
 42
-0.3419987131196193
  0
VERTEX
  5
EDC
  8
LAYER1
 10
65.0753815585449047
 20
146.4061430068420009
 30
0.0
  0
VERTEX
  5
EDD
  8
LAYER1
 10
63.2408005884786277
 20
144.8177912406976873
 30
0.0
 42
-0.1803135956883576
  0
VERTEX
  5
EDE
  8
LAYER1
 10
63.077163190719773
 20
144.756796007978096
 30
0.0
  0
VERTEX
  5
EDF
  8
LAYER1
 10
62.0003497629138778
 20
144.756796007978096
 30
0.0
 42
-0.4142135623730884
  0
VERTEX
  5
EE0
  8
LAYER1
 10
61.7503497629138494
 20
145.006796007978096
 30
0.0
  0
VERTEX
  5
EE1
  8
LAYER1
 10
61.750349762913892
 20
145.2167960079781039
 30
0.0
 42
-0.4142135623730753
  0
VERTEX
  5
EE2
  8
LAYER1
 10
62.0003497629138778
 20
145.4667960079781039
 30
0.0
  0
VERTEX
  5
EE3
  8
LAYER1
 10
62.4603497629138928
 20
145.4667960079781039
 30
0.0
  0
VERTEX
  5
EE4
  8
LAYER1
 10
62.4603497629139497
 20
151.546796007978088
 30
0.0
  0
VERTEX
  5
EE5
  8
LAYER1
 10
62.0003497629139702
 20
151.546796007978088
 30
0.0
 42
-0.4142135623730884
  0
VERTEX
  5
EE6
  8
LAYER1
 10
61.7503497629139702
 20
151.796796007978088
 30
0.0
  0
VERTEX
  5
EE7
  8
LAYER1
 10
61.7503497629139702
 20
152.006796007978096
 30
0.0
 42
-0.4142135623731082
  0
VERTEX
  5
EE8
  8
LAYER1
 10
62.0003497629139702
 20
152.256796007978096
 30
0.0
  0
VERTEX
  5
EE9
  8
LAYER1
 10
63.1703497629139932
 20
152.256796007978096
 30
0.0
  0
VERTEX
  5
EEA
  8
LAYER1
 10
68.2472748759383876
 20
151.4986162652012922
 30
0.0
 42
-0.3714314081957171
  0
VERTEX
  5
EEB
  8
LAYER1
 10
68.4603497629139497
 20
151.2513582298857102
 30
0.0
  0
VERTEX
  5
EEC
  8
LAYER1
 10
68.4603497629139497
 20
151.006796007978096
 30
0.0
 42
-0.4142135623730884
  0
VERTEX
  5
EED
  8
LAYER1
 10
68.2103497629139497
 20
150.756796007978096
 30
0.0
  0
VERTEX
  5
EEE
  8
LAYER1
 10
65.4603497629139355
 20
150.756796007978096
 30
0.0
  0
VERTEX
  5
EEF
  8
LAYER1
 10
65.4603497629139355
 20
150.046796007978088
 30
0.0
  0
VERTEX
  5
EF0
  8
LAYER1
 10
70.2568426220147444
 20
150.0467960079780028
 30
0.0
 42
-0.4142135623730884
  0
VERTEX
  5
EF1
  8
LAYER1
 10
70.5068426220147444
 20
149.7967960079780028
 30
0.0
  0
VERTEX
  5
EF2
  8
LAYER1
 10
70.5068426220147444
 20
146.1845681682972895
 30
0.0
 42
-0.4142135623731147
  0
VERTEX
  5
EF3
  8
LAYER1
 10
70.2568426220146875
 20
145.9345681682972895
 30
0.0
  0
VERTEX
  5
EF4
  8
LAYER1
 10
67.7568426220147444
 20
145.9345681682974032
 30
0.0
 42
-0.4142135623730688
  0
VERTEX
  5
EF5
  8
LAYER1
 10
67.5068426220147444
 20
146.1845681682974032
 30
0.0
  0
VERTEX
  5
EF6
  8
LAYER1
 10
67.5068426220147444
 20
146.3945681682974111
 30
0.0
 42
-0.4142135623730688
  0
VERTEX
  5
EF7
  8
LAYER1
 10
67.7568426220147444
 20
146.6445681682974111
 30
0.0
  0
VERTEX
  5
EF8
  8
LAYER1
 10
69.0068426220147444
 20
146.6445681682974111
 30
0.0
  0
VERTEX
  5
EF9
  8
LAYER1
 10
69.0068426220147444
 20
147.3455681682972909
 30
0.0
  0
VERTEX
  5
EFA
  8
LAYER1
 10
67.5409724097455069
 20
147.3455681682974046
 30
0.0
 42
-0.0679444585817205
  0
VERTEX
  5
EFB
  8
LAYER1
 10
67.4739617441282462
 20
147.3547164074701925
 30
0.0
  0
VERTEX
  5
EFC
  8
LAYER1
 10
66.0084258714275052
 20
147.7624632056601115
 30
0.0
 42
0.6491335656888843
  0
SEQEND
  5
EFD
  8
LAYER1
  0
CIRCLE
  5
653
  8
LAYER1
 10
41.2917797554004835
 20
148.4702400503778108
 30
0.0
 40
0.3750000000000005
  0
POLYLINE
  5
654
  8
LAYER1
 66
     1
 10
0.0
 20
0.0
 30
0.0
 70
     1
  0
VERTEX
  5
EFE
  8
LAYER1
 10
39.3317797554004471
 20
151.546796007978088
 30
0.0
 42
-0.4142135623730818
  0
VERTEX
  5
EFF
  8
LAYER1
 10
39.0817797554004471
 20
151.796796007978088
 30
0.0
  0
VERTEX
  5
F00
  8
LAYER1
 10
39.0817797554004471
 20
152.006796007978096
 30
0.0
 42
-0.4142135623730951
  0
VERTEX
  5
F01
  8
LAYER1
 10
39.3317797554004684
 20
152.256796007978096
 30
0.0
  0
VERTEX
  5
F02
  8
LAYER1
 10
40.4085931832063565
 20
152.256796007978096
 30
0.0
 42
-0.1803135956883714
  0
VERTEX
  5
F03
  8
LAYER1
 10
40.5722305809652184
 20
152.1958007752585047
 30
0.0
  0
VERTEX
  5
F04
  8
LAYER1
 10
42.4068115510314598
 20
150.6074490091141911
 30
0.0
 42
-0.3419987131196397
  0
VERTEX
  5
F05
  8
LAYER1
 10
42.4670865817200465
 20
150.3072542045696878
 30
0.0
 42
0.7745966692414858
  0
VERTEX
  5
F06
  8
LAYER1
 10
43.5651050557662174
 20
149.3566068300646918
 30
0.0
 42
-0.3419987131196704
  0
VERTEX
  5
F07
  8
LAYER1
 10
43.87083618309304
 20
149.3399191764407874
 30
0.0
  0
VERTEX
  5
F08
  8
LAYER1
 10
45.705417153159317
 20
147.7515674102965022
 30
0.0
 42
-0.2176444636758936
  0
VERTEX
  5
F09
  8
LAYER1
 10
45.7917797554004835
 20
147.5625626430160935
 30
0.0
  0
VERTEX
  5
F0A
  8
LAYER1
 10
45.7917797554004835
 20
147.2167960079781039
 30
0.0
 42
-0.4142135623730688
  0
VERTEX
  5
F0B
  8
LAYER1
 10
45.5417797554004835
 20
146.9667960079781039
 30
0.0
  0
VERTEX
  5
F0C
  8
LAYER1
 10
42.7917797554004835
 20
146.9667960079781039
 30
0.0
  0
VERTEX
  5
F0D
  8
LAYER1
 10
42.7917797554005119
 20
146.256796007978096
 30
0.0
  0
VERTEX
  5
F0E
  8
LAYER1
 10
45.5417797554004835
 20
146.256796007978096
 30
0.0
 42
-0.4142135623730884
  0
VERTEX
  5
F0F
  8
LAYER1
 10
45.7917797554004835
 20
146.006796007978096
 30
0.0
  0
VERTEX
  5
F10
  8
LAYER1
 10
45.7917797554005119
 20
145.7622337860705102
 30
0.0
 42
-0.3714314081957297
  0
VERTEX
  5
F11
  8
LAYER1
 10
45.5787048684249498
 20
145.5149757507548998
 30
0.0
  0
VERTEX
  5
F12
  8
LAYER1
 10
40.5017797554005128
 20
144.756796007978096
 30
0.0
  0
VERTEX
  5
F13
  8
LAYER1
 10
39.3317797554005324
 20
144.756796007978096
 30
0.0
 42
-0.4142135623731147
  0
VERTEX
  5
F14
  8
LAYER1
 10
39.0817797554005324
 20
145.006796007978096
 30
0.0
  0
VERTEX
  5
F15
  8
LAYER1
 10
39.0817797554005324
 20
145.2167960079781039
 30
0.0
 42
-0.4142135623730951
  0
VERTEX
  5
F16
  8
LAYER1
 10
39.3317797554005324
 20
145.4667960079781039
 30
0.0
  0
VERTEX
  5
F17
  8
LAYER1
 10
39.7917797554005119
 20
145.4667960079781039
 30
0.0
  0
VERTEX
  5
F18
  8
LAYER1
 10
39.7917797554004622
 20
151.546796007978088
 30
0.0
  0
SEQEND
  5
F19
  8
LAYER1
  0
POLYLINE
  5
659
  8
LAYER1
 66
     1
 10
0.0
 20
0.0
 30
0.0
 70
     1
  0
VERTEX
  5
F1A
  8
LAYER1
 10
5.6544484914950033
 20
106.3376855313376979
 30
0.0
  0
VERTEX
  5
F1B
  8
LAYER1
 10
5.0395704548079152
 20
105.982685531337296
 30
0.0
  0
VERTEX
  5
F1C
  8
LAYER1
 10
5.3945704548079334
 20
105.3678074946502932
 30
0.0
  0
VERTEX
  5
F1D
  8
LAYER1
 10
6.0094484914950206
 20
105.722807494650695
 30
0.0
  0
SEQEND
  5
F1E
  8
LAYER1
  0
POLYLINE
  5
65A
  8
LAYER1
 66
     1
 10
0.0
 20
0.0
 30
0.0
 70
     1
  0
VERTEX
  5
F1F
  8
LAYER1
 10
8.3780458650458627
 20
102.0664420819568932
 30
0.0
 42
-0.427010202730012
  0
VERTEX
  5
F20
  8
LAYER1
 10
8.0313094656748376
 20
101.965404208068307
 30
0.0
  0
VERTEX
  5
F21
  8
LAYER1
 10
4.141372280141411
 20
104.2112604892667065
 30
0.0
 42
-0.577350269189616
  0
VERTEX
  5
F22
  8
LAYER1
 10
4.1413722801413817
 20
104.6442731911589021
 30
0.0
  0
VERTEX
  5
F23
  8
LAYER1
 10
4.3378786310877038
 20
104.7577261857749988
 30
0.0
  0
VERTEX
  5
F24
  8
LAYER1
 10
3.982878631087714
 20
105.3726042224621011
 30
0.0
 42
-0.3753807278219695
  0
VERTEX
  5
F25
  8
LAYER1
 10
3.7663722801416379
 20
105.6203504141039957
 30
0.0
  0
VERTEX
  5
F26
  8
LAYER1
 10
3.7663722801413542
 20
106.3376855313376979
 30
0.0
  0
VERTEX
  5
F27
  8
LAYER1
 10
3.0563722801413742
 20
106.3376855313375984
 30
0.0
  0
VERTEX
  5
F28
  8
LAYER1
 10
3.056372280141658
 20
105.2706982332294956
 30
0.0
 42
-0.5773502691896324
  0
VERTEX
  5
F29
  8
LAYER1
 10
2.681372280141658
 20
105.0541918822834049
 30
0.0
  0
VERTEX
  5
F2A
  8
LAYER1
 10
1.681372280141715
 20
105.6315421514729991
 30
0.0
 42
-0.2679491924311257
  0
VERTEX
  5
F2B
  8
LAYER1
 10
1.556372280141687
 20
105.848048502419104
 30
0.0
  0
VERTEX
  5
F2C
  8
LAYER1
 10
1.5563722801415729
 20
113.7437109351216975
 30
0.0
 42
-0.4142135623730902
  0
VERTEX
  5
F2D
  8
LAYER1
 10
1.8063722801415449
 20
113.9937109351216975
 30
0.0
  0
VERTEX
  5
F2E
  8
LAYER1
 10
2.2663722801416948
 20
113.9937109351216975
 30
0.0
  0
VERTEX
  5
F2F
  8
LAYER1
 10
2.2663722801416379
 20
114.7037109351217055
 30
0.0
  0
VERTEX
  5
F30
  8
LAYER1
 10
1.8063722801415449
 20
114.7037109351217055
 30
0.0
 42
-0.4142135623731082
  0
VERTEX
  5
F31
  8
LAYER1
 10
1.5563722801415449
 20
114.9537109351217055
 30
0.0
  0
VERTEX
  5
F32
  8
LAYER1
 10
1.5563722801412889
 20
129.3626762789303939
 30
0.0
 42
-0.4142135623730918
  0
VERTEX
  5
F33
  8
LAYER1
 10
1.8063722801412889
 20
129.6126762789303939
 30
0.0
  0
VERTEX
  5
F34
  8
LAYER1
 10
2.266372280141268
 20
129.6126762789303939
 30
0.0
  0
VERTEX
  5
F35
  8
LAYER1
 10
2.26637228014124
 20
130.3226762789304018
 30
0.0
  0
VERTEX
  5
F36
  8
LAYER1
 10
1.8063722801412601
 20
130.3226762789304018
 30
0.0
 42
-0.4142135623730918
  0
VERTEX
  5
F37
  8
LAYER1
 10
1.5563722801412321
 20
130.5726762789302882
 30
0.0
  0
VERTEX
  5
F38
  8
LAYER1
 10
1.55637228014109
 20
138.4683387116330096
 30
0.0
 42
-0.2679491924311372
  0
VERTEX
  5
F39
  8
LAYER1
 10
1.68137228014109
 20
138.6848450625790861
 30
0.0
  0
VERTEX
  5
F3A
  8
LAYER1
 10
2.6813722801407489
 20
139.262195331768595
 30
0.0
 42
-0.5773502691896133
  0
VERTEX
  5
F3B
  8
LAYER1
 10
3.0563722801407769
 20
139.0456889808224048
 30
0.0
  0
VERTEX
  5
F3C
  8
LAYER1
 10
3.0563722801410331
 20
137.9787016827148136
 30
0.0
  0
VERTEX
  5
F3D
  8
LAYER1
 10
3.7663722801410131
 20
137.9787016827148136
 30
0.0
  0
VERTEX
  5
F3E
  8
LAYER1
 10
3.766372280140899
 20
139.0687829915898988
 30
0.0
  0
VERTEX
  5
F3F
  8
LAYER1
 10
4.1213722801410881
 20
139.6836610282771005
 30
0.0
 42
-0.5476801762481118
  0
VERTEX
  5
F40
  8
LAYER1
 10
4.1403570123723048
 20
140.1045405596659919
 30
0.0
  0
VERTEX
  5
F41
  8
LAYER1
 10
8.0313094656741555
 20
142.3509830059838919
 30
0.0
 42
-0.4270102027300326
  0
VERTEX
  5
F42
  8
LAYER1
 10
8.3780458650451806
 20
142.2499451320952915
 30
0.0
 42
-0.1206064267194109
  0
VERTEX
  5
F43
  8
LAYER1
 10
9.0563722801410904
 20
139.4787016827148989
 30
0.0
  0
VERTEX
  5
F44
  8
LAYER1
 10
9.0563722801412592
 20
130.5726762789304871
 30
0.0
 42
-0.4142135623731049
  0
VERTEX
  5
F45
  8
LAYER1
 10
8.8063722801412592
 20
130.3226762789304871
 30
0.0
  0
VERTEX
  5
F46
  8
LAYER1
 10
8.3463722801412512
 20
130.3226762789304871
 30
0.0
  0
VERTEX
  5
F47
  8
LAYER1
 10
8.3463722801412512
 20
129.6126762789305076
 30
0.0
  0
VERTEX
  5
F48
  8
LAYER1
 10
8.8063722801412592
 20
129.6126762789305076
 30
0.0
 42
-0.4142135623730967
  0
VERTEX
  5
F49
  8
LAYER1
 10
9.0563722801412894
 20
129.3626762789305076
 30
0.0
  0
VERTEX
  5
F4A
  8
LAYER1
 10
9.0563722801415452
 20
114.9537109351219044
 30
0.0
 42
-0.4142135623730884
  0
VERTEX
  5
F4B
  8
LAYER1
 10
8.8063722801415452
 20
114.7037109351219044
 30
0.0
  0
VERTEX
  5
F4C
  8
LAYER1
 10
8.3463722801416225
 20
114.7037109351219044
 30
0.0
  0
VERTEX
  5
F4D
  8
LAYER1
 10
8.3463722801416793
 20
113.9937109351218965
 30
0.0
  0
VERTEX
  5
F4E
  8
LAYER1
 10
8.8063722801415452
 20
113.9937109351218965
 30
0.0
 42
-0.4142135623730951
  0
VERTEX
  5
F4F
  8
LAYER1
 10
9.0563722801415452
 20
113.7437109351218965
 30
0.0
  0
VERTEX
  5
F50
  8
LAYER1
 10
9.0563722801417157
 20
104.8376855313372999
 30
0.0
 42
-0.1206064267194026
  0
SEQEND
  5
F51
  8
LAYER1
  0
POLYLINE
  5
65B
  8
LAYER1
 66
     1
 10
0.0
 20
0.0
 30
0.0
 70
     1
  0
VERTEX
  5
F52
  8
LAYER1
 10
5.394570454807166
 20
138.9485797194016072
 30
0.0
  0
VERTEX
  5
F53
  8
LAYER1
 10
5.0395704548071762
 20
138.3337016827146044
 30
0.0
  0
VERTEX
  5
F54
  8
LAYER1
 10
5.6544484914946054
 20
137.9787016827146999
 30
0.0
  0
VERTEX
  5
F55
  8
LAYER1
 10
6.0094484914945951
 20
138.5935797194017027
 30
0.0
  0
SEQEND
  5
F56
  8
LAYER1
  0
POLYLINE
  5
65D
  8
LAYER1
 66
     1
 10
0.0
 20
0.0
 30
0.0
 70
     1
  0
VERTEX
  5
F57
  8
LAYER1
 10
5.6544484914950033
 20
58.4991585507905469
 30
0.0
  0
VERTEX
  5
F58
  8
LAYER1
 10
5.0395704548079152
 20
58.144158550790138
 30
0.0
  0
VERTEX
  5
F59
  8
LAYER1
 10
5.3945704548079334
 20
57.529280514103192
 30
0.0
  0
VERTEX
  5
F5A
  8
LAYER1
 10
6.0094484914950206
 20
57.884280514103601
 30
0.0
  0
SEQEND
  5
F5B
  8
LAYER1
  0
POLYLINE
  5
65E
  8
LAYER1
 66
     1
 10
0.0
 20
0.0
 30
0.0
 70
     1
  0
VERTEX
  5
F5C
  8
LAYER1
 10
8.3780458650458627
 20
54.227915101409792
 30
0.0
 42
-0.427010202730012
  0
VERTEX
  5
F5D
  8
LAYER1
 10
8.0313094656748376
 20
54.1268772275211916
 30
0.0
  0
VERTEX
  5
F5E
  8
LAYER1
 10
4.141372280141411
 20
56.3727335087195627
 30
0.0
 42
-0.577350269189616
  0
VERTEX
  5
F5F
  8
LAYER1
 10
4.1413722801413817
 20
56.805746210611801
 30
0.0
  0
VERTEX
  5
F60
  8
LAYER1
 10
4.3378786310877038
 20
56.9191992052278408
 30
0.0
  0
VERTEX
  5
F61
  8
LAYER1
 10
3.982878631087714
 20
57.5340772419149786
 30
0.0
 42
-0.3753807278219695
  0
VERTEX
  5
F62
  8
LAYER1
 10
3.7663722801416379
 20
57.7818234335568377
 30
0.0
  0
VERTEX
  5
F63
  8
LAYER1
 10
3.7663722801413542
 20
58.4991585507905327
 30
0.0
  0
VERTEX
  5
F64
  8
LAYER1
 10
3.0563722801413742
 20
58.4991585507904972
 30
0.0
  0
VERTEX
  5
F65
  8
LAYER1
 10
3.056372280141658
 20
57.4321712526823731
 30
0.0
 42
-0.5773502691896324
  0
VERTEX
  5
F66
  8
LAYER1
 10
2.681372280141658
 20
57.2156649017362611
 30
0.0
  0
VERTEX
  5
F67
  8
LAYER1
 10
1.681372280141715
 20
57.7930151709258269
 30
0.0
 42
-0.2679491924311257
  0
VERTEX
  5
F68
  8
LAYER1
 10
1.556372280141687
 20
58.0095215218719318
 30
0.0
  0
VERTEX
  5
F69
  8
LAYER1
 10
1.5563722801415729
 20
65.9051839545745395
 30
0.0
 42
-0.4142135623730902
  0
VERTEX
  5
F6A
  8
LAYER1
 10
1.8063722801415449
 20
66.1551839545745395
 30
0.0
  0
VERTEX
  5
F6B
  8
LAYER1
 10
2.2663722801416659
 20
66.1551839545745537
 30
0.0
  0
VERTEX
  5
F6C
  8
LAYER1
 10
2.2663722801416379
 20
66.8651839545745759
 30
0.0
  0
VERTEX
  5
F6D
  8
LAYER1
 10
1.8063722801415449
 20
66.8651839545745332
 30
0.0
 42
-0.4142135623731082
  0
VERTEX
  5
F6E
  8
LAYER1
 10
1.5563722801415161
 20
67.1151839545745474
 30
0.0
  0
VERTEX
  5
F6F
  8
LAYER1
 10
1.5563722801412601
 20
81.5241492983832359
 30
0.0
 42
-0.4142135623730918
  0
VERTEX
  5
F70
  8
LAYER1
 10
1.8063722801412601
 20
81.7741492983832359
 30
0.0
  0
VERTEX
  5
F71
  8
LAYER1
 10
2.26637228014124
 20
81.7741492983832359
 30
0.0
  0
VERTEX
  5
F72
  8
LAYER1
 10
2.2663722801412121
 20
82.4841492983832438
 30
0.0
  0
VERTEX
  5
F73
  8
LAYER1
 10
1.8063722801412321
 20
82.4841492983832438
 30
0.0
 42
-0.4142135623730918
  0
VERTEX
  5
F74
  8
LAYER1
 10
1.5563722801412041
 20
82.7341492983832154
 30
0.0
  0
VERTEX
  5
F75
  8
LAYER1
 10
1.5563722801410611
 20
90.6298117310858515
 30
0.0
 42
-0.2679491924311372
  0
VERTEX
  5
F76
  8
LAYER1
 10
1.6813722801410611
 20
90.8463180820319565
 30
0.0
  0
VERTEX
  5
F77
  8
LAYER1
 10
2.68137228014072
 20
91.4236683512214086
 30
0.0
 42
-0.5773502691896133
  0
VERTEX
  5
F78
  8
LAYER1
 10
3.0563722801407489
 20
91.2071620002753036
 30
0.0
  0
VERTEX
  5
F79
  8
LAYER1
 10
3.0563722801410051
 20
90.1401747021676556
 30
0.0
  0
VERTEX
  5
F7A
  8
LAYER1
 10
3.7663722801409838
 20
90.140174702167684
 30
0.0
  0
VERTEX
  5
F7B
  8
LAYER1
 10
3.7663722801408701
 20
91.2302560110427692
 30
0.0
  0
VERTEX
  5
F7C
  8
LAYER1
 10
4.1213722801410588
 20
91.8451340477299851
 30
0.0
 42
-0.5476801762481118
  0
VERTEX
  5
F7D
  8
LAYER1
 10
4.1403570123722773
 20
92.2660135791188765
 30
0.0
  0
VERTEX
  5
F7E
  8
LAYER1
 10
8.0313094656741271
 20
94.5124560254367907
 30
0.0
 42
-0.4270102027300326
  0
VERTEX
  5
F7F
  8
LAYER1
 10
8.3780458650451521
 20
94.4114181515482045
 30
0.0
 42
-0.1206064267194109
  0
VERTEX
  5
F80
  8
LAYER1
 10
9.0563722801410602
 20
91.6401747021677124
 30
0.0
  0
VERTEX
  5
F81
  8
LAYER1
 10
9.0563722801412325
 20
82.7341492983833859
 30
0.0
 42
-0.4142135623731049
  0
VERTEX
  5
F82
  8
LAYER1
 10
8.8063722801412325
 20
82.4841492983833575
 30
0.0
  0
VERTEX
  5
F83
  8
LAYER1
 10
8.3463722801412246
 20
82.4841492983833575
 30
0.0
  0
VERTEX
  5
F84
  8
LAYER1
 10
8.3463722801412246
 20
81.7741492983833353
 30
0.0
  0
VERTEX
  5
F85
  8
LAYER1
 10
8.8063722801412325
 20
81.7741492983833353
 30
0.0
 42
-0.4142135623730967
  0
VERTEX
  5
F86
  8
LAYER1
 10
9.0563722801412592
 20
81.524149298383378
 30
0.0
  0
VERTEX
  5
F87
  8
LAYER1
 10
9.0563722801415167
 20
67.1151839545747748
 30
0.0
 42
-0.4142135623730884
  0
VERTEX
  5
F88
  8
LAYER1
 10
8.8063722801415167
 20
66.8651839545747748
 30
0.0
  0
VERTEX
  5
F89
  8
LAYER1
 10
8.3463722801416225
 20
66.8651839545747748
 30
0.0
  0
VERTEX
  5
F8A
  8
LAYER1
 10
8.3463722801416793
 20
66.1551839545747669
 30
0.0
  0
VERTEX
  5
F8B
  8
LAYER1
 10
8.8063722801415452
 20
66.1551839545747953
 30
0.0
 42
-0.4142135623730951
  0
VERTEX
  5
F8C
  8
LAYER1
 10
9.0563722801415452
 20
65.9051839545747953
 30
0.0
  0
VERTEX
  5
F8D
  8
LAYER1
 10
9.0563722801417157
 20
56.999158550790213
 30
0.0
 42
-0.1206064267194026
  0
SEQEND
  5
F8E
  8
LAYER1
  0
POLYLINE
  5
65F
  8
LAYER1
 66
     1
 10
0.0
 20
0.0
 30
0.0
 70
     1
  0
VERTEX
  5
F8F
  8
LAYER1
 10
5.3945704548071367
 20
91.110052738854435
 30
0.0
  0
VERTEX
  5
F90
  8
LAYER1
 10
5.0395704548071469
 20
90.4951747021675033
 30
0.0
  0
VERTEX
  5
F91
  8
LAYER1
 10
5.6544484914945761
 20
90.1401747021675988
 30
0.0
  0
VERTEX
  5
F92
  8
LAYER1
 10
6.0094484914945658
 20
90.7550527388545447
 30
0.0
  0
SEQEND
  5
F93
  8
LAYER1
  0
CIRCLE
  5
661
  8
LAYER1
 10
24.5324690406722787
 20
148.4702400503778108
 30
0.0
 40
0.3750000000000005
  0
POLYLINE
  5
662
  8
LAYER1
 66
     1
 10
0.0
 20
0.0
 30
0.0
 70
     1
  0
VERTEX
  5
F94
  8
LAYER1
 10
22.5724690406722388
 20
151.546796007978088
 30
0.0
 42
-0.4142135623730818
  0
VERTEX
  5
F95
  8
LAYER1
 10
22.3224690406722495
 20
151.796796007978088
 30
0.0
  0
VERTEX
  5
F96
  8
LAYER1
 10
22.3224690406722495
 20
152.006796007978096
 30
0.0
 42
-0.4142135623730951
  0
VERTEX
  5
F97
  8
LAYER1
 10
22.5724690406722814
 20
152.256796007978096
 30
0.0
  0
VERTEX
  5
F98
  8
LAYER1
 10
23.6492824684781588
 20
152.256796007978096
 30
0.0
 42
-0.1803135956883714
  0
VERTEX
  5
F99
  8
LAYER1
 10
23.8129198662370207
 20
152.1958007752585047
 30
0.0
  0
VERTEX
  5
F9A
  8
LAYER1
 10
25.6475008363032693
 20
150.6074490091141911
 30
0.0
 42
-0.3419987131196397
  0
VERTEX
  5
F9B
  8
LAYER1
 10
25.7077758669918488
 20
150.3072542045696878
 30
0.0
 42
0.7745966692414858
  0
VERTEX
  5
F9C
  8
LAYER1
 10
26.8057943410380197
 20
149.3566068300646918
 30
0.0
 42
-0.3419987131196704
  0
VERTEX
  5
F9D
  8
LAYER1
 10
27.1115254683648494
 20
149.3399191764407874
 30
0.0
  0
VERTEX
  5
F9E
  8
LAYER1
 10
28.9461064384311193
 20
147.7515674102965022
 30
0.0
 42
-0.2176444636758936
  0
VERTEX
  5
F9F
  8
LAYER1
 10
29.0324690406722787
 20
147.5625626430160935
 30
0.0
  0
VERTEX
  5
FA0
  8
LAYER1
 10
29.0324690406722787
 20
147.2167960079781039
 30
0.0
 42
-0.4142135623730688
  0
VERTEX
  5
FA1
  8
LAYER1
 10
28.7824690406722787
 20
146.9667960079781039
 30
0.0
  0
VERTEX
  5
FA2
  8
LAYER1
 10
26.0324690406722894
 20
146.9667960079781039
 30
0.0
  0
VERTEX
  5
FA3
  8
LAYER1
 10
26.0324690406723107
 20
146.256796007978096
 30
0.0
  0
VERTEX
  5
FA4
  8
LAYER1
 10
28.7824690406722787
 20
146.256796007978096
 30
0.0
 42
-0.4142135623730884
  0
VERTEX
  5
FA5
  8
LAYER1
 10
29.0324690406722787
 20
146.006796007978096
 30
0.0
  0
VERTEX
  5
FA6
  8
LAYER1
 10
29.0324690406723107
 20
145.7622337860705102
 30
0.0
 42
-0.3714314081957297
  0
VERTEX
  5
FA7
  8
LAYER1
 10
28.8193941536967486
 20
145.5149757507548998
 30
0.0
  0
VERTEX
  5
FA8
  8
LAYER1
 10
23.7424690406723187
 20
144.756796007978096
 30
0.0
  0
VERTEX
  5
FA9
  8
LAYER1
 10
22.5724690406723312
 20
144.756796007978096
 30
0.0
 42
-0.4142135623731147
  0
VERTEX
  5
FAA
  8
LAYER1
 10
22.3224690406723312
 20
145.006796007978096
 30
0.0
  0
VERTEX
  5
FAB
  8
LAYER1
 10
22.3224690406723312
 20
145.2167960079781039
 30
0.0
 42
-0.4142135623730951
  0
VERTEX
  5
FAC
  8
LAYER1
 10
22.5724690406723312
 20
145.4667960079781039
 30
0.0
  0
VERTEX
  5
FAD
  8
LAYER1
 10
23.0324690406723107
 20
145.4667960079781039
 30
0.0
  0
VERTEX
  5
FAE
  8
LAYER1
 10
23.032469040672261
 20
151.546796007978088
 30
0.0
  0
SEQEND
  5
FAF
  8
LAYER1
  0
CIRCLE
  5
664
  8
LAYER1
 10
3.9982843328598672
 20
148.4702400503778108
 30
0.0
 40
0.3750000000000005
  0
POLYLINE
  5
665
  8
LAYER1
 66
     1
 10
0.0
 20
0.0
 30
0.0
 70
     1
  0
VERTEX
  5
FB0
  8
LAYER1
 10
2.0382843328598308
 20
151.546796007978088
 30
0.0
 42
-0.4142135623730818
  0
VERTEX
  5
FB1
  8
LAYER1
 10
1.788284332859831
 20
151.796796007978088
 30
0.0
  0
VERTEX
  5
FB2
  8
LAYER1
 10
1.788284332859831
 20
152.006796007978096
 30
0.0
 42
-0.4142135623730951
  0
VERTEX
  5
FB3
  8
LAYER1
 10
2.0382843328598592
 20
152.256796007978096
 30
0.0
  0
VERTEX
  5
FB4
  8
LAYER1
 10
3.1150977606657468
 20
152.256796007978096
 30
0.0
 42
-0.1803135956883714
  0
VERTEX
  5
FB5
  8
LAYER1
 10
3.2787351584246092
 20
152.1958007752585047
 30
0.0
  0
VERTEX
  5
FB6
  8
LAYER1
 10
5.113316128490851
 20
150.6074490091141911
 30
0.0
 42
-0.3419987131196397
  0
VERTEX
  5
FB7
  8
LAYER1
 10
5.1735911591794368
 20
150.3072542045696878
 30
0.0
 42
0.7745966692414858
  0
VERTEX
  5
FB8
  8
LAYER1
 10
6.2716096332256077
 20
149.3566068300646918
 30
0.0
 42
-0.3419987131196704
  0
VERTEX
  5
FB9
  8
LAYER1
 10
6.5773407605524312
 20
149.3399191764407874
 30
0.0
  0
VERTEX
  5
FBA
  8
LAYER1
 10
8.4119217306187011
 20
147.7515674102965022
 30
0.0
 42
-0.2176444636758936
  0
VERTEX
  5
FBB
  8
LAYER1
 10
8.4982843328598676
 20
147.5625626430160935
 30
0.0
  0
VERTEX
  5
FBC
  8
LAYER1
 10
8.4982843328598676
 20
147.2167960079781039
 30
0.0
 42
-0.4142135623730688
  0
VERTEX
  5
FBD
  8
LAYER1
 10
8.2482843328598676
 20
146.9667960079781039
 30
0.0
  0
VERTEX
  5
FBE
  8
LAYER1
 10
5.4982843328598667
 20
146.9667960079781039
 30
0.0
  0
VERTEX
  5
FBF
  8
LAYER1
 10
5.498284332859896
 20
146.256796007978096
 30
0.0
  0
VERTEX
  5
FC0
  8
LAYER1
 10
8.2482843328598676
 20
146.256796007978096
 30
0.0
 42
-0.4142135623730884
  0
VERTEX
  5
FC1
  8
LAYER1
 10
8.4982843328598676
 20
146.006796007978096
 30
0.0
  0
VERTEX
  5
FC2
  8
LAYER1
 10
8.498284332859896
 20
145.7622337860705102
 30
0.0
 42
-0.3714314081957297
  0
VERTEX
  5
FC3
  8
LAYER1
 10
8.2852094458843322
 20
145.5149757507548998
 30
0.0
  0
VERTEX
  5
FC4
  8
LAYER1
 10
3.2082843328599031
 20
144.756796007978096
 30
0.0
  0
VERTEX
  5
FC5
  8
LAYER1
 10
2.0382843328599161
 20
144.756796007978096
 30
0.0
 42
-0.4142135623731147
  0
VERTEX
  5
FC6
  8
LAYER1
 10
1.7882843328599161
 20
145.006796007978096
 30
0.0
  0
VERTEX
  5
FC7
  8
LAYER1
 10
1.7882843328599161
 20
145.2167960079781039
 30
0.0
 42
-0.4142135623730951
  0
VERTEX
  5
FC8
  8
LAYER1
 10
2.0382843328599161
 20
145.4667960079781039
 30
0.0
  0
VERTEX
  5
FC9
  8
LAYER1
 10
2.498284332859896
 20
145.4667960079781039
 30
0.0
  0
VERTEX
  5
FCA
  8
LAYER1
 10
2.4982843328598392
 20
151.546796007978088
 30
0.0
  0
SEQEND
  5
FCB
  8
LAYER1
  0
CIRCLE
  5
667
  8
LAYER1
 10
41.291779755400448
 20
100.3522534209913033
 30
0.0
 40
0.3750000000000005
  0
POLYLINE
  5
668
  8
LAYER1
 66
     1
 10
0.0
 20
0.0
 30
0.0
 70
     1
  0
VERTEX
  5
FCC
  8
LAYER1
 10
39.3317797554004187
 20
103.4288093785915947
 30
0.0
 42
-0.4142135623730818
  0
VERTEX
  5
FCD
  8
LAYER1
 10
39.0817797554004187
 20
103.6788093785915947
 30
0.0
  0
VERTEX
  5
FCE
  8
LAYER1
 10
39.0817797554004187
 20
103.8888093785916027
 30
0.0
 42
-0.4142135623730951
  0
VERTEX
  5
FCF
  8
LAYER1
 10
39.3317797554004684
 20
104.1388093785916027
 30
0.0
  0
VERTEX
  5
FD0
  8
LAYER1
 10
40.4085931832063423
 20
104.1388093785917022
 30
0.0
 42
-0.1803135956883714
  0
VERTEX
  5
FD1
  8
LAYER1
 10
40.5722305809651971
 20
104.0778141458719972
 30
0.0
  0
VERTEX
  5
FD2
  8
LAYER1
 10
42.4068115510314598
 20
102.4894623797276978
 30
0.0
 42
-0.3419987131196397
  0
VERTEX
  5
FD3
  8
LAYER1
 10
42.4670865817200465
 20
102.1892675751831945
 30
0.0
 42
0.7745966692414858
  0
VERTEX
  5
FD4
  8
LAYER1
 10
43.5651050557662174
 20
101.238620200678298
 30
0.0
 42
-0.3419987131196704
  0
VERTEX
  5
FD5
  8
LAYER1
 10
43.87083618309304
 20
101.2219325470543936
 30
0.0
  0
VERTEX
  5
FD6
  8
LAYER1
 10
45.705417153159317
 20
99.6335807809100942
 30
0.0
 42
-0.2176444636758936
  0
VERTEX
  5
FD7
  8
LAYER1
 10
45.7917797554004835
 20
99.4445760136297139
 30
0.0
  0
VERTEX
  5
FD8
  8
LAYER1
 10
45.7917797554004835
 20
99.0988093785916675
 30
0.0
 42
-0.4142135623730688
  0
VERTEX
  5
FD9
  8
LAYER1
 10
45.5417797554004835
 20
98.8488093785916675
 30
0.0
  0
VERTEX
  5
FDA
  8
LAYER1
 10
42.7917797554004835
 20
98.8488093785916533
 30
0.0
  0
VERTEX
  5
FDB
  8
LAYER1
 10
42.7917797554005119
 20
98.1388093785916311
 30
0.0
  0
VERTEX
  5
FDC
  8
LAYER1
 10
45.5417797554004835
 20
98.1388093785916737
 30
0.0
 42
-0.4142135623730884
  0
VERTEX
  5
FDD
  8
LAYER1
 10
45.7917797554004835
 20
97.8888093785916737
 30
0.0
  0
VERTEX
  5
FDE
  8
LAYER1
 10
45.7917797554005119
 20
97.6442471566841164
 30
0.0
 42
-0.3714314081957297
  0
VERTEX
  5
FDF
  8
LAYER1
 10
45.5787048684249498
 20
97.3969891213684633
 30
0.0
  0
VERTEX
  5
FE0
  8
LAYER1
 10
40.5017797554005128
 20
96.6388093785916737
 30
0.0
  0
VERTEX
  5
FE1
  8
LAYER1
 10
39.3317797554005324
 20
96.6388093785916737
 30
0.0
 42
-0.4142135623731147
  0
VERTEX
  5
FE2
  8
LAYER1
 10
39.0817797554005324
 20
96.8888093785916737
 30
0.0
  0
VERTEX
  5
FE3
  8
LAYER1
 10
39.0817797554005324
 20
97.0988093785916391
 30
0.0
 42
-0.4142135623730951
  0
VERTEX
  5
FE4
  8
LAYER1
 10
39.3317797554005324
 20
97.3488093785916391
 30
0.0
  0
VERTEX
  5
FE5
  8
LAYER1
 10
39.7917797554005119
 20
97.3488093785916533
 30
0.0
  0
VERTEX
  5
FE6
  8
LAYER1
 10
39.7917797554004622
 20
103.4288093785915947
 30
0.0
  0
SEQEND
  5
FE7
  8
LAYER1
  0
CIRCLE
  5
669
  8
LAYER1
 10
24.532469040672261
 20
100.3522534209913033
 30
0.0
 40
0.3750000000000005
  0
POLYLINE
  5
66A
  8
LAYER1
 66
     1
 10
0.0
 20
0.0
 30
0.0
 70
     1
  0
VERTEX
  5
FE8
  8
LAYER1
 10
22.572469040672221
 20
103.4288093785915947
 30
0.0
 42
-0.4142135623730818
  0
VERTEX
  5
FE9
  8
LAYER1
 10
22.322469040672221
 20
103.6788093785915947
 30
0.0
  0
VERTEX
  5
FEA
  8
LAYER1
 10
22.322469040672221
 20
103.8888093785916027
 30
0.0
 42
-0.4142135623730951
  0
VERTEX
  5
FEB
  8
LAYER1
 10
22.5724690406722388
 20
104.1388093785917022
 30
0.0
  0
VERTEX
  5
FEC
  8
LAYER1
 10
23.6492824684781411
 20
104.1388093785917022
 30
0.0
 42
-0.1803135956883714
  0
VERTEX
  5
FED
  8
LAYER1
 10
23.8129198662369994
 20
104.0778141458720967
 30
0.0
  0
VERTEX
  5
FEE
  8
LAYER1
 10
25.6475008363032693
 20
102.4894623797277973
 30
0.0
 42
-0.3419987131196397
  0
VERTEX
  5
FEF
  8
LAYER1
 10
25.7077758669918488
 20
102.189267575183294
 30
0.0
 42
0.7745966692414858
  0
VERTEX
  5
FF0
  8
LAYER1
 10
26.8057943410380197
 20
101.238620200678298
 30
0.0
 42
-0.3419987131196704
  0
VERTEX
  5
FF1
  8
LAYER1
 10
27.1115254683648494
 20
101.2219325470543936
 30
0.0
  0
VERTEX
  5
FF2
  8
LAYER1
 10
28.9461064384311193
 20
99.6335807809101226
 30
0.0
 42
-0.2176444636758936
  0
VERTEX
  5
FF3
  8
LAYER1
 10
29.0324690406722787
 20
99.4445760136297281
 30
0.0
  0
VERTEX
  5
FF4
  8
LAYER1
 10
29.0324690406722787
 20
99.0988093785916959
 30
0.0
 42
-0.4142135623730688
  0
VERTEX
  5
FF5
  8
LAYER1
 10
28.7824690406722787
 20
98.8488093785916817
 30
0.0
  0
VERTEX
  5
FF6
  8
LAYER1
 10
26.0324690406722894
 20
98.8488093785916533
 30
0.0
  0
VERTEX
  5
FF7
  8
LAYER1
 10
26.0324690406723107
 20
98.1388093785916453
 30
0.0
  0
VERTEX
  5
FF8
  8
LAYER1
 10
28.7824690406722787
 20
98.1388093785916737
 30
0.0
 42
-0.4142135623730884
  0
VERTEX
  5
FF9
  8
LAYER1
 10
29.0324690406722787
 20
97.8888093785916737
 30
0.0
  0
VERTEX
  5
FFA
  8
LAYER1
 10
29.0324690406723107
 20
97.6442471566841164
 30
0.0
 42
-0.3714314081957297
  0
VERTEX
  5
FFB
  8
LAYER1
 10
28.8193941536967486
 20
97.3969891213684775
 30
0.0
  0
VERTEX
  5
FFC
  8
LAYER1
 10
23.7424690406723187
 20
96.6388093785916737
 30
0.0
  0
VERTEX
  5
FFD
  8
LAYER1
 10
22.5724690406723312
 20
96.6388093785916737
 30
0.0
 42
-0.4142135623731147
  0
VERTEX
  5
FFE
  8
LAYER1
 10
22.3224690406723312
 20
96.8888093785916737
 30
0.0
  0
VERTEX
  5
FFF
  8
LAYER1
 10
22.3224690406723312
 20
97.0988093785916533
 30
0.0
 42
-0.4142135623730951
  0
VERTEX
  5
1000
  8
LAYER1
 10
22.5724690406722992
 20
97.3488093785916533
 30
0.0
  0
VERTEX
  5
1001
  8
LAYER1
 10
23.0324690406723107
 20
97.3488093785916817
 30
0.0
  0
VERTEX
  5
1002
  8
LAYER1
 10
23.0324690406722183
 20
103.4288093785915947
 30
0.0
  0
SEQEND
  5
1003
  8
LAYER1
  0
CIRCLE
  5
66B
  8
LAYER1
 10
3.9982843328598392
 20
100.3522534209913033
 30
0.0
 40
0.3750000000000005
  0
POLYLINE
  5
66C
  8
LAYER1
 66
     1
 10
0.0
 20
0.0
 30
0.0
 70
     1
  0
VERTEX
  5
1004
  8
LAYER1
 10
2.0382843328598019
 20
103.4288093785915947
 30
0.0
 42
-0.4142135623730818
  0
VERTEX
  5
1005
  8
LAYER1
 10
1.7882843328598019
 20
103.6788093785915947
 30
0.0
  0
VERTEX
  5
1006
  8
LAYER1
 10
1.7882843328598019
 20
103.8888093785916027
 30
0.0
 42
-0.4142135623730951
  0
VERTEX
  5
1007
  8
LAYER1
 10
2.0382843328598308
 20
104.1388093785917022
 30
0.0
  0
VERTEX
  5
1008
  8
LAYER1
 10
3.1150977606657189
 20
104.1388093785917022
 30
0.0
 42
-0.1803135956883714
  0
VERTEX
  5
1009
  8
LAYER1
 10
3.2787351584245812
 20
104.0778141458720967
 30
0.0
  0
VERTEX
  5
100A
  8
LAYER1
 10
5.113316128490851
 20
102.4894623797277973
 30
0.0
 42
-0.3419987131196397
  0
VERTEX
  5
100B
  8
LAYER1
 10
5.1735911591794368
 20
102.189267575183294
 30
0.0
 42
0.7745966692414858
  0
VERTEX
  5
100C
  8
LAYER1
 10
6.2716096332256077
 20
101.238620200678298
 30
0.0
 42
-0.3419987131196704
  0
VERTEX
  5
100D
  8
LAYER1
 10
6.5773407605524312
 20
101.2219325470543936
 30
0.0
  0
VERTEX
  5
100E
  8
LAYER1
 10
8.4119217306187011
 20
99.6335807809101226
 30
0.0
 42
-0.2176444636758936
  0
VERTEX
  5
100F
  8
LAYER1
 10
8.4982843328598676
 20
99.4445760136297281
 30
0.0
  0
VERTEX
  5
1010
  8
LAYER1
 10
8.4982843328598676
 20
99.0988093785916959
 30
0.0
 42
-0.4142135623730688
  0
VERTEX
  5
1011
  8
LAYER1
 10
8.2482843328598676
 20
98.8488093785916817
 30
0.0
  0
VERTEX
  5
1012
  8
LAYER1
 10
5.4982843328598667
 20
98.8488093785916533
 30
0.0
  0
VERTEX
  5
1013
  8
LAYER1
 10
5.498284332859896
 20
98.1388093785916453
 30
0.0
  0
VERTEX
  5
1014
  8
LAYER1
 10
8.2482843328598676
 20
98.1388093785916737
 30
0.0
 42
-0.4142135623730884
  0
VERTEX
  5
1015
  8
LAYER1
 10
8.4982843328598676
 20
97.8888093785916737
 30
0.0
  0
VERTEX
  5
1016
  8
LAYER1
 10
8.498284332859896
 20
97.6442471566841164
 30
0.0
 42
-0.3714314081957297
  0
VERTEX
  5
1017
  8
LAYER1
 10
8.2852094458843322
 20
97.3969891213684775
 30
0.0
  0
VERTEX
  5
1018
  8
LAYER1
 10
3.2082843328599031
 20
96.6388093785916737
 30
0.0
  0
VERTEX
  5
1019
  8
LAYER1
 10
2.0382843328599161
 20
96.6388093785916737
 30
0.0
 42
-0.4142135623731147
  0
VERTEX
  5
101A
  8
LAYER1
 10
1.7882843328599161
 20
96.8888093785916737
 30
0.0
  0
VERTEX
  5
101B
  8
LAYER1
 10
1.7882843328599161
 20
97.0988093785916533
 30
0.0
 42
-0.4142135623730951
  0
VERTEX
  5
101C
  8
LAYER1
 10
2.0382843328598881
 20
97.3488093785916533
 30
0.0
  0
VERTEX
  5
101D
  8
LAYER1
 10
2.498284332859896
 20
97.3488093785916817
 30
0.0
  0
VERTEX
  5
101E
  8
LAYER1
 10
2.4982843328598099
 20
103.4288093785915947
 30
0.0
  0
SEQEND
  5
101F
  8
LAYER1
  0
CIRCLE
  5
670
  8
LAYER1
 10
41.291779755400448
 20
52.234267255328291
 30
0.0
 40
0.3750000000000005
  0
POLYLINE
  5
671
  8
LAYER1
 66
     1
 10
0.0
 20
0.0
 30
0.0
 70
     1
  0
VERTEX
  5
1020
  8
LAYER1
 10
39.3317797554004187
 20
55.3108232129285966
 30
0.0
 42
-0.4142135623730818
  0
VERTEX
  5
1021
  8
LAYER1
 10
39.0817797554004187
 20
55.5608232129285895
 30
0.0
  0
VERTEX
  5
1022
  8
LAYER1
 10
39.0817797554004187
 20
55.770823212928569
 30
0.0
 42
-0.4142135623730951
  0
VERTEX
  5
1023
  8
LAYER1
 10
39.3317797554004471
 20
56.0208232129285975
 30
0.0
  0
VERTEX
  5
1024
  8
LAYER1
 10
40.4085931832063423
 20
56.020823212928633
 30
0.0
 42
-0.1803135956883714
  0
VERTEX
  5
1025
  8
LAYER1
 10
40.5722305809651971
 20
55.9598279802090204
 30
0.0
  0
VERTEX
  5
1026
  8
LAYER1
 10
42.4068115510314385
 20
54.3714762140646997
 30
0.0
 42
-0.3419987131196397
  0
VERTEX
  5
1027
  8
LAYER1
 10
42.4670865817200323
 20
54.0712814095202177
 30
0.0
 42
0.7745966692414858
  0
VERTEX
  5
1028
  8
LAYER1
 10
43.565105055766189
 20
53.1206340350152288
 30
0.0
 42
-0.3419987131196704
  0
VERTEX
  5
1029
  8
LAYER1
 10
43.8708361830930187
 20
53.1039463813913528
 30
0.0
  0
VERTEX
  5
102A
  8
LAYER1
 10
45.7054171531592814
 20
51.5155946152470392
 30
0.0
 42
-0.2176444636758936
  0
VERTEX
  5
102B
  8
LAYER1
 10
45.791779755400448
 20
51.3265898479666589
 30
0.0
  0
VERTEX
  5
102C
  8
LAYER1
 10
45.791779755400448
 20
50.9808232129286125
 30
0.0
 42
-0.4142135623730688
  0
VERTEX
  5
102D
  8
LAYER1
 10
45.541779755400448
 20
50.7308232129286125
 30
0.0
  0
VERTEX
  5
102E
  8
LAYER1
 10
42.791779755400448
 20
50.730823212928577
 30
0.0
  0
VERTEX
  5
102F
  8
LAYER1
 10
42.7917797554004835
 20
50.020823212928569
 30
0.0
  0
VERTEX
  5
1030
  8
LAYER1
 10
45.541779755400448
 20
50.0208232129285975
 30
0.0
 42
-0.4142135623730884
  0
VERTEX
  5
1031
  8
LAYER1
 10
45.791779755400448
 20
49.7708232129285975
 30
0.0
  0
VERTEX
  5
1032
  8
LAYER1
 10
45.7917797554004835
 20
49.5262609910210401
 30
0.0
 42
-0.3714314081957297
  0
VERTEX
  5
1033
  8
LAYER1
 10
45.5787048684249072
 20
49.2790029557054083
 30
0.0
  0
VERTEX
  5
1034
  8
LAYER1
 10
40.5017797554004915
 20
48.5208232129285975
 30
0.0
  0
VERTEX
  5
1035
  8
LAYER1
 10
39.3317797554005324
 20
48.5208232129285975
 30
0.0
 42
-0.4142135623731147
  0
VERTEX
  5
1036
  8
LAYER1
 10
39.0817797554005324
 20
48.7708232129285975
 30
0.0
  0
VERTEX
  5
1037
  8
LAYER1
 10
39.0817797554005324
 20
48.980823212928577
 30
0.0
 42
-0.4142135623730951
  0
VERTEX
  5
1038
  8
LAYER1
 10
39.3317797554005111
 20
49.230823212928577
 30
0.0
  0
VERTEX
  5
1039
  8
LAYER1
 10
39.7917797554005119
 20
49.2308232129286125
 30
0.0
  0
VERTEX
  5
103A
  8
LAYER1
 10
39.7917797554004267
 20
55.3108232129285966
 30
0.0
  0
SEQEND
  5
103B
  8
LAYER1
  0
CIRCLE
  5
672
  8
LAYER1
 10
24.532469040672261
 20
52.234267255328291
 30
0.0
 40
0.3750000000000005
  0
POLYLINE
  5
673
  8
LAYER1
 66
     1
 10
0.0
 20
0.0
 30
0.0
 70
     1
  0
VERTEX
  5
103C
  8
LAYER1
 10
22.572469040672221
 20
55.3108232129285966
 30
0.0
 42
-0.4142135623730818
  0
VERTEX
  5
103D
  8
LAYER1
 10
22.322469040672221
 20
55.5608232129285895
 30
0.0
  0
VERTEX
  5
103E
  8
LAYER1
 10
22.322469040672221
 20
55.770823212928569
 30
0.0
 42
-0.4142135623730951
  0
VERTEX
  5
103F
  8
LAYER1
 10
22.5724690406722388
 20
56.0208232129285975
 30
0.0
  0
VERTEX
  5
1040
  8
LAYER1
 10
23.6492824684781411
 20
56.020823212928633
 30
0.0
 42
-0.1803135956883714
  0
VERTEX
  5
1041
  8
LAYER1
 10
23.8129198662369994
 20
55.9598279802090204
 30
0.0
  0
VERTEX
  5
1042
  8
LAYER1
 10
25.6475008363032408
 20
54.3714762140646997
 30
0.0
 42
-0.3419987131196397
  0
VERTEX
  5
1043
  8
LAYER1
 10
25.707775866991831
 20
54.0712814095202177
 30
0.0
 42
0.7745966692414858
  0
VERTEX
  5
1044
  8
LAYER1
 10
26.8057943410379984
 20
53.1206340350152288
 30
0.0
 42
-0.3419987131196704
  0
VERTEX
  5
1045
  8
LAYER1
 10
27.111525468364821
 20
53.1039463813913528
 30
0.0
  0
VERTEX
  5
1046
  8
LAYER1
 10
28.9461064384310909
 20
51.5155946152470392
 30
0.0
 42
-0.2176444636758936
  0
VERTEX
  5
1047
  8
LAYER1
 10
29.032469040672261
 20
51.3265898479666589
 30
0.0
  0
VERTEX
  5
1048
  8
LAYER1
 10
29.032469040672261
 20
50.9808232129286125
 30
0.0
 42
-0.4142135623730688
  0
VERTEX
  5
1049
  8
LAYER1
 10
28.7824690406722503
 20
50.7308232129286125
 30
0.0
  0
VERTEX
  5
104A
  8
LAYER1
 10
26.0324690406722503
 20
50.730823212928577
 30
0.0
  0
VERTEX
  5
104B
  8
LAYER1
 10
26.0324690406722894
 20
50.020823212928569
 30
0.0
  0
VERTEX
  5
104C
  8
LAYER1
 10
28.7824690406722503
 20
50.0208232129285975
 30
0.0
 42
-0.4142135623730884
  0
VERTEX
  5
104D
  8
LAYER1
 10
29.032469040672261
 20
49.7708232129285975
 30
0.0
  0
VERTEX
  5
104E
  8
LAYER1
 10
29.0324690406722787
 20
49.5262609910210401
 30
0.0
 42
-0.3714314081957297
  0
VERTEX
  5
104F
  8
LAYER1
 10
28.8193941536967202
 20
49.2790029557054083
 30
0.0
  0
VERTEX
  5
1050
  8
LAYER1
 10
23.7424690406723187
 20
48.5208232129285975
 30
0.0
  0
VERTEX
  5
1051
  8
LAYER1
 10
22.5724690406723312
 20
48.5208232129285975
 30
0.0
 42
-0.4142135623731147
  0
VERTEX
  5
1052
  8
LAYER1
 10
22.3224690406723312
 20
48.7708232129285975
 30
0.0
  0
VERTEX
  5
1053
  8
LAYER1
 10
22.3224690406723312
 20
48.980823212928577
 30
0.0
 42
-0.4142135623730951
  0
VERTEX
  5
1054
  8
LAYER1
 10
22.5724690406722992
 20
49.230823212928577
 30
0.0
  0
VERTEX
  5
1055
  8
LAYER1
 10
23.0324690406723107
 20
49.2308232129286125
 30
0.0
  0
VERTEX
  5
1056
  8
LAYER1
 10
23.0324690406722183
 20
55.3108232129285966
 30
0.0
  0
SEQEND
  5
1057
  8
LAYER1
  0
CIRCLE
  5
674
  8
LAYER1
 10
3.9982843328598392
 20
52.234267255328291
 30
0.0
 40
0.3750000000000005
  0
POLYLINE
  5
675
  8
LAYER1
 66
     1
 10
0.0
 20
0.0
 30
0.0
 70
     1
  0
VERTEX
  5
1058
  8
LAYER1
 10
2.0382843328598019
 20
55.3108232129285966
 30
0.0
 42
-0.4142135623730818
  0
VERTEX
  5
1059
  8
LAYER1
 10
1.7882843328598019
 20
55.5608232129285895
 30
0.0
  0
VERTEX
  5
105A
  8
LAYER1
 10
1.7882843328598019
 20
55.770823212928569
 30
0.0
 42
-0.4142135623730951
  0
VERTEX
  5
105B
  8
LAYER1
 10
2.0382843328598308
 20
56.0208232129285975
 30
0.0
  0
VERTEX
  5
105C
  8
LAYER1
 10
3.1150977606657189
 20
56.020823212928633
 30
0.0
 42
-0.1803135956883714
  0
VERTEX
  5
105D
  8
LAYER1
 10
3.2787351584245812
 20
55.9598279802090204
 30
0.0
  0
VERTEX
  5
105E
  8
LAYER1
 10
5.1133161284908217
 20
54.3714762140646997
 30
0.0
 42
-0.3419987131196397
  0
VERTEX
  5
105F
  8
LAYER1
 10
5.1735911591794093
 20
54.0712814095202177
 30
0.0
 42
0.7745966692414858
  0
VERTEX
  5
1060
  8
LAYER1
 10
6.2716096332255802
 20
53.1206340350152288
 30
0.0
 42
-0.3419987131196704
  0
VERTEX
  5
1061
  8
LAYER1
 10
6.5773407605524019
 20
53.1039463813913528
 30
0.0
  0
VERTEX
  5
1062
  8
LAYER1
 10
8.4119217306186727
 20
51.5155946152470392
 30
0.0
 42
-0.2176444636758936
  0
VERTEX
  5
1063
  8
LAYER1
 10
8.4982843328598392
 20
51.3265898479666589
 30
0.0
  0
VERTEX
  5
1064
  8
LAYER1
 10
8.4982843328598392
 20
50.9808232129286125
 30
0.0
 42
-0.4142135623730688
  0
VERTEX
  5
1065
  8
LAYER1
 10
8.2482843328598392
 20
50.7308232129286125
 30
0.0
  0
VERTEX
  5
1066
  8
LAYER1
 10
5.4982843328598392
 20
50.730823212928577
 30
0.0
  0
VERTEX
  5
1067
  8
LAYER1
 10
5.4982843328598667
 20
50.020823212928569
 30
0.0
  0
VERTEX
  5
1068
  8
LAYER1
 10
8.2482843328598392
 20
50.0208232129285975
 30
0.0
 42
-0.4142135623730884
  0
VERTEX
  5
1069
  8
LAYER1
 10
8.4982843328598392
 20
49.7708232129285975
 30
0.0
  0
VERTEX
  5
106A
  8
LAYER1
 10
8.4982843328598676
 20
49.5262609910210401
 30
0.0
 42
-0.3714314081957297
  0
VERTEX
  5
106B
  8
LAYER1
 10
8.2852094458843055
 20
49.2790029557054083
 30
0.0
  0
VERTEX
  5
106C
  8
LAYER1
 10
3.2082843328599031
 20
48.5208232129285975
 30
0.0
  0
VERTEX
  5
106D
  8
LAYER1
 10
2.0382843328599161
 20
48.5208232129285975
 30
0.0
 42
-0.4142135623731147
  0
VERTEX
  5
106E
  8
LAYER1
 10
1.7882843328599161
 20
48.7708232129285975
 30
0.0
  0
VERTEX
  5
106F
  8
LAYER1
 10
1.7882843328599161
 20
48.980823212928577
 30
0.0
 42
-0.4142135623730951
  0
VERTEX
  5
1070
  8
LAYER1
 10
2.0382843328598881
 20
49.230823212928577
 30
0.0
  0
VERTEX
  5
1071
  8
LAYER1
 10
2.498284332859896
 20
49.2308232129286125
 30
0.0
  0
VERTEX
  5
1072
  8
LAYER1
 10
2.4982843328598099
 20
55.3108232129285966
 30
0.0
  0
SEQEND
  5
1073
  8
LAYER1
  0
CIRCLE
  5
679
  8
LAYER1
 10
62.9755225127001879
 20
100.3522534209913033
 30
0.0
 40
0.3750000000000005
  0
POLYLINE
  5
67A
  8
LAYER1
 66
     1
 10
0.0
 20
0.0
 30
0.0
 70
     1
  0
VERTEX
  5
1074
  8
LAYER1
 10
61.0155225127001586
 20
103.4288093785915947
 30
0.0
 42
-0.4142135623730818
  0
VERTEX
  5
1075
  8
LAYER1
 10
60.7655225127001515
 20
103.6788093785915947
 30
0.0
  0
VERTEX
  5
1076
  8
LAYER1
 10
60.7655225127001515
 20
103.8888093785916027
 30
0.0
 42
-0.4142135623730951
  0
VERTEX
  5
1077
  8
LAYER1
 10
61.0155225127002083
 20
104.1388093785916027
 30
0.0
  0
VERTEX
  5
1078
  8
LAYER1
 10
62.0923359405060822
 20
104.1388093785917022
 30
0.0
 42
-0.1803135956883714
  0
VERTEX
  5
1079
  8
LAYER1
 10
62.255973338264937
 20
104.0778141458719972
 30
0.0
  0
VERTEX
  5
107A
  8
LAYER1
 10
64.0905543083312068
 20
102.4894623797276978
 30
0.0
 42
-0.3419987131196397
  0
VERTEX
  5
107B
  8
LAYER1
 10
64.150829339019765
 20
102.1892675751831945
 30
0.0
 42
0.7745966692414858
  0
VERTEX
  5
107C
  8
LAYER1
 10
65.248847813065936
 20
101.238620200678298
 30
0.0
 42
-0.3419987131196704
  0
VERTEX
  5
107D
  8
LAYER1
 10
65.554578940392787
 20
101.2219325470543936
 30
0.0
  0
VERTEX
  5
107E
  8
LAYER1
 10
67.3891599104590568
 20
99.6335807809100942
 30
0.0
 42
-0.2176444636758936
  0
VERTEX
  5
107F
  8
LAYER1
 10
67.475522512700195
 20
99.4445760136297139
 30
0.0
  0
VERTEX
  5
1080
  8
LAYER1
 10
67.475522512700195
 20
99.0988093785916675
 30
0.0
 42
-0.4142135623730688
  0
VERTEX
  5
1081
  8
LAYER1
 10
67.225522512700195
 20
98.8488093785916675
 30
0.0
  0
VERTEX
  5
1082
  8
LAYER1
 10
64.475522512700195
 20
98.8488093785916533
 30
0.0
  0
VERTEX
  5
1083
  8
LAYER1
 10
64.4755225127002518
 20
98.1388093785916311
 30
0.0
  0
VERTEX
  5
1084
  8
LAYER1
 10
67.225522512700195
 20
98.1388093785916737
 30
0.0
 42
-0.4142135623730884
  0
VERTEX
  5
1085
  8
LAYER1
 10
67.475522512700195
 20
97.8888093785916737
 30
0.0
  0
VERTEX
  5
1086
  8
LAYER1
 10
67.4755225127002518
 20
97.6442471566841164
 30
0.0
 42
-0.3714314081957297
  0
VERTEX
  5
1087
  8
LAYER1
 10
67.2624476257246897
 20
97.3969891213684633
 30
0.0
  0
VERTEX
  5
1088
  8
LAYER1
 10
62.1855225127002882
 20
96.6388093785916737
 30
0.0
  0
VERTEX
  5
1089
  8
LAYER1
 10
61.0155225127002723
 20
96.6388093785916737
 30
0.0
 42
-0.4142135623731147
  0
VERTEX
  5
108A
  8
LAYER1
 10
60.7655225127002723
 20
96.8888093785916737
 30
0.0
  0
VERTEX
  5
108B
  8
LAYER1
 10
60.7655225127002723
 20
97.0988093785916391
 30
0.0
 42
-0.4142135623730951
  0
VERTEX
  5
108C
  8
LAYER1
 10
61.0155225127002723
 20
97.3488093785916391
 30
0.0
  0
VERTEX
  5
108D
  8
LAYER1
 10
61.4755225127002518
 20
97.3488093785916533
 30
0.0
  0
VERTEX
  5
108E
  8
LAYER1
 10
61.4755225127002021
 20
103.4288093785915947
 30
0.0
  0
SEQEND
  5
108F
  8
LAYER1
  0
POLYLINE
  5
7B0
  8
LAYER1
 66
     1
 10
0.0
 20
0.0
 30
0.0
 70
     1
  0
VERTEX
  5
10BB
  8
LAYER1
 10
14.9535273838278897
 20
195.7929344337279929
 30
0.0
 42
-0.4142135623731
  0
VERTEX
  5
10BC
  8
LAYER1
 10
14.7035273838278897
 20
195.5429344337279929
 30
0.0
  0
VERTEX
  5
10BD
  8
LAYER1
 10
13.9535273838278293
 20
195.5429344337279929
 30
0.0
  0
VERTEX
  5
10BE
  8
LAYER1
 10
13.9535273838278293
 20
194.8329344337278997
 30
0.0
  0
VERTEX
  5
10BF
  8
LAYER1
 10
14.7035273838278293
 20
194.8329344337278997
 30
0.0
 42
-0.4142135623731033
  0
VERTEX
  5
10C0
  8
LAYER1
 10
14.9535273838278293
 20
194.5829344337278997
 30
0.0
  0
VERTEX
  5
10C1
  8
LAYER1
 10
14.9535273838278897
 20
193.5842921056323007
 30
0.0
 42
-0.4142135623730934
  0
VERTEX
  5
10C2
  8
LAYER1
 10
14.7035273838278897
 20
193.3342921056323007
 30
0.0
  0
VERTEX
  5
10C3
  8
LAYER1
 10
12.2035273838278897
 20
193.3342921056323007
 30
0.0
 42
-0.4142135623730934
  0
VERTEX
  5
10C4
  8
LAYER1
 10
11.9535273838278897
 20
193.5842921056323007
 30
0.0
  0
VERTEX
  5
10C5
  8
LAYER1
 10
11.9535273838278897
 20
210.9918997775367018
 30
0.0
 42
-0.4142135623730934
  0
VERTEX
  5
10C6
  8
LAYER1
 10
12.2035273838278897
 20
211.2418997775367018
 30
0.0
  0
VERTEX
  5
10C7
  8
LAYER1
 10
14.7035273838278897
 20
211.2418997775367018
 30
0.0
 42
-0.4142135623730934
  0
VERTEX
  5
10C8
  8
LAYER1
 10
14.9535273838278897
 20
210.9918997775367018
 30
0.0
  0
VERTEX
  5
10C9
  8
LAYER1
 10
14.9535273838278897
 20
209.9918997775367018
 30
0.0
 42
-0.4142135623730934
  0
VERTEX
  5
10CA
  8
LAYER1
 10
14.7035273838278897
 20
209.7418997775367018
 30
0.0
  0
VERTEX
  5
10CB
  8
LAYER1
 10
13.9535273838278897
 20
209.7418997775367018
 30
0.0
  0
VERTEX
  5
10CC
  8
LAYER1
 10
13.9535273838278897
 20
209.0318997775366938
 30
0.0
  0
VERTEX
  5
10CD
  8
LAYER1
 10
14.7035273838278897
 20
209.0318997775366938
 30
0.0
 42
-0.4142135623731033
  0
VERTEX
  5
10CE
  8
LAYER1
 10
14.9535273838278897
 20
208.7818997775366938
 30
0.0
  0
SEQEND
  5
10CF
  8
LAYER1
  0
POLYLINE
  5
7B6
  8
LAYER1
 66
     1
 10
0.0
 20
0.0
 30
0.0
 70
     1
  0
VERTEX
  5
10E5
  8
LAYER1
 10
20.1459856568380395
 20
211.4132574494410903
 30
0.0
 42
-0.4142135623730869
  0
VERTEX
  5
10E6
  8
LAYER1
 10
19.8959856568380289
 20
211.1632574494410903
 30
0.0
  0
VERTEX
  5
10E7
  8
LAYER1
 10
18.6459856568380289
 20
211.1632574494410903
 30
0.0
  0
VERTEX
  5
10E8
  8
LAYER1
 10
18.6459856568380289
 20
210.4532574494411108
 30
0.0
  0
VERTEX
  5
10E9
  8
LAYER1
 10
19.8959856568380289
 20
210.4532574494411108
 30
0.0
 42
-0.4142135623730591
  0
VERTEX
  5
10EA
  8
LAYER1
 10
20.1459856568380395
 20
210.2032574494411108
 30
0.0
  0
VERTEX
  5
10EB
  8
LAYER1
 10
20.1459856568379791
 20
195.7942921056323087
 30
0.0
 42
-0.4142135623730967
  0
VERTEX
  5
10EC
  8
LAYER1
 10
19.8959856568379791
 20
195.5442921056323939
 30
0.0
  0
VERTEX
  5
10ED
  8
LAYER1
 10
18.6459856568379791
 20
195.5442921056323939
 30
0.0
  0
VERTEX
  5
10EE
  8
LAYER1
 10
18.6459856568379791
 20
194.834292105632386
 30
0.0
  0
VERTEX
  5
10EF
  8
LAYER1
 10
19.8959856568379791
 20
194.834292105632386
 30
0.0
 42
-0.4142135623730967
  0
VERTEX
  5
10F0
  8
LAYER1
 10
20.1459856568379791
 20
194.584292105632386
 30
0.0
  0
VERTEX
  5
10F1
  8
LAYER1
 10
20.1459856568379791
 20
193.584292105632386
 30
0.0
 42
-0.4142135623731033
  0
VERTEX
  5
10F2
  8
LAYER1
 10
19.8959856568379791
 20
193.334292105632386
 30
0.0
  0
VERTEX
  5
10F3
  8
LAYER1
 10
17.3959856568379791
 20
193.334292105632386
 30
0.0
 42
-0.4142135623731049
  0
VERTEX
  5
10F4
  8
LAYER1
 10
17.1459856568379791
 20
193.584292105632386
 30
0.0
  0
VERTEX
  5
10F5
  8
LAYER1
 10
17.1459856568380289
 20
212.4132574494410903
 30
0.0
 42
-0.4142135623730884
  0
VERTEX
  5
10F6
  8
LAYER1
 10
17.3959856568380289
 20
212.6632574494410903
 30
0.0
  0
VERTEX
  5
10F7
  8
LAYER1
 10
19.8959856568380289
 20
212.6632574494410903
 30
0.0
 42
-0.4142135623730836
  0
VERTEX
  5
10F8
  8
LAYER1
 10
20.1459856568380395
 20
212.4132574494410903
 30
0.0
  0
SEQEND
  5
10F9
  8
LAYER1
  0
POLYLINE
  5
7BC
  8
LAYER1
 66
     1
 10
0.0
 20
0.0
 30
0.0
 70
     1
  0
VERTEX
  5
1115
  8
LAYER1
 10
51.9506323111909865
 20
193.334292105632386
 30
0.0
 42
-0.3394542588633777
  0
VERTEX
  5
1116
  8
LAYER1
 10
51.7091508546187129
 20
193.5195873443568075
 30
0.0
  0
VERTEX
  5
1117
  8
LAYER1
 10
51.2411624739911815
 20
195.2661437582104895
 30
0.0
  0
VERTEX
  5
1118
  8
LAYER1
 10
50.5553551373259324
 20
195.0823822361876978
 30
0.0
  0
VERTEX
  5
1119
  8
LAYER1
 10
50.9394295894670392
 20
193.6489968669079929
 30
0.0
 42
-0.4931454260313055
  0
VERTEX
  5
111A
  8
LAYER1
 10
50.6979481328947585
 20
193.334292105632386
 30
0.0
  0
VERTEX
  5
111B
  8
LAYER1
 10
41.0802324168850816
 20
193.334292105632386
 30
0.0
 42
-0.3394542588633838
  0
VERTEX
  5
111C
  8
LAYER1
 10
40.8387509603128365
 20
193.5195873443566938
 30
0.0
  0
VERTEX
  5
111D
  8
LAYER1
 10
40.3707625796852767
 20
195.2661437582104895
 30
0.0
  0
VERTEX
  5
111E
  8
LAYER1
 10
39.6849552430200632
 20
195.0823822361876978
 30
0.0
  0
VERTEX
  5
111F
  8
LAYER1
 10
40.0690296951611273
 20
193.6489968669079929
 30
0.0
 42
-0.4931454260313055
  0
VERTEX
  5
1120
  8
LAYER1
 10
39.8275482385888608
 20
193.334292105632386
 30
0.0
  0
VERTEX
  5
1121
  8
LAYER1
 10
30.2098325225791804
 20
193.334292105632386
 30
0.0
 42
-0.3394542588633993
  0
VERTEX
  5
1122
  8
LAYER1
 10
29.9683510660068997
 20
193.5195873443566938
 30
0.0
  0
VERTEX
  5
1123
  8
LAYER1
 10
29.5003626853794003
 20
195.2661437582104895
 30
0.0
  0
VERTEX
  5
1124
  8
LAYER1
 10
28.8145553487141797
 20
195.0823822361876978
 30
0.0
  0
VERTEX
  5
1125
  8
LAYER1
 10
29.1986298008552616
 20
193.6489968669079929
 30
0.0
 42
-0.4931454260312883
  0
VERTEX
  5
1126
  8
LAYER1
 10
28.9571483442829916
 20
193.334292105632386
 30
0.0
  0
VERTEX
  5
1127
  8
LAYER1
 10
24.1160029306982402
 20
193.334292105632386
 30
0.0
 42
-0.3394542588633842
  0
VERTEX
  5
1128
  8
LAYER1
 10
22.667114191264659
 20
194.446063537978489
 30
0.0
  0
VERTEX
  5
1129
  8
LAYER1
 10
21.7005248251036917
 20
198.0534241625472021
 30
0.0
 42
-0.9954351525624735
  0
VERTEX
  5
112A
  8
LAYER1
 10
24.264652736972721
 20
198.7530695880128064
 30
0.0
 42
-0.3750946856647985
  0
VERTEX
  5
112B
  8
LAYER1
 10
24.1136800383033005
 20
198.4609460017337028
 30
0.0
 42
0.8276543623402481
  0
VERTEX
  5
112C
  8
LAYER1
 10
24.5727802694078683
 20
196.0483080624767922
 30
0.0
  0
VERTEX
  5
112D
  8
LAYER1
 10
60.1256671417831683
 20
196.0483080624767922
 30
0.0
 42
-1.0
  0
VERTEX
  5
112E
  8
LAYER1
 10
60.1256671417831896
 20
193.334292105632386
 30
0.0
  0
SEQEND
  5
112F
  8
LAYER1
  0
POLYLINE
  5
7BD
  8
LAYER1
 66
     1
 10
0.0
 20
0.0
 30
0.0
 70
     1
  0
VERTEX
  5
1130
  8
LAYER1
 10
11.3683489957170103
 20
195.7929344337279929
 30
0.0
 42
-0.4142135623731
  0
VERTEX
  5
1131
  8
LAYER1
 10
11.1183489957170103
 20
195.5429344337279929
 30
0.0
  0
VERTEX
  5
1132
  8
LAYER1
 10
10.3683489957169606
 20
195.5429344337279929
 30
0.0
  0
VERTEX
  5
1133
  8
LAYER1
 10
10.3683489957169606
 20
194.8329344337278997
 30
0.0
  0
VERTEX
  5
1134
  8
LAYER1
 10
11.1183489957169606
 20
194.8329344337278997
 30
0.0
 42
-0.4142135623731033
  0
VERTEX
  5
1135
  8
LAYER1
 10
11.3683489957169499
 20
194.5829344337278997
 30
0.0
  0
VERTEX
  5
1136
  8
LAYER1
 10
11.3683489957170103
 20
193.5842921056323007
 30
0.0
 42
-0.4142135623730934
  0
VERTEX
  5
1137
  8
LAYER1
 10
11.1183489957170103
 20
193.3342921056323007
 30
0.0
  0
VERTEX
  5
1138
  8
LAYER1
 10
8.6183489957170138
 20
193.3342921056323007
 30
0.0
 42
-0.4142135623730934
  0
VERTEX
  5
1139
  8
LAYER1
 10
8.3683489957170138
 20
193.5842921056323007
 30
0.0
  0
VERTEX
  5
113A
  8
LAYER1
 10
8.3683489957170138
 20
210.9918997775367018
 30
0.0
 42
-0.4142135623730934
  0
VERTEX
  5
113B
  8
LAYER1
 10
8.6183489957170138
 20
211.2418997775367018
 30
0.0
  0
VERTEX
  5
113C
  8
LAYER1
 10
11.1183489957170103
 20
211.2418997775367018
 30
0.0
 42
-0.4142135623730934
  0
VERTEX
  5
113D
  8
LAYER1
 10
11.3683489957170103
 20
210.9918997775367018
 30
0.0
  0
VERTEX
  5
113E
  8
LAYER1
 10
11.3683489957170103
 20
209.9918997775367018
 30
0.0
 42
-0.4142135623730934
  0
VERTEX
  5
113F
  8
LAYER1
 10
11.1183489957170103
 20
209.7418997775367018
 30
0.0
  0
VERTEX
  5
1140
  8
LAYER1
 10
10.3683489957170103
 20
209.7418997775367018
 30
0.0
  0
VERTEX
  5
1141
  8
LAYER1
 10
10.3683489957170103
 20
209.0318997775366938
 30
0.0
  0
VERTEX
  5
1142
  8
LAYER1
 10
11.1183489957170103
 20
209.0318997775366938
 30
0.0
 42
-0.4142135623731033
  0
VERTEX
  5
1143
  8
LAYER1
 10
11.3683489957170103
 20
208.7818997775366938
 30
0.0
  0
SEQEND
  5
1144
  8
LAYER1
  0
POLYLINE
  5
7BE
  8
LAYER1
 66
     1
 10
0.0
 20
0.0
 30
0.0
 70
     1
  0
VERTEX
  5
1145
  8
LAYER1
 10
7.8407708546132824
 20
195.7929344337279929
 30
0.0
 42
-0.4142135623731
  0
VERTEX
  5
1146
  8
LAYER1
 10
7.5907708546132824
 20
195.5429344337279929
 30
0.0
  0
VERTEX
  5
1147
  8
LAYER1
 10
6.8407708546132246
 20
195.5429344337279929
 30
0.0
  0
VERTEX
  5
1148
  8
LAYER1
 10
6.8407708546132246
 20
194.8329344337278997
 30
0.0
  0
VERTEX
  5
1149
  8
LAYER1
 10
7.5907708546132246
 20
194.8329344337278997
 30
0.0
 42
-0.4142135623731033
  0
VERTEX
  5
114A
  8
LAYER1
 10
7.8407708546132246
 20
194.5829344337278997
 30
0.0
  0
VERTEX
  5
114B
  8
LAYER1
 10
7.8407708546132824
 20
193.5842921056323007
 30
0.0
 42
-0.4142135623730934
  0
VERTEX
  5
114C
  8
LAYER1
 10
7.5907708546132824
 20
193.3342921056323007
 30
0.0
  0
VERTEX
  5
114D
  8
LAYER1
 10
5.0907708546132531
 20
193.3342921056323007
 30
0.0
 42
-0.4142135623730934
  0
VERTEX
  5
114E
  8
LAYER1
 10
4.8407708546132531
 20
193.5842921056323007
 30
0.0
  0
VERTEX
  5
114F
  8
LAYER1
 10
4.8407708546132531
 20
210.9918997775367018
 30
0.0
 42
-0.4142135623730934
  0
VERTEX
  5
1150
  8
LAYER1
 10
5.0907708546132531
 20
211.2418997775367018
 30
0.0
  0
VERTEX
  5
1151
  8
LAYER1
 10
7.5907708546132824
 20
211.2418997775367018
 30
0.0
 42
-0.4142135623730934
  0
VERTEX
  5
1152
  8
LAYER1
 10
7.8407708546132824
 20
210.9918997775367018
 30
0.0
  0
VERTEX
  5
1153
  8
LAYER1
 10
7.8407708546132824
 20
209.9918997775367018
 30
0.0
 42
-0.4142135623730934
  0
VERTEX
  5
1154
  8
LAYER1
 10
7.5907708546132824
 20
209.7418997775367018
 30
0.0
  0
VERTEX
  5
1155
  8
LAYER1
 10
6.8407708546132824
 20
209.7418997775367018
 30
0.0
  0
VERTEX
  5
1156
  8
LAYER1
 10
6.8407708546132824
 20
209.0318997775366938
 30
0.0
  0
VERTEX
  5
1157
  8
LAYER1
 10
7.5907708546132824
 20
209.0318997775366938
 30
0.0
 42
-0.4142135623731033
  0
VERTEX
  5
1158
  8
LAYER1
 10
7.8407708546132824
 20
208.7818997775366938
 30
0.0
  0
SEQEND
  5
1159
  8
LAYER1
  0
POLYLINE
  5
7BF
  8
LAYER1
 66
     1
 10
0.0
 20
0.0
 30
0.0
 70
     1
  0
VERTEX
  5
115A
  8
LAYER1
 10
4.1866464787343034
 20
195.7929344337279929
 30
0.0
 42
-0.4142135623731
  0
VERTEX
  5
115B
  8
LAYER1
 10
3.936646478734303
 20
195.5429344337279929
 30
0.0
  0
VERTEX
  5
115C
  8
LAYER1
 10
3.1866464787342741
 20
195.5429344337279929
 30
0.0
  0
VERTEX
  5
115D
  8
LAYER1
 10
3.1866464787342741
 20
194.8329344337278997
 30
0.0
  0
VERTEX
  5
115E
  8
LAYER1
 10
3.9366464787342741
 20
194.8329344337278997
 30
0.0
 42
-0.4142135623731033
  0
VERTEX
  5
115F
  8
LAYER1
 10
4.1866464787342741
 20
194.5829344337278997
 30
0.0
  0
VERTEX
  5
1160
  8
LAYER1
 10
4.1866464787343034
 20
193.5842921056323007
 30
0.0
 42
-0.4142135623730934
  0
VERTEX
  5
1161
  8
LAYER1
 10
3.936646478734303
 20
193.3342921056323007
 30
0.0
  0
VERTEX
  5
1162
  8
LAYER1
 10
1.436646478734303
 20
193.3342921056323007
 30
0.0
 42
-0.4142135623730934
  0
VERTEX
  5
1163
  8
LAYER1
 10
1.186646478734303
 20
193.5842921056323007
 30
0.0
  0
VERTEX
  5
1164
  8
LAYER1
 10
1.186646478734303
 20
210.9918997775367018
 30
0.0
 42
-0.4142135623730934
  0
VERTEX
  5
1165
  8
LAYER1
 10
1.436646478734303
 20
211.2418997775367018
 30
0.0
  0
VERTEX
  5
1166
  8
LAYER1
 10
3.936646478734303
 20
211.2418997775367018
 30
0.0
 42
-0.4142135623730934
  0
VERTEX
  5
1167
  8
LAYER1
 10
4.1866464787343034
 20
210.9918997775367018
 30
0.0
  0
VERTEX
  5
1168
  8
LAYER1
 10
4.1866464787343034
 20
209.9918997775367018
 30
0.0
 42
-0.4142135623730934
  0
VERTEX
  5
1169
  8
LAYER1
 10
3.936646478734303
 20
209.7418997775367018
 30
0.0
  0
VERTEX
  5
116A
  8
LAYER1
 10
3.186646478734303
 20
209.7418997775367018
 30
0.0
  0
VERTEX
  5
116B
  8
LAYER1
 10
3.186646478734303
 20
209.0318997775366938
 30
0.0
  0
VERTEX
  5
116C
  8
LAYER1
 10
3.936646478734303
 20
209.0318997775366938
 30
0.0
 42
-0.4142135623731033
  0
VERTEX
  5
116D
  8
LAYER1
 10
4.1866464787343034
 20
208.7818997775366938
 30
0.0
  0
SEQEND
  5
116E
  8
LAYER1
  0
POLYLINE
  5
7C6
  8
LAYER1
 66
     1
 10
0.0
 20
0.0
 30
0.0
 70
     1
  0
VERTEX
  5
1172
  8
LAYER1
 10
51.9506323111909865
 20
200.1541761698053108
 30
0.0
 42
-0.3394542588633777
  0
VERTEX
  5
1173
  8
LAYER1
 10
51.7091508546187129
 20
200.3394714085297039
 30
0.0
  0
VERTEX
  5
1174
  8
LAYER1
 10
51.2411624739911815
 20
202.0860278223833859
 30
0.0
  0
VERTEX
  5
1175
  8
LAYER1
 10
50.5553551373259324
 20
201.9022663003605942
 30
0.0
  0
VERTEX
  5
1176
  8
LAYER1
 10
50.9394295894670392
 20
200.4688809310810029
 30
0.0
 42
-0.4931454260313055
  0
VERTEX
  5
1177
  8
LAYER1
 10
50.6979481328947585
 20
200.1541761698053108
 30
0.0
  0
VERTEX
  5
1178
  8
LAYER1
 10
41.0802324168850816
 20
200.1541761698053108
 30
0.0
 42
-0.3394542588633838
  0
VERTEX
  5
1179
  8
LAYER1
 10
40.8387509603128365
 20
200.3394714085295902
 30
0.0
  0
VERTEX
  5
117A
  8
LAYER1
 10
40.3707625796852767
 20
202.0860278223833859
 30
0.0
  0
VERTEX
  5
117B
  8
LAYER1
 10
39.6849552430200632
 20
201.9022663003605942
 30
0.0
  0
VERTEX
  5
117C
  8
LAYER1
 10
40.0690296951611273
 20
200.4688809310808892
 30
0.0
 42
-0.4931454260313055
  0
VERTEX
  5
117D
  8
LAYER1
 10
39.8275482385888608
 20
200.1541761698053108
 30
0.0
  0
VERTEX
  5
117E
  8
LAYER1
 10
30.2098325225791804
 20
200.1541761698053108
 30
0.0
 42
-0.3394542588633993
  0
VERTEX
  5
117F
  8
LAYER1
 10
29.9683510660068997
 20
200.3394714085297039
 30
0.0
  0
VERTEX
  5
1180
  8
LAYER1
 10
29.5003626853794003
 20
202.0860278223833859
 30
0.0
  0
VERTEX
  5
1181
  8
LAYER1
 10
28.8145553487141797
 20
201.9022663003605942
 30
0.0
  0
VERTEX
  5
1182
  8
LAYER1
 10
29.1986298008552616
 20
200.4688809310808892
 30
0.0
 42
-0.4931454260312883
  0
VERTEX
  5
1183
  8
LAYER1
 10
28.9571483442829916
 20
200.1541761698053108
 30
0.0
  0
VERTEX
  5
1184
  8
LAYER1
 10
24.1160029306982402
 20
200.1541761698053108
 30
0.0
 42
-0.3394542588633842
  0
VERTEX
  5
1185
  8
LAYER1
 10
22.667114191264659
 20
201.265947602151499
 30
0.0
  0
VERTEX
  5
1186
  8
LAYER1
 10
21.7005248251036917
 20
204.8733082267202121
 30
0.0
 42
-0.9954351525624735
  0
VERTEX
  5
1187
  8
LAYER1
 10
24.264652736972721
 20
205.5729536521857881
 30
0.0
 42
-0.3750946856647985
  0
VERTEX
  5
1188
  8
LAYER1
 10
24.1136800383033005
 20
205.2808300659067129
 30
0.0
 42
0.8276543623402481
  0
VERTEX
  5
1189
  8
LAYER1
 10
24.5727802694078683
 20
202.8681921266496886
 30
0.0
  0
VERTEX
  5
118A
  8
LAYER1
 10
60.1256671417831683
 20
202.8681921266496886
 30
0.0
 42
-1.0
  0
VERTEX
  5
118B
  8
LAYER1
 10
60.1256671417831896
 20
200.1541761698053108
 30
0.0
  0
SEQEND
  5
118C
  8
LAYER1
  0
POLYLINE
  5
7C7
  8
NOPLOT
 66
     1
 10
0.0
 20
0.0
 30
0.0
 70
     1
  0
VERTEX
  5
118D
  8
NOPLOT
 10
0.0000000000000853
 20
240.0
 30
0.0
  0
VERTEX
  5
118E
  8
NOPLOT
 10
0.0000000000000853
 20
191.9999999999998863
 30
0.0
  0
VERTEX
  5
118F
  8
NOPLOT
 10
96.0000000000000568
 20
191.9999999999998863
 30
0.0
  0
VERTEX
  5
1190
  8
NOPLOT
 10
96.0000000000001137
 20
239.9999999999998863
 30
0.0
  0
SEQEND
  5
1191
  8
NOPLOT
  0
VIEWPORT
  5
736
 67
     1
  8
0
 10
62.364919678070649
 20
28.8444692273965906
 30
0.0
 40
224.5776427932179899
 41
132.655313672157888
 68
     1
 69
     1
1001
ACAD
1000
MVIEW
1002
{
1070
    16
1010
0.0
1020
0.0
1030
0.0
1010
0.0
1020
0.0
1030
1.0
1040
0.0
1040
132.655313672157888
1040
62.364919678070649
1040
28.8444692273965906
1040
50.0
1040
0.0
1040
0.0
1070
     0
1070
  1000
1070
     1
1070
     1
1070
     0
1070
     0
1070
     0
1070
     0
1040
0.0
1040
0.0
1040
0.0
1040
0.5
1040
0.5
1040
0.5
1040
0.5
1070
     0
1002
{
1002
}
1002
}
  0
VIEWPORT
  5
746
 67
     1
  8
0
 10
48.0
 20
24.0
 30
0.0
 40
94.864862962422535
 41
46.5408458322997021
 68
     2
 69
     2
1001
ACAD
1000
MVIEW
1002
{
1070
    16
1010
0.0
1020
0.0
1030
0.0
1010
0.0
1020
0.0
1030
1.0
1040
0.0
1040
46.540846377983442
1040
47.4324320373487822
1040
215.2704231889917139
1040
50.0
1040
0.0
1040
0.0
1070
     0
1070
  1000
1070
     1
1070
     3
1070
     0
1070
     1
1070
     0
1070
     0
1040
0.0
1040
0.0
1040
0.0
1040
0.5
1040
0.5
1040
0.5
1040
0.5
1070
     0
1002
{
1002
}
1002
}
  0
ENDSEC
  0
EOF
