ISO-10303-21;
HEADER;

/* File generated by Shapr3D Version 3.0 */

FILE_DESCRIPTION(('HOOPS Exchange Step'),'2;1');

FILE_NAME('/private/var/mobile/Containers/Data/Application/56E87BAB-2C04-4B12-A732-7D03E3107FEF/tmp/export/temp_export.step',
'2020-05-26T20:03:00+02:00',
('mobile'),
('Shapr3D Limited'),
'HOOPS Exchange 2018.1',
'Shapr3D',
'Authorized');

FILE_SCHEMA( ('AP203_CONFIGURATION_CONTROLLED_3D_DESIGN_OF_MECHANICAL_PARTS_AND_ASSEMBLIES_MIM_LF') );

ENDSEC;

DATA;
#3=(NAMED_UNIT(*)PLANE_ANGLE_UNIT()SI_UNIT($,.RADIAN.));
#4=PLANE_ANGLE_MEASURE_WITH_UNIT(PLANE_ANGLE_MEASURE(0.0174532925),#3);
#5=(CONVERSION_BASED_UNIT('DEGREE',#4)NAMED_UNIT(#6)PLANE_ANGLE_UNIT());
#6=DIMENSIONAL_EXPONENTS(0.,0.,0.,0.,0.,0.,0.);
#7=(NAMED_UNIT(*)SI_UNIT($,.STERADIAN.)SOLID_ANGLE_UNIT());
#8=(LENGTH_UNIT()NAMED_UNIT(*)SI_UNIT(.MILLI.,.METRE.));
#9=UNCERTAINTY_MEASURE_WITH_UNIT(LENGTH_MEASURE(1.000000E-05),#8,'DISTANCE_ACCURACY_VALUE','Maximum Tolerance applied to model');
#10=(GEOMETRIC_REPRESENTATION_CONTEXT(3)GLOBAL_UNCERTAINTY_ASSIGNED_CONTEXT((#9))GLOBAL_UNIT_ASSIGNED_CONTEXT((#8,#5,#7))REPRESENTATION_CONTEXT('','Body 09 (1)'));
#12=CARTESIAN_POINT('',(0.,0.,0.));
#13=DIRECTION('',(0.,0.,1.));
#14=DIRECTION('',(1.,0.,0.));
#15=AXIS2_PLACEMENT_3D('',#12,#13,#14);
#27=CARTESIAN_POINT('',(58.1130312,-35.345744,36.836436));
#28=DIRECTION('',(-1.,0.,0.));
#29=DIRECTION('',(0.,0.,1.));
#30=AXIS2_PLACEMENT_3D('',#27,#28,#29);
#31=PLANE('',#30);
#32=CARTESIAN_POINT('',(58.1130312,-17.2074464,36.93952112));
#33=VERTEX_POINT('',#32);
#34=CARTESIAN_POINT('',(58.1130312,-17.2074464,35.93952112));
#35=VERTEX_POINT('',#34);
#36=CARTESIAN_POINT('',(58.1130312,-17.2074464,36.93952112));
#37=DIRECTION('',(-0.,-0.,-1.));
#38=VECTOR('',#37,1.);
#39=LINE('',#36,#38);
#40=EDGE_CURVE('',#33,#35,#39,.T.);
#41=ORIENTED_EDGE('',*,*,#40,.T.);
#42=CARTESIAN_POINT('',(58.1130312,37.2074464,35.93952112));
#43=VERTEX_POINT('',#42);
#44=CARTESIAN_POINT('',(58.1130312,-17.2074464,35.93952112));
#45=DIRECTION('',(0.,1.,0.));
#46=VECTOR('',#45,54.4148928);
#47=LINE('',#44,#46);
#48=EDGE_CURVE('',#35,#43,#47,.T.);
#49=ORIENTED_EDGE('',*,*,#48,.T.);
#50=CARTESIAN_POINT('',(58.1130312,37.2074464,36.93952112));
#51=VERTEX_POINT('',#50);
#52=CARTESIAN_POINT('',(58.1130312,37.2074464,35.93952112));
#53=DIRECTION('',(0.,0.,1.));
#54=VECTOR('',#53,1.);
#55=LINE('',#52,#54);
#56=EDGE_CURVE('',#43,#51,#55,.T.);
#57=ORIENTED_EDGE('',*,*,#56,.T.);
#58=CARTESIAN_POINT('',(58.1130312,-17.2074464,36.93952112));
#59=DIRECTION('',(0.,1.,0.));
#60=VECTOR('',#59,54.4148928);
#61=LINE('',#58,#60);
#62=EDGE_CURVE('',#33,#51,#61,.T.);
#63=ORIENTED_EDGE('',*,*,#62,.F.);
#64=EDGE_LOOP('',(#41,#49,#57,#63));
#65=FACE_BOUND('',#64,.T.);
#66=ADVANCED_FACE('',(#65),#31,.F.);
#67=CARTESIAN_POINT('',(39.9747336,37.2074464,36.836436));
#68=DIRECTION('',(0.,0.,1.));
#69=DIRECTION('',(1.,0.,-0.));
#70=AXIS2_PLACEMENT_3D('',#67,#68,#69);
#71=CYLINDRICAL_SURFACE('',#70,18.1382976);
#72=CARTESIAN_POINT('',(39.9747336,55.345744,35.93952112));
#73=VERTEX_POINT('',#72);
#74=CARTESIAN_POINT('',(39.9747336,37.2074464,35.93952112));
#75=DIRECTION('',(-0.,-0.,-1.));
#76=DIRECTION('',(1.,0.,-0.));
#77=AXIS2_PLACEMENT_3D('',#74,#75,#76);
#78=CIRCLE('',#77,18.1382976);
#79=EDGE_CURVE('',#73,#43,#78,.T.);
#80=ORIENTED_EDGE('',*,*,#79,.F.);
#81=CARTESIAN_POINT('',(39.9747336,55.345744,36.93952112));
#82=VERTEX_POINT('',#81);
#83=CARTESIAN_POINT('',(39.9747336,55.345744,36.93952112));
#84=DIRECTION('',(-0.,-0.,-1.));
#85=VECTOR('',#84,1.);
#86=LINE('',#83,#85);
#87=EDGE_CURVE('',#82,#73,#86,.T.);
#88=ORIENTED_EDGE('',*,*,#87,.F.);
#89=CARTESIAN_POINT('',(39.9747336,37.2074464,36.93952112));
#90=DIRECTION('',(0.,0.,1.));
#91=DIRECTION('',(1.,0.,-0.));
#92=AXIS2_PLACEMENT_3D('',#89,#90,#91);
#93=CIRCLE('',#92,18.1382976);
#94=EDGE_CURVE('',#51,#82,#93,.T.);
#95=ORIENTED_EDGE('',*,*,#94,.F.);
#96=ORIENTED_EDGE('',*,*,#56,.F.);
#97=EDGE_LOOP('',(#80,#88,#95,#96));
#98=FACE_BOUND('',#97,.T.);
#99=ADVANCED_FACE('',(#98),#71,.T.);
#100=CARTESIAN_POINT('',(42.977421352,36.686470409,27.74335088));
#101=DIRECTION('',(0.,0.,1.));
#102=DIRECTION('',(1.,0.,-0.));
#103=AXIS2_PLACEMENT_3D('',#100,#101,#102);
#104=CYLINDRICAL_SURFACE('',#103,3.5);
#105=CARTESIAN_POINT('',(46.477421352,36.686470409,36.93952112));
#106=VERTEX_POINT('',#105);
#107=CARTESIAN_POINT('',(46.477421352,36.686470409,35.93952112));
#108=VERTEX_POINT('',#107);
#109=CARTESIAN_POINT('',(46.477421352,36.686470409,36.93952112));
#110=DIRECTION('',(-0.,-0.,-1.));
#111=VECTOR('',#110,1.);
#112=LINE('',#109,#111);
#113=EDGE_CURVE('',#106,#108,#112,.T.);
#114=ORIENTED_EDGE('',*,*,#113,.F.);
#115=CARTESIAN_POINT('',(42.977421352,36.686470409,36.93952112));
#116=DIRECTION('',(0.,0.,1.));
#117=DIRECTION('',(1.,0.,-0.));
#118=AXIS2_PLACEMENT_3D('',#115,#116,#117);
#119=CIRCLE('',#118,3.5);
#120=EDGE_CURVE('',#106,#106,#119,.T.);
#121=ORIENTED_EDGE('',*,*,#120,.T.);
#122=ORIENTED_EDGE('',*,*,#113,.T.);
#123=CARTESIAN_POINT('',(42.977421352,36.686470409,35.93952112));
#124=DIRECTION('',(-0.,-0.,-1.));
#125=DIRECTION('',(1.,0.,-0.));
#126=AXIS2_PLACEMENT_3D('',#123,#124,#125);
#127=CIRCLE('',#126,3.5);
#128=EDGE_CURVE('',#108,#108,#127,.T.);
#129=ORIENTED_EDGE('',*,*,#128,.T.);
#130=EDGE_LOOP('',(#114,#121,#122,#129));
#131=FACE_BOUND('',#130,.T.);
#132=ADVANCED_FACE('',(#131),#104,.F.);
#133=CARTESIAN_POINT('',(39.9747336,-17.2074464,36.836436));
#134=DIRECTION('',(0.,0.,1.));
#135=DIRECTION('',(1.,0.,-0.));
#136=AXIS2_PLACEMENT_3D('',#133,#134,#135);
#137=CYLINDRICAL_SURFACE('',#136,18.1382976);
#138=CARTESIAN_POINT('',(39.9747336,-35.345744,35.93952112));
#139=VERTEX_POINT('',#138);
#140=CARTESIAN_POINT('',(39.9747336,-17.2074464,35.93952112));
#141=DIRECTION('',(-0.,-0.,-1.));
#142=DIRECTION('',(1.,0.,-0.));
#143=AXIS2_PLACEMENT_3D('',#140,#141,#142);
#144=CIRCLE('',#143,18.1382976);
#145=EDGE_CURVE('',#35,#139,#144,.T.);
#146=ORIENTED_EDGE('',*,*,#145,.F.);
#147=ORIENTED_EDGE('',*,*,#40,.F.);
#148=CARTESIAN_POINT('',(39.9747336,-35.345744,36.93952112));
#149=VERTEX_POINT('',#148);
#150=CARTESIAN_POINT('',(39.9747336,-17.2074464,36.93952112));
#151=DIRECTION('',(0.,0.,1.));
#152=DIRECTION('',(1.,0.,-0.));
#153=AXIS2_PLACEMENT_3D('',#150,#151,#152);
#154=CIRCLE('',#153,18.1382976);
#155=EDGE_CURVE('',#149,#33,#154,.T.);
#156=ORIENTED_EDGE('',*,*,#155,.F.);
#157=CARTESIAN_POINT('',(39.9747336,-35.345744,35.93952112));
#158=DIRECTION('',(0.,0.,1.));
#159=VECTOR('',#158,1.);
#160=LINE('',#157,#159);
#161=EDGE_CURVE('',#139,#149,#160,.T.);
#162=ORIENTED_EDGE('',*,*,#161,.F.);
#163=EDGE_LOOP('',(#146,#147,#156,#162));
#164=FACE_BOUND('',#163,.T.);
#165=ADVANCED_FACE('',(#164),#137,.T.);
#166=CARTESIAN_POINT('',(62.6476056,55.345744,36.836436));
#167=DIRECTION('',(-0.,-1.,0.));
#168=DIRECTION('',(1.,-0.,0.));
#169=AXIS2_PLACEMENT_3D('',#166,#167,#168);
#170=PLANE('',#169);
#171=ORIENTED_EDGE('',*,*,#87,.T.);
#172=CARTESIAN_POINT('',(28.1130312,55.345744,35.93952112));
#173=VERTEX_POINT('',#172);
#174=CARTESIAN_POINT('',(39.9747336,55.345744,35.93952112));
#175=DIRECTION('',(-1.,0.,0.));
#176=VECTOR('',#175,11.8617024);
#177=LINE('',#174,#176);
#178=EDGE_CURVE('',#73,#173,#177,.T.);
#179=ORIENTED_EDGE('',*,*,#178,.T.);
#180=CARTESIAN_POINT('',(28.1130312,55.345744,36.93952112));
#181=VERTEX_POINT('',#180);
#182=CARTESIAN_POINT('',(28.1130312,55.345744,36.93952112));
#183=DIRECTION('',(0.,0.,-1.));
#184=VECTOR('',#183,1.);
#185=LINE('',#182,#184);
#186=EDGE_CURVE('',#181,#173,#185,.T.);
#187=ORIENTED_EDGE('',*,*,#186,.F.);
#188=CARTESIAN_POINT('',(39.9747336,55.345744,36.93952112));
#189=DIRECTION('',(-1.,0.,0.));
#190=VECTOR('',#189,11.8617024);
#191=LINE('',#188,#190);
#192=EDGE_CURVE('',#82,#181,#191,.T.);
#193=ORIENTED_EDGE('',*,*,#192,.F.);
#194=EDGE_LOOP('',(#171,#179,#187,#193));
#195=FACE_BOUND('',#194,.T.);
#196=ADVANCED_FACE('',(#195),#170,.F.);
#197=CARTESIAN_POINT('',(-37.1130312,-35.345744,36.93952112));
#198=DIRECTION('',(0.,0.,1.));
#199=DIRECTION('',(-1.,0.,0.));
#200=AXIS2_PLACEMENT_3D('',#197,#198,#199);
#201=PLANE('',#200);
#202=ORIENTED_EDGE('',*,*,#120,.F.);
#203=EDGE_LOOP('',(#202));
#204=FACE_BOUND('',#203,.T.);
#205=CARTESIAN_POINT('',(28.1130312,-35.345744,36.93952112));
#206=VERTEX_POINT('',#205);
#207=CARTESIAN_POINT('',(28.1130312,55.345744,36.93952112));
#208=DIRECTION('',(0.,-1.,0.));
#209=VECTOR('',#208,90.691488);
#210=LINE('',#207,#209);
#211=EDGE_CURVE('',#181,#206,#210,.T.);
#212=ORIENTED_EDGE('',*,*,#211,.T.);
#213=CARTESIAN_POINT('',(28.1130312,-35.345744,36.93952112));
#214=DIRECTION('',(1.,0.,-0.));
#215=VECTOR('',#214,11.8617024);
#216=LINE('',#213,#215);
#217=EDGE_CURVE('',#206,#149,#216,.T.);
#218=ORIENTED_EDGE('',*,*,#217,.T.);
#219=ORIENTED_EDGE('',*,*,#155,.T.);
#220=ORIENTED_EDGE('',*,*,#62,.T.);
#221=ORIENTED_EDGE('',*,*,#94,.T.);
#222=ORIENTED_EDGE('',*,*,#192,.T.);
#223=EDGE_LOOP('',(#212,#218,#219,#220,#221,#222));
#224=FACE_BOUND('',#223,.T.);
#225=ADVANCED_FACE('',(#204,#224),#201,.T.);
#226=CARTESIAN_POINT('',(28.1130312,55.345744,37.74335088));
#227=DIRECTION('',(1.,0.,0.));
#228=DIRECTION('',(0.,0.,-1.));
#229=AXIS2_PLACEMENT_3D('',#226,#227,#228);
#230=PLANE('',#229);
#231=CARTESIAN_POINT('',(28.1130312,-35.345744,35.93952112));
#232=VERTEX_POINT('',#231);
#233=CARTESIAN_POINT('',(28.1130312,55.345744,35.93952112));
#234=DIRECTION('',(0.,-1.,0.));
#235=VECTOR('',#234,90.691488);
#236=LINE('',#233,#235);
#237=EDGE_CURVE('',#173,#232,#236,.T.);
#238=ORIENTED_EDGE('',*,*,#237,.T.);
#239=CARTESIAN_POINT('',(28.1130312,-35.345744,36.93952112));
#240=DIRECTION('',(0.,0.,-1.));
#241=VECTOR('',#240,1.);
#242=LINE('',#239,#241);
#243=EDGE_CURVE('',#206,#232,#242,.T.);
#244=ORIENTED_EDGE('',*,*,#243,.F.);
#245=ORIENTED_EDGE('',*,*,#211,.F.);
#246=ORIENTED_EDGE('',*,*,#186,.T.);
#247=EDGE_LOOP('',(#238,#244,#245,#246));
#248=FACE_BOUND('',#247,.T.);
#249=ADVANCED_FACE('',(#248),#230,.F.);
#250=CARTESIAN_POINT('',(-37.1130312,-35.345744,36.836436));
#251=DIRECTION('',(0.,1.,0.));
#252=DIRECTION('',(0.,0.,1.));
#253=AXIS2_PLACEMENT_3D('',#250,#251,#252);
#254=PLANE('',#253);
#255=ORIENTED_EDGE('',*,*,#243,.T.);
#256=CARTESIAN_POINT('',(28.1130312,-35.345744,35.93952112));
#257=DIRECTION('',(1.,0.,-0.));
#258=VECTOR('',#257,11.8617024);
#259=LINE('',#256,#258);
#260=EDGE_CURVE('',#232,#139,#259,.T.);
#261=ORIENTED_EDGE('',*,*,#260,.T.);
#262=ORIENTED_EDGE('',*,*,#161,.T.);
#263=ORIENTED_EDGE('',*,*,#217,.F.);
#264=EDGE_LOOP('',(#255,#261,#262,#263));
#265=FACE_BOUND('',#264,.T.);
#266=ADVANCED_FACE('',(#265),#254,.F.);
#267=CARTESIAN_POINT('',(0.,0.,35.93952112));
#268=DIRECTION('',(0.,0.,1.));
#269=DIRECTION('',(1.,0.,0.));
#270=AXIS2_PLACEMENT_3D('',#267,#268,#269);
#271=PLANE('',#270);
#272=ORIENTED_EDGE('',*,*,#128,.F.);
#273=EDGE_LOOP('',(#272));
#274=FACE_BOUND('',#273,.T.);
#275=ORIENTED_EDGE('',*,*,#79,.T.);
#276=ORIENTED_EDGE('',*,*,#48,.F.);
#277=ORIENTED_EDGE('',*,*,#145,.T.);
#278=ORIENTED_EDGE('',*,*,#260,.F.);
#279=ORIENTED_EDGE('',*,*,#237,.F.);
#280=ORIENTED_EDGE('',*,*,#178,.F.);
#281=EDGE_LOOP('',(#275,#276,#277,#278,#279,#280));
#282=FACE_BOUND('',#281,.T.);
#283=ADVANCED_FACE('',(#274,#282),#271,.F.);
#284=CLOSED_SHELL('',(#66,#99,#132,#165,#196,#225,#249,#266,#283));
#285=MANIFOLD_SOLID_BREP('Body 09 (1)',#284);
#286=COLOUR_RGB('',0.454901963,0.294117659,0.050980393);
#287=FILL_AREA_STYLE_COLOUR('',#286);
#288=FILL_AREA_STYLE('',(#287));
#289=SURFACE_STYLE_FILL_AREA(#288);
#290=SURFACE_SIDE_STYLE('',(#289));
#291=SURFACE_STYLE_USAGE(.BOTH.,#290);
#292=PRESENTATION_STYLE_ASSIGNMENT((#291));
#26=STYLED_ITEM('',(#292),#285);
#16=SHAPE_REPRESENTATION('Body 09 (1)',(#15),#10);
#17=ADVANCED_BREP_SHAPE_REPRESENTATION('Body 09 (1)',(#285),#10);
#300=SHAPE_REPRESENTATION_RELATIONSHIP('','',#16,#17);
#301=APPLICATION_CONTEXT('configuration controlled 3D design of mechanical parts and assemblies');
#302=APPLICATION_PROTOCOL_DEFINITION('international standard','configuration_control_3d_design_ed2_mim',2004,#301);
#303=PRODUCT_CONTEXT('',#301,'mechanical');
#304=PRODUCT_DEFINITION_CONTEXT('part definition',#301,'design');
#24=PRODUCT('Body 09 (1)','Body 09 (1)','',(#303));
#305=PRODUCT_RELATED_PRODUCT_CATEGORY('part','',(#24));
#306=PRODUCT_DEFINITION_FORMATION_WITH_SPECIFIED_SOURCE('','',#24,.NOT_KNOWN.);
#25=PRODUCT_DEFINITION('design','',#306,#304);
#23=PRODUCT_DEFINITION_SHAPE('','',#25);
#307=SHAPE_DEFINITION_REPRESENTATION(#23,#16);
#11=DRAUGHTING_MODEL('',(),#10);
#1=MECHANICAL_DESIGN_GEOMETRIC_PRESENTATION_REPRESENTATION('',(#26),#10);
ENDSEC;
END-ISO-10303-21;
