  0
SECTION
  2
HEADER
  9
$ACADVER
  1
AC1018
  9
$ACADMAINTVER
 70
     0
  9
$DWGCODEPAGE
  3
ANSI_1252
  9
$INSBASE
 10
0.0
 20
0.0
 30
0.0
  9
$EXTMIN
 10
1.000000000000000E+20
 20
1.000000000000000E+20
 30
1.000000000000000E+20
  9
$EXTMAX
 10
-1.000000000000000E+20
 20
-1.000000000000000E+20
 30
-1.000000000000000E+20
  9
$LIMMIN
 10
0.0
 20
0.0
  9
$LIMMAX
 10
12.0
 20
9.0
  9
$ORTHOMODE
 70
     0
  9
$REGENMODE
 70
     1
  9
$FILLMODE
 70
     1
  9
$QTEXTMODE
 70
     0
  9
$MIRRTEXT
 70
     1
  9
$LTSCALE
 40
1.0
  9
$ATTMODE
 70
     1
  9
$TEXTSIZE
 40
0.2
  9
$TRACEWID
 40
0.05
  9
$TEXTSTYLE
  7
Standard
  9
$CLAYER
  8
0
  9
$CELTYPE
  6
ByLayer
  9
$CECOLOR
 62
   256
  9
$CELTSCALE
 40
1.0
  9
$DISPSILH
 70
     0
  9
$DIMSCALE
 40
1.0
  9
$DIMASZ
 40
0.18
  9
$DIMEXO
 40
0.0625
  9
$DIMDLI
 40
0.38
  9
$DIMRND
 40
0.0
  9
$DIMDLE
 40
0.0
  9
$DIMEXE
 40
0.18
  9
$DIMTP
 40
0.0
  9
$DIMTM
 40
0.0
  9
$DIMTXT
 40
0.18
  9
$DIMCEN
 40
0.09
  9
$DIMTSZ
 40
0.0
  9
$DIMTOL
 70
     0
  9
$DIMLIM
 70
     0
  9
$DIMTIH
 70
     1
  9
$DIMTOH
 70
     1
  9
$DIMSE1
 70
     0
  9
$DIMSE2
 70
     0
  9
$DIMTAD
 70
     0
  9
$DIMZIN
 70
     0
  9
$DIMBLK
  1

  9
$DIMASO
 70
     1
  9
$DIMSHO
 70
     1
  9
$DIMPOST
  1

  9
$DIMAPOST
  1

  9
$DIMALT
 70
     0
  9
$DIMALTD
 70
     2
  9
$DIMALTF
 40
25.4
  9
$DIMLFAC
 40
1.0
  9
$DIMTOFL
 70
     0
  9
$DIMTVP
 40
0.0
  9
$DIMTIX
 70
     0
  9
$DIMSOXD
 70
     0
  9
$DIMSAH
 70
     0
  9
$DIMBLK1
  1

  9
$DIMBLK2
  1

  9
$DIMSTYLE
  2
Standard
  9
$DIMCLRD
 70
     0
  9
$DIMCLRE
 70
     0
  9
$DIMCLRT
 70
     0
  9
$DIMTFAC
 40
1.0
  9
$DIMGAP
 40
0.09
  9
$DIMJUST
 70
     0
  9
$DIMSD1
 70
     0
  9
$DIMSD2
 70
     0
  9
$DIMTOLJ
 70
     1
  9
$DIMTZIN
 70
     0
  9
$DIMALTZ
 70
     0
  9
$DIMALTTZ
 70
     0
  9
$DIMUPT
 70
     0
  9
$DIMDEC
 70
     4
  9
$DIMTDEC
 70
     4
  9
$DIMALTU
 70
     2
  9
$DIMALTTD
 70
     2
  9
$DIMTXSTY
  7
Standard
  9
$DIMAUNIT
 70
     0
  9
$DIMADEC
 70
     0
  9
$DIMALTRND
 40
0.0
  9
$DIMAZIN
 70
     0
  9
$DIMDSEP
 70
    46
  9
$DIMATFIT
 70
     3
  9
$DIMFRAC
 70
     0
  9
$DIMLDRBLK
  1

  9
$DIMLUNIT
 70
     2
  9
$DIMLWD
 70
    -2
  9
$DIMLWE
 70
    -2
  9
$DIMTMOVE
 70
     0
  9
$LUNITS
 70
     2
  9
$LUPREC
 70
     4
  9
$SKETCHINC
 40
0.1
  9
$FILLETRAD
 40
0.5
  9
$AUNITS
 70
     0
  9
$AUPREC
 70
     0
  9
$MENU
  1
.
  9
$ELEVATION
 40
0.0
  9
$PELEVATION
 40
0.0
  9
$THICKNESS
 40
0.0
  9
$LIMCHECK
 70
     0
  9
$CHAMFERA
 40
0.5
  9
$CHAMFERB
 40
0.5
  9
$CHAMFERC
 40
1.0
  9
$CHAMFERD
 40
0.0
  9
$SKPOLY
 70
     0
  9
$TDCREATE
 40
2459707.611605787
  9
$TDUCREATE
 40
2459707.903272454
  9
$TDUPDATE
 40
2459707.611605799
  9
$TDUUPDATE
 40
2459707.903272465
  9
$TDINDWG
 40
0.0000000116
  9
$TDUSRTIMER
 40
0.0000000116
  9
$USRTIMER
 70
     1
  9
$ANGBASE
 50
0.0
  9
$ANGDIR
 70
     0
  9
$PDMODE
 70
     0
  9
$PDSIZE
 40
0.0
  9
$PLINEWID
 40
0.0
  9
$SPLFRAME
 70
     0
  9
$SPLINETYPE
 70
     6
  9
$SPLINESEGS
 70
     8
  9
$HANDSEED
  5
AB
  9
$SURFTAB1
 70
     6
  9
$SURFTAB2
 70
     6
  9
$SURFTYPE
 70
     6
  9
$SURFU
 70
     6
  9
$SURFV
 70
     6
  9
$UCSBASE
  2

  9
$UCSNAME
  2

  9
$UCSORG
 10
0.0
 20
0.0
 30
0.0
  9
$UCSXDIR
 10
1.0
 20
0.0
 30
0.0
  9
$UCSYDIR
 10
0.0
 20
1.0
 30
0.0
  9
$UCSORTHOREF
  2

  9
$UCSORTHOVIEW
 70
     0
  9
$UCSORGTOP
 10
0.0
 20
0.0
 30
0.0
  9
$UCSORGBOTTOM
 10
0.0
 20
0.0
 30
0.0
  9
$UCSORGLEFT
 10
0.0
 20
0.0
 30
0.0
  9
$UCSORGRIGHT
 10
0.0
 20
0.0
 30
0.0
  9
$UCSORGFRONT
 10
0.0
 20
0.0
 30
0.0
  9
$UCSORGBACK
 10
0.0
 20
0.0
 30
0.0
  9
$PUCSBASE
  2

  9
$PUCSNAME
  2

  9
$PUCSORG
 10
0.0
 20
0.0
 30
0.0
  9
$PUCSXDIR
 10
1.0
 20
0.0
 30
0.0
  9
$PUCSYDIR
 10
0.0
 20
1.0
 30
0.0
  9
$PUCSORTHOREF
  2

  9
$PUCSORTHOVIEW
 70
     0
  9
$PUCSORGTOP
 10
0.0
 20
0.0
 30
0.0
  9
$PUCSORGBOTTOM
 10
0.0
 20
0.0
 30
0.0
  9
$PUCSORGLEFT
 10
0.0
 20
0.0
 30
0.0
  9
$PUCSORGRIGHT
 10
0.0
 20
0.0
 30
0.0
  9
$PUCSORGFRONT
 10
0.0
 20
0.0
 30
0.0
  9
$PUCSORGBACK
 10
0.0
 20
0.0
 30
0.0
  9
$USERI1
 70
     0
  9
$USERI2
 70
     0
  9
$USERI3
 70
     0
  9
$USERI4
 70
     0
  9
$USERI5
 70
     0
  9
$USERR1
 40
0.0
  9
$USERR2
 40
0.0
  9
$USERR3
 40
0.0
  9
$USERR4
 40
0.0
  9
$USERR5
 40
0.0
  9
$WORLDVIEW
 70
     1
  9
$SHADEDGE
 70
     3
  9
$SHADEDIF
 70
    70
  9
$TILEMODE
 70
     1
  9
$MAXACTVP
 70
    64
  9
$PINSBASE
 10
0.0
 20
0.0
 30
0.0
  9
$PLIMCHECK
 70
     0
  9
$PEXTMIN
 10
1.000000000000000E+20
 20
1.000000000000000E+20
 30
1.000000000000000E+20
  9
$PEXTMAX
 10
-1.000000000000000E+20
 20
-1.000000000000000E+20
 30
-1.000000000000000E+20
  9
$PLIMMIN
 10
0.0
 20
0.0
  9
$PLIMMAX
 10
12.0
 20
9.0
  9
$UNITMODE
 70
     0
  9
$VISRETAIN
 70
     1
  9
$PLINEGEN
 70
     0
  9
$PSLTSCALE
 70
     1
  9
$TREEDEPTH
 70
  3020
  9
$CMLSTYLE
  2
Standard
  9
$CMLJUST
 70
     0
  9
$CMLSCALE
 40
1.0
  9
$PROXYGRAPHICS
 70
     1
  9
$MEASUREMENT
 70
     0
  9
$CELWEIGHT
370
    -1
  9
$ENDCAPS
280
     0
  9
$JOINSTYLE
280
     0
  9
$LWDISPLAY
290
     1
  9
$INSUNITS
 70
     1
  9
$HYPERLINKBASE
  1

  9
$STYLESHEET
  1

  9
$XEDIT
290
     1
  9
$CEPSNTYPE
380
     0
  9
$PSTYLEMODE
290
     1
  9
$FINGERPRINTGUID
  2
{1AAA9611-1765-40AE-8350-091DFF2895F3}
  9
$VERSIONGUID
  2
{FAEB1C32-E019-11D5-929B-00C0DF256EC4}
  9
$EXTNAMES
290
     1
  9
$PSVPSCALE
 40
0.0
  9
$OLESTARTUP
290
     0
  9
$SORTENTS
280
   127
  9
$INDEXCTL
280
     0
  9
$HIDETEXT
280
     1
  9
$XCLIPFRAME
290
     0
  9
$HALOGAP
280
     0
  9
$OBSCOLOR
 70
   257
  9
$OBSLTYPE
280
     0
  9
$INTERSECTIONDISPLAY
280
     0
  9
$INTERSECTIONCOLOR
 70
   257
  9
$DIMASSOC
280
     2
  9
$PROJECTNAME
  1

  0
ENDSEC
  0
SECTION
  2
CLASSES
  0
CLASS
  1
ACDBDICTIONARYWDFLT
  2
AcDbDictionaryWithDefault
  3
ObjectDBX Classes
 90
        0
 91
        3
280
     0
281
     0
  0
CLASS
  1
VISUALSTYLE
  2
AcDbVisualStyle
  3
ObjectDBX Classes
 90
     4095
 91
        3
280
     0
281
     0
  0
ENDSEC
  0
SECTION
  2
TABLES
  0
TABLE
  2
VPORT
  5
8
330
0
100
AcDbSymbolTable
 70
     1
  0
VPORT
  5
29
330
8
100
AcDbSymbolTableRecord
100
AcDbViewportTableRecord
  2
*Active
 70
     0
 10
0.0
 20
0.0
 11
1.0
 21
1.0
 12
0.0
 22
0.0
 13
0.0
 23
0.0
 14
0.5
 24
0.5
 15
0.5
 25
0.5
 16
0.0
 26
0.0
 36
1.0
 17
149.9992851730037
 27
-100.00009763125
 37
0.0
 40
200.0001952625
 41
1.499991387269696
 42
50.0
 43
0.0
 44
0.0
 50
0.0
 51
0.0
 71
     0
 72
   100
 73
     1
 74
     3
 75
     0
 76
     0
 77
     0
 78
     0
281
     0
 65
     1
110
0.0
120
0.0
130
0.0
111
1.0
121
0.0
131
0.0
112
0.0
122
1.0
132
0.0
 79
     0
146
0.0
  0
ENDTAB
  0
TABLE
  2
LTYPE
  5
5
330
0
100
AcDbSymbolTable
 70
     1
  0
LTYPE
  5
14
330
5
100
AcDbSymbolTableRecord
100
AcDbLinetypeTableRecord
  2
ByBlock
 70
     0
  3

 72
    65
 73
     0
 40
0.0
  0
LTYPE
  5
15
330
5
100
AcDbSymbolTableRecord
100
AcDbLinetypeTableRecord
  2
ByLayer
 70
     0
  3

 72
    65
 73
     0
 40
0.0
  0
LTYPE
  5
16
330
5
100
AcDbSymbolTableRecord
100
AcDbLinetypeTableRecord
  2
Continuous
 70
     0
  3
Solid line
 72
    65
 73
     0
 40
0.0
  0
ENDTAB
  0
TABLE
  2
LAYER
  5
2
330
0
100
AcDbSymbolTable
 70
     2
  0
LAYER
  5
10
330
2
100
AcDbSymbolTableRecord
100
AcDbLayerTableRecord
  2
0
 70
     0
 62
     7
  6
Continuous
370
    -3
390
F
  0
LAYER
  5
3B
330
2
100
AcDbSymbolTableRecord
100
AcDbLayerTableRecord
  2
Layer 1
 70
     0
 62
     7
  6
Continuous
370
    -3
390
F
  0
ENDTAB
  0
TABLE
  2
STYLE
  5
3
330
0
100
AcDbSymbolTable
 70
     1
  0
STYLE
  5
11
330
3
100
AcDbSymbolTableRecord
100
AcDbTextStyleTableRecord
  2
Standard
 70
     0
 40
0.0
 41
1.0
 50
0.0
 71
     0
 42
0.2
  3
txt
  4

  0
ENDTAB
  0
TABLE
  2
VIEW
  5
6
330
0
100
AcDbSymbolTable
 70
     0
  0
ENDTAB
  0
TABLE
  2
UCS
  5
7
330
0
100
AcDbSymbolTable
 70
     0
  0
ENDTAB
  0
TABLE
  2
APPID
  5
9
330
0
100
AcDbSymbolTable
 70
     1
  0
APPID
  5
12
330
9
100
AcDbSymbolTableRecord
100
AcDbRegAppTableRecord
  2
ACAD
 70
     0
  0
ENDTAB
  0
TABLE
  2
DIMSTYLE
  5
A
330
0
100
AcDbSymbolTable
 70
     1
100
AcDbDimStyleTable
  0
DIMSTYLE
105
27
330
A
100
AcDbSymbolTableRecord
100
AcDbDimStyleTableRecord
  2
Standard
 70
     0
340
11
  0
ENDTAB
  0
TABLE
  2
BLOCK_RECORD
  5
1
330
0
100
AcDbSymbolTable
 70
     7
  0
BLOCK_RECORD
  5
1F
330
1
100
AcDbSymbolTableRecord
100
AcDbBlockTableRecord
  2
*Model_Space
340
22
  0
BLOCK_RECORD
  5
1B
330
1
100
AcDbSymbolTableRecord
100
AcDbBlockTableRecord
  2
*Paper_Space
340
1E
  0
BLOCK_RECORD
  5
23
330
1
100
AcDbSymbolTableRecord
100
AcDbBlockTableRecord
  2
*Paper_Space0
340
26
  0
BLOCK_RECORD
  5
3C
330
1
100
AcDbSymbolTableRecord
100
AcDbBlockTableRecord
  2
block 2
340
0
102
{BLKREFS
331
3D
102
}
  0
BLOCK_RECORD
  5
43
330
1
100
AcDbSymbolTableRecord
100
AcDbBlockTableRecord
  2
block 3
340
0
102
{BLKREFS
331
44
102
}
  0
BLOCK_RECORD
  5
52
330
1
100
AcDbSymbolTableRecord
100
AcDbBlockTableRecord
  2
block 4
340
0
102
{BLKREFS
331
53
102
}
  0
BLOCK_RECORD
  5
63
330
1
100
AcDbSymbolTableRecord
100
AcDbBlockTableRecord
  2
block 5
340
0
102
{BLKREFS
331
64
102
}
  0
BLOCK_RECORD
  5
7C
330
1
100
AcDbSymbolTableRecord
100
AcDbBlockTableRecord
  2
block 6
340
0
102
{BLKREFS
331
7D
102
}
  0
BLOCK_RECORD
  5
8F
330
1
100
AcDbSymbolTableRecord
100
AcDbBlockTableRecord
  2
block 7
340
0
102
{BLKREFS
331
90
102
}
  0
ENDTAB
  0
ENDSEC
  0
SECTION
  2
BLOCKS
  0
BLOCK
  5
20
330
1F
100
AcDbEntity
  8
0
100
AcDbBlockBegin
  2
*Model_Space
 70
     0
 71
     0
 10
0.0
 20
0.0
 30
0.0
  3
*Model_Space
  1

  0
ENDBLK
  5
21
330
1F
100
AcDbEntity
  8
0
100
AcDbBlockEnd
  0
BLOCK
  5
1C
330
1B
100
AcDbEntity
 67
     1
  8
0
100
AcDbBlockBegin
  2
*Paper_Space
 70
     0
 71
     0
 10
0.0
 20
0.0
 30
0.0
  3
*Paper_Space
  1

  0
ENDBLK
  5
1D
330
1B
100
AcDbEntity
 67
     1
  8
0
100
AcDbBlockEnd
  0
BLOCK
  5
24
330
23
100
AcDbEntity
  8
0
100
AcDbBlockBegin
  2
*Paper_Space0
 70
     0
 71
     0
 10
0.0
 20
0.0
 30
0.0
  3
*Paper_Space0
  1

  0
ENDBLK
  5
25
330
23
100
AcDbEntity
  8
0
100
AcDbBlockEnd
  0
BLOCK
  5
3E
330
3C
100
AcDbEntity
  8
0
100
AcDbBlockBegin
  2
block 2
 70
     0
 71
     0
 10
0.0
 20
0.0
 30
0.0
  3
block 2
  1

  0
SPLINE
  5
40
330
3C
100
AcDbEntity
  8
Layer 1
 62
     7
420
 16777215
370
    18
100
AcDbSpline
210
0.0
220
0.0
230
1.0
 70
    11
 71
     3
 72
   119
 73
   115
 74
     0
 42
0.0000000001
 43
0.0000000001
 40
0.0
 40
0.0
 40
0.0
 40
0.0
 40
1.0
 40
1.0
 40
1.0
 40
2.0
 40
2.0
 40
2.0
 40
3.0
 40
3.0
 40
3.0
 40
4.0
 40
4.0
 40
4.0
 40
5.0
 40
5.0
 40
5.0
 40
6.0
 40
6.0
 40
6.0
 40
7.0
 40
7.0
 40
7.0
 40
8.0
 40
8.0
 40
8.0
 40
9.0
 40
9.0
 40
9.0
 40
10.0
 40
10.0
 40
10.0
 40
11.0
 40
11.0
 40
11.0
 40
12.0
 40
12.0
 40
12.0
 40
13.0
 40
13.0
 40
13.0
 40
14.0
 40
14.0
 40
14.0
 40
15.0
 40
15.0
 40
15.0
 40
16.0
 40
16.0
 40
16.0
 40
17.0
 40
17.0
 40
17.0
 40
18.0
 40
18.0
 40
18.0
 40
19.0
 40
19.0
 40
19.0
 40
20.0
 40
20.0
 40
20.0
 40
21.0
 40
21.0
 40
21.0
 40
22.0
 40
22.0
 40
22.0
 40
23.0
 40
23.0
 40
23.0
 40
24.0
 40
24.0
 40
24.0
 40
25.0
 40
25.0
 40
25.0
 40
26.0
 40
26.0
 40
26.0
 40
27.0
 40
27.0
 40
27.0
 40
28.0
 40
28.0
 40
28.0
 40
29.0
 40
29.0
 40
29.0
 40
30.0
 40
30.0
 40
30.0
 40
31.0
 40
31.0
 40
31.0
 40
32.0
 40
32.0
 40
32.0
 40
33.0
 40
33.0
 40
33.0
 40
34.0
 40
34.0
 40
34.0
 40
35.0
 40
35.0
 40
35.0
 40
36.0
 40
36.0
 40
36.0
 40
37.0
 40
37.0
 40
37.0
 40
38.0
 40
38.0
 40
38.0
 40
38.0
 10
159.0052815357695
 20
-145.0523003109591
 30
0.0
 10
159.0052815357695
 20
-145.0523003109591
 30
0.0
 10
159.0056260453181
 20
-151.9211316894503
 30
0.0
 10
159.0056260453181
 20
-151.9211316894503
 30
0.0
 10
159.0056260453181
 20
-151.9211316894503
 30
0.0
 10
180.9722438783681
 20
-151.9218207085473
 30
0.0
 10
180.9722438783681
 20
-151.9218207085473
 30
0.0
 10
180.9722438783681
 20
-151.9218207085473
 30
0.0
 10
178.8641899509437
 20
-148.2707085132795
 30
0.0
 10
178.8641899509437
 20
-148.2707085132795
 30
0.0
 10
178.7260416219852
 20
-148.0309298675062
 30
0.0
 10
178.4197726333464
 20
-147.9489365949572
 30
0.0
 10
178.1799939875731
 20
-148.0874294334643
 30
0.0
 10
178.1555338096278
 20
-148.1012098154053
 30
0.0
 10
178.1317626507796
 20
-148.1184352928315
 30
0.0
 10
178.1086805110284
 20
-148.1370388084518
 30
0.0
 10
178.1086805110284
 20
-148.1370388084518
 30
0.0
 10
176.6886121520084
 20
-149.3297308654454
 30
0.0
 10
176.6886121520084
 20
-149.3297308654454
 30
0.0
 10
176.6662190313543
 20
-149.3476453619687
 30
0.0
 10
176.6427923820546
 20
-149.3641818202979
 30
0.0
 10
176.6169541659152
 20
-149.379340240433
 30
0.0
 10
176.3775200296903
 20
-149.5171440598429
 30
0.0
 10
176.0722845696972
 20
-149.435150787294
 30
0.0
 10
175.9341362407387
 20
-149.1960611606177
 30
0.0
 10
175.9341362407387
 20
-149.1960611606177
 30
0.0
 10
175.2513183155622
 20
-148.0130153709829
 30
0.0
 10
175.2513183155622
 20
-148.0130153709829
 30
0.0
 10
175.2365044049756
 20
-147.987521664392
 30
0.0
 10
175.2237575516802
 20
-147.9620279578012
 30
0.0
 10
175.2141112843215
 20
-147.9337781748221
 30
0.0
 10
175.1200601775741
 20
-147.6753960134284
 30
0.0
 10
175.2533853728533
 20
-147.3880750499585
 30
0.0
 10
175.5134900819897
 20
-147.2929904145657
 30
0.0
 10
175.5134900819897
 20
-147.2929904145657
 30
0.0
 10
177.2563638879776
 20
-146.6597818643767
 30
0.0
 10
177.2563638879776
 20
-146.6597818643767
 30
0.0
 10
177.5150905589198
 20
-146.5646972289838
 30
0.0
 10
177.6491047732961
 20
-146.277376265514
 30
0.0
 10
177.5547091570002
 20
-146.0176160659261
 30
0.0
 10
177.5454073991901
 20
-145.9900553020442
 30
0.0
 10
177.5326605458946
 20
-145.9638725763563
 30
0.0
 10
177.5175021257595
 20
-145.9390678888625
 30
0.0
 10
177.5175021257595
 20
-145.9390678888625
 30
0.0
 10
173.608007769098
 20
-139.1666991839583
 30
0.0
 10
173.608007769098
 20
-139.1666991839583
 30
0.0
 10
173.4350639757385
 20
-139.4719346439515
 30
0.0
 10
173.2235351129441
 20
-139.700688984172
 30
0.0
 10
172.9909911676898
 20
-139.8343586889997
 30
0.0
 10
172.1782931427193
 20
-140.3035806940908
 30
0.0
 10
171.3025498703688
 20
-139.5305012672007
 30
0.0
 10
171.0331434034223
 20
-138.1076768317925
 30
0.0
 10
170.8512423618011
 20
-137.1399495099859
 30
0.0
 10
170.994213824439
 20
-136.0743814763981
 30
0.0
 10
171.4031466585381
 20
-135.3495333863015
 30
0.0
 10
171.4031466585381
 20
-135.3495333863015
 30
0.0
 10
171.4034911680866
 20
-135.3502224053986
 30
0.0
 10
171.4034911680866
 20
-135.3502224053986
 30
0.0
 10
171.5764349614462
 20
-135.0449869454054
 30
0.0
 10
171.7879638242405
 20
-134.8169216242819
 30
0.0
 10
172.0205077694949
 20
-134.6825629003571
 30
0.0
 10
172.8332057944653
 20
-134.2133408952661
 30
0.0
 10
173.7089490668158
 20
-134.9864203221562
 30
0.0
 10
173.9783555337624
 20
-136.4092447575644
 30
0.0
 10
173.9783555337624
 20
-136.4092447575644
 30
0.0
 10
181.1875623461962
 20
-132.2468803922855
 30
0.0
 10
181.1875623461962
 20
-132.2468803922855
 30
0.0
 10
181.21236703369
 20
-132.2324109912475
 30
0.0
 10
181.2385497593779
 20
-132.2200086475005
 30
0.0
 10
181.2667995423569
 20
-132.2103623801419
 30
0.0
 10
181.5258707228477
 20
-132.115277744749
 30
0.0
 10
181.8118136481234
 20
-132.2489474495767
 30
0.0
 10
181.9062092644193
 20
-132.5093966682616
 30
0.0
 10
181.9062092644193
 20
-132.5093966682616
 30
0.0
 10
182.5414848718994
 20
-134.2519259647009
 30
0.0
 10
182.5414848718994
 20
-134.2519259647009
 30
0.0
 10
182.6365695072923
 20
-134.5103081260947
 30
0.0
 10
182.9232014516651
 20
-134.6446668500194
 30
0.0
 10
183.1822726321558
 20
-134.5502712337235
 30
0.0
 10
183.2091443769408
 20
-134.5420030045589
 30
0.0
 10
183.2360161217257
 20
-134.5275336035209
 30
0.0
 10
183.2608208092195
 20
-134.5137532215799
 30
0.0
 10
183.2608208092195
 20
-134.5137532215799
 30
0.0
 10
184.4445556179514
 20
-133.8302462773063
 30
0.0
 10
184.4445556179514
 20
-133.8302462773063
 30
0.0
 10
184.6829562255307
 20
-133.6924424578963
 30
0.0
 10
184.7656385171767
 20
-133.3865179788062
 30
0.0
 10
184.6278346977667
 20
-133.1474283521298
 30
0.0
 10
184.6126762776316
 20
-133.121934645539
 30
0.0
 10
184.5961398193024
 20
-133.0978189771422
 30
0.0
 10
184.577536303682
 20
-133.0764593851337
 30
0.0
 10
184.577536303682
 20
-133.0764593851337
 30
0.0
 10
183.3848442466885
 20
-131.6557020070166
 30
0.0
 10
183.3848442466885
 20
-131.6557020070166
 30
0.0
 10
183.3662407310682
 20
-131.632964376814
 30
0.0
 10
183.349704272739
 20
-131.6088487084172
 30
0.0
 10
183.3352348717009
 20
-131.5840440209234
 30
0.0
 10
183.1974310522909
 20
-131.3449543942471
 30
0.0
 10
183.2794243248399
 20
-131.0390299151569
 30
0.0
 10
183.5178249324192
 20
-130.9012260957469
 30
0.0
 10
183.5178249324192
 20
-130.9012260957469
 30
0.0
 10
186.0065619109637
 20
-129.4646212783977
 30
0.0
 10
186.0065619109637
 20
-129.4646212783977
 30
0.0
 10
186.0065619109637
 20
-129.4646212783977
 30
0.0
 10
186.0058728918666
 20
-122.5957898999066
 30
0.0
 10
186.0058728918666
 20
-122.5957898999066
 30
0.0
 10
186.0058728918666
 20
-122.5957898999066
 30
0.0
 10
164.0392550588166
 20
-122.5951008808096
 30
0.0
 10
164.0392550588166
 20
-122.5951008808096
 30
0.0
 10
164.0392550588166
 20
-122.5951008808096
 30
0.0
 10
159.0052815357695
 20
-122.5951008808096
 30
0.0
 10
159.0052815357695
 20
-122.5951008808096
 30
0.0
 10
159.0052815357695
 20
-122.5951008808096
 30
0.0
 10
159.0052815357695
 20
-145.0523003109591
 30
0.0
 10
159.0052815357695
 20
-145.0523003109591
 30
0.0
  0
SPLINE
  5
41
330
3C
100
AcDbEntity
  8
Layer 1
 62
   240
420
 15539236
370
    18
100
AcDbSpline
210
0.0
220
0.0
230
1.0
 70
    11
 71
     3
 72
    17
 73
    13
 74
     0
 42
0.0000000001
 43
0.0000000001
 40
0.0
 40
0.0
 40
0.0
 40
0.0
 40
1.0
 40
1.0
 40
1.0
 40
2.0
 40
2.0
 40
2.0
 40
3.0
 40
3.0
 40
3.0
 40
4.0
 40
4.0
 40
4.0
 40
4.0
 10
185.3416584823104
 20
-124.5085069133173
 30
0.0
 10
185.3416584823104
 20
-123.8508381851831
 30
0.0
 10
184.8087022107423
 20
-123.317881913615
 30
0.0
 10
184.1513779921566
 20
-123.317881913615
 30
0.0
 10
183.4937092640224
 20
-123.317881913615
 30
0.0
 10
182.9607529924543
 20
-123.8508381851831
 30
0.0
 10
182.9607529924543
 20
-124.5085069133173
 30
0.0
 10
182.9607529924543
 20
-125.165831131903
 30
0.0
 10
183.4937092640224
 20
-125.6987874034711
 30
0.0
 10
184.1513779921566
 20
-125.6987874034711
 30
0.0
 10
184.8087022107423
 20
-125.6987874034711
 30
0.0
 10
185.3416584823104
 20
-125.165831131903
 30
0.0
 10
185.3416584823104
 20
-124.5085069133173
 30
0.0
  0
SPLINE
  5
42
330
3C
100
AcDbEntity
  8
Layer 1
 62
   240
420
 15539236
370
    18
100
AcDbSpline
210
0.0
220
0.0
230
1.0
 70
    11
 71
     3
 72
    17
 73
    13
 74
     0
 42
0.0000000001
 43
0.0000000001
 40
0.0
 40
0.0
 40
0.0
 40
0.0
 40
1.0
 40
1.0
 40
1.0
 40
2.0
 40
2.0
 40
2.0
 40
3.0
 40
3.0
 40
3.0
 40
4.0
 40
4.0
 40
4.0
 40
4.0
 10
161.9670301244388
 20
-150.0304632871452
 30
0.0
 10
161.9670301244388
 20
-149.372794559011
 30
0.0
 10
161.4344183624192
 20
-148.8398382874428
 30
0.0
 10
160.7770941438335
 20
-148.8398382874428
 30
0.0
 10
160.1190809061508
 20
-148.8398382874428
 30
0.0
 10
159.5864691441312
 20
-149.372794559011
 30
0.0
 10
159.5864691441312
 20
-150.0304632871452
 30
0.0
 10
159.5864691441312
 20
-150.6877875057308
 30
0.0
 10
160.1190809061508
 20
-151.220743777299
 30
0.0
 10
160.7770941438335
 20
-151.220743777299
 30
0.0
 10
161.4344183624192
 20
-151.220743777299
 30
0.0
 10
161.9670301244388
 20
-150.6877875057308
 30
0.0
 10
161.9670301244388
 20
-150.0304632871452
 30
0.0
  0
ENDBLK
  5
3F
330
3C
100
AcDbEntity
  8
0
100
AcDbBlockEnd
  0
BLOCK
  5
45
330
43
100
AcDbEntity
  8
0
100
AcDbBlockBegin
  2
block 3
 70
     0
 71
     0
 10
0.0
 20
0.0
 30
0.0
  3
block 3
  1

  0
SPLINE
  5
47
330
43
100
AcDbEntity
  8
Layer 1
 62
     7
420
 16777215
370
    18
100
AcDbSpline
210
0.0
220
0.0
230
1.0
 70
    11
 71
     3
 72
   116
 73
   112
 74
     0
 42
0.0000000001
 43
0.0000000001
 40
0.0
 40
0.0
 40
0.0
 40
0.0
 40
1.0
 40
1.0
 40
1.0
 40
2.0
 40
2.0
 40
2.0
 40
3.0
 40
3.0
 40
3.0
 40
4.0
 40
4.0
 40
4.0
 40
5.0
 40
5.0
 40
5.0
 40
6.0
 40
6.0
 40
6.0
 40
7.0
 40
7.0
 40
7.0
 40
8.0
 40
8.0
 40
8.0
 40
9.0
 40
9.0
 40
9.0
 40
10.0
 40
10.0
 40
10.0
 40
11.0
 40
11.0
 40
11.0
 40
12.0
 40
12.0
 40
12.0
 40
13.0
 40
13.0
 40
13.0
 40
14.0
 40
14.0
 40
14.0
 40
15.0
 40
15.0
 40
15.0
 40
16.0
 40
16.0
 40
16.0
 40
17.0
 40
17.0
 40
17.0
 40
18.0
 40
18.0
 40
18.0
 40
19.0
 40
19.0
 40
19.0
 40
20.0
 40
20.0
 40
20.0
 40
21.0
 40
21.0
 40
21.0
 40
22.0
 40
22.0
 40
22.0
 40
23.0
 40
23.0
 40
23.0
 40
24.0
 40
24.0
 40
24.0
 40
25.0
 40
25.0
 40
25.0
 40
26.0
 40
26.0
 40
26.0
 40
27.0
 40
27.0
 40
27.0
 40
28.0
 40
28.0
 40
28.0
 40
29.0
 40
29.0
 40
29.0
 40
30.0
 40
30.0
 40
30.0
 40
31.0
 40
31.0
 40
31.0
 40
32.0
 40
32.0
 40
32.0
 40
33.0
 40
33.0
 40
33.0
 40
34.0
 40
34.0
 40
34.0
 40
35.0
 40
35.0
 40
35.0
 40
36.0
 40
36.0
 40
36.0
 40
37.0
 40
37.0
 40
37.0
 40
37.0
 10
157.5945149345597
 20
-99.16397295697985
 30
0.0
 10
157.5945149345597
 20
-99.16397295697985
 30
0.0
 10
157.5948594441082
 20
-106.032804335471
 30
0.0
 10
157.5948594441082
 20
-106.032804335471
 30
0.0
 10
157.5948594441082
 20
-106.032804335471
 30
0.0
 10
179.5614772771582
 20
-106.033493354568
 30
0.0
 10
179.5614772771582
 20
-106.033493354568
 30
0.0
 10
179.5614772771582
 20
-106.033493354568
 30
0.0
 10
184.5954508002053
 20
-106.033493354568
 30
0.0
 10
184.5954508002053
 20
-106.033493354568
 30
0.0
 10
184.5954508002053
 20
-106.033493354568
 30
0.0
 10
184.5954508002053
 20
-83.57629392441844
 30
0.0
 10
184.5954508002053
 20
-83.57629392441844
 30
0.0
 10
184.5954508002053
 20
-83.57629392441844
 30
0.0
 10
182.1077473503064
 20
-85.01255423221909
 30
0.0
 10
182.1077473503064
 20
-85.01255423221909
 30
0.0
 10
181.8686577236301
 20
-85.15035805162908
 30
0.0
 10
181.7866644510811
 20
-85.45628253071926
 30
0.0
 10
181.9248127800396
 20
-85.69537215739561
 30
0.0
 10
181.9396266906262
 20
-85.72086586398646
 30
0.0
 10
181.9558186394069
 20
-85.74463702283468
 30
0.0
 10
181.9747666645758
 20
-85.7670301434888
 30
0.0
 10
181.9747666645758
 20
-85.7670301434888
 30
0.0
 10
183.1667697024722
 20
-87.18744301205732
 30
0.0
 10
183.1667697024722
 20
-87.18744301205732
 30
0.0
 10
183.1853732180926
 20
-87.20983613271143
 30
0.0
 10
183.2025986955188
 20
-87.23360729155966
 30
0.0
 10
183.2170680965569
 20
-87.2591009981505
 30
0.0
 10
183.3548719159668
 20
-87.49784611527832
 30
0.0
 10
183.2728786434179
 20
-87.8037705943685
 30
0.0
 10
183.0337890167416
 20
-87.94191892332702
 30
0.0
 10
183.0337890167416
 20
-87.94191892332702
 30
0.0
 10
181.8507432271068
 20
-88.62508135805207
 30
0.0
 10
181.8507432271068
 20
-88.62508135805207
 30
0.0
 10
181.8252495205159
 20
-88.63955075909011
 30
0.0
 10
181.799066794828
 20
-88.65195310283701
 30
0.0
 10
181.7718505404945
 20
-88.66159937019572
 30
0.0
 10
181.5124348504552
 20
-88.75633949604008
 30
0.0
 10
181.2251138869854
 20
-88.62266979121239
 30
0.0
 10
181.1310627802381
 20
-88.36325410117308
 30
0.0
 10
181.1310627802381
 20
-88.36325410117308
 30
0.0
 10
180.4964761918551
 20
-86.62038029518519
 30
0.0
 10
180.4964761918551
 20
-86.62038029518519
 30
0.0
 10
180.4024250851077
 20
-86.36096460514587
 30
0.0
 10
180.1151041216379
 20
-86.22695039076966
 30
0.0
 10
179.8556884315986
 20
-86.3213460070655
 30
0.0
 10
179.8284721772651
 20
-86.33133678397273
 30
0.0
 10
179.8022894515772
 20
-86.34373912771963
 30
0.0
 10
179.7767957449864
 20
-86.35820852875767
 30
0.0
 10
179.7767957449864
 20
-86.35820852875767
 30
0.0
 10
172.5675889325526
 20
-90.52057289403653
 30
0.0
 10
172.5675889325526
 20
-90.52057289403653
 30
0.0
 10
172.7494899741737
 20
-91.48864472539174
 30
0.0
 10
172.6065185115359
 20
-92.5542127589795
 30
0.0
 10
172.1975856774367
 20
-93.27906084907607
 30
0.0
 10
172.1975856774367
 20
-93.27906084907607
 30
0.0
 10
172.1972411678882
 20
-93.27837182997902
 30
0.0
 10
172.1972411678882
 20
-93.27837182997902
 30
0.0
 10
172.0242973745287
 20
-93.58360728997216
 30
0.0
 10
171.8127685117343
 20
-93.81201712064423
 30
0.0
 10
171.58022456648
 20
-93.94603133502044
 30
0.0
 10
170.7675265415095
 20
-94.41525334011146
 30
0.0
 10
169.891783269159
 20
-93.6421739132214
 30
0.0
 10
169.6223768022125
 20
-92.21934947781322
 30
0.0
 10
169.4404757605913
 20
-91.25162215600655
 30
0.0
 10
169.5834472232291
 20
-90.18570961287024
 30
0.0
 10
169.9923800573283
 20
-89.46086152277368
 30
0.0
 10
169.9923800573283
 20
-89.46086152277368
 30
0.0
 10
166.0825411911183
 20
-82.68849281786954
 30
0.0
 10
166.0825411911183
 20
-82.68849281786954
 30
0.0
 10
166.0677272805317
 20
-82.66368813037575
 30
0.0
 10
166.0556694463333
 20
-82.6368163855908
 30
0.0
 10
166.0456786694261
 20
-82.6092556217088
 30
0.0
 10
165.9509385435817
 20
-82.35018444121802
 30
0.0
 10
166.084952757958
 20
-82.06286347774818
 30
0.0
 10
166.3443684479973
 20
-81.96846786145232
 30
0.0
 10
166.3443684479973
 20
-81.96846786145232
 30
0.0
 10
168.0872422539852
 20
-81.33457029216636
 30
0.0
 10
168.0872422539852
 20
-81.33457029216636
 30
0.0
 10
168.3463134344759
 20
-81.24017467587052
 30
0.0
 10
168.4803276488522
 20
-80.95285371240068
 30
0.0
 10
168.3855875230078
 20
-80.69309351281284
 30
0.0
 10
168.3759412556491
 20
-80.6662217680279
 30
0.0
 10
168.3635389119022
 20
-80.64003904233999
 30
0.0
 10
168.3490695108641
 20
-80.61454533574914
 30
0.0
 10
168.3490695108641
 20
-80.61454533574914
 30
0.0
 10
167.6659070761391
 20
-79.43149954611435
 30
0.0
 10
167.6659070761391
 20
-79.43149954611435
 30
0.0
 10
167.5277587471806
 20
-79.192409919438
 30
0.0
 10
167.2221787776389
 20
-79.11076115643759
 30
0.0
 10
166.9830891509626
 20
-79.24822046629906
 30
0.0
 10
166.9579399539202
 20
-79.26268986733712
 30
0.0
 10
166.9338242855235
 20
-79.27991534476335
 30
0.0
 10
166.9117756744179
 20
-79.29782984128666
 30
0.0
 10
166.9117756744179
 20
-79.29782984128666
 30
0.0
 10
165.4910182963009
 20
-80.49052189828015
 30
0.0
 10
165.4910182963009
 20
-80.49052189828015
 30
0.0
 10
165.4682806660982
 20
-80.5091254139005
 30
0.0
 10
165.4448540167985
 20
-80.5256618722297
 30
0.0
 10
165.4193603102077
 20
-80.54013127326775
 30
0.0
 10
165.1806151930799
 20
-80.67793509267774
 30
0.0
 10
164.8743462044411
 20
-80.59663083922585
 30
0.0
 10
164.7365423850312
 20
-80.3575412125495
 30
0.0
 10
164.7365423850312
 20
-80.3575412125495
 30
0.0
 10
162.6284884576068
 20
-76.70677352683026
 30
0.0
 10
162.6284884576068
 20
-76.70677352683026
 30
0.0
 10
162.6284884576068
 20
-76.70677352683026
 30
0.0
 10
157.5945149345597
 20
-76.70677352683026
 30
0.0
 10
157.5945149345597
 20
-76.70677352683026
 30
0.0
 10
157.5945149345597
 20
-76.70677352683026
 30
0.0
 10
157.5945149345597
 20
-99.16397295697985
 30
0.0
 10
157.5945149345597
 20
-99.16397295697985
 30
0.0
  0
SPLINE
  5
48
330
43
100
AcDbEntity
  8
Layer 1
 62
   240
420
 15539236
370
    18
100
AcDbSpline
210
0.0
220
0.0
230
1.0
 70
    11
 71
     3
 72
    17
 73
    13
 74
     0
 42
0.0000000001
 43
0.0000000001
 40
0.0
 40
0.0
 40
0.0
 40
0.0
 40
1.0
 40
1.0
 40
1.0
 40
2.0
 40
2.0
 40
2.0
 40
3.0
 40
3.0
 40
3.0
 40
4.0
 40
4.0
 40
4.0
 40
4.0
 10
181.2743787524245
 20
-103.9819389931017
 30
0.0
 10
181.2743787524245
 20
-104.6399522307845
 30
0.0
 10
181.8073350239926
 20
-105.1725639928041
 30
0.0
 10
182.4646592425783
 20
-105.1725639928041
 30
0.0
 10
183.1223279707125
 20
-105.1725639928041
 30
0.0
 10
183.6552842422806
 20
-104.6399522307845
 30
0.0
 10
183.6552842422806
 20
-103.9819389931017
 30
0.0
 10
183.6552842422806
 20
-103.3246147745161
 30
0.0
 10
183.1223279707125
 20
-102.7920030124965
 30
0.0
 10
182.4646592425783
 20
-102.7920030124965
 30
0.0
 10
181.8073350239926
 20
-102.7920030124965
 30
0.0
 10
181.2743787524245
 20
-103.3246147745161
 30
0.0
 10
181.2743787524245
 20
-103.9819389931017
 30
0.0
  0
POLYLINE
  5
49
330
43
100
AcDbEntity
  8
Layer 1
 62
   240
420
 15539236
370
    18
100
AcDb2dPolyline
 66
     1
 10
0.0
 20
0.0
 30
0.0
  0
VERTEX
  5
4A
330
49
100
AcDbEntity
  8
Layer 1
 62
   240
420
 15539236
370
    18
100
AcDbVertex
100
AcDb2dVertex
 10
183.4472004749715
 20
-102.4226887764777
 30
0.0
  0
VERTEX
  5
4B
330
49
100
AcDbEntity
  8
Layer 1
 62
   240
420
 15539236
370
    18
100
AcDbVertex
100
AcDb2dVertex
 10
181.4779838956027
 20
-102.4226887764777
 30
0.0
  0
SEQEND
  5
4C
330
49
100
AcDbEntity
  8
Layer 1
370
    18
  0
SPLINE
  5
4D
330
43
100
AcDbEntity
  8
Layer 1
 62
   240
420
 15539236
370
    18
100
AcDbSpline
210
0.0
220
0.0
230
1.0
 70
    11
 71
     3
 72
    17
 73
    13
 74
     0
 42
0.0000000001
 43
0.0000000001
 40
0.0
 40
0.0
 40
0.0
 40
0.0
 40
1.0
 40
1.0
 40
1.0
 40
2.0
 40
2.0
 40
2.0
 40
3.0
 40
3.0
 40
3.0
 40
4.0
 40
4.0
 40
4.0
 40
4.0
 10
160.5593641091657
 20
-78.4710069248267
 30
0.0
 10
160.5593641091657
 20
-77.8133381966925
 30
0.0
 10
160.0264078375976
 20
-77.28038192512436
 30
0.0
 10
159.3690836190119
 20
-77.28038192512436
 30
0.0
 10
158.7114148908777
 20
-77.28038192512436
 30
0.0
 10
158.1784586193096
 20
-77.8133381966925
 30
0.0
 10
158.1784586193096
 20
-78.4710069248267
 30
0.0
 10
158.1784586193096
 20
-79.12833114341237
 30
0.0
 10
158.7114148908777
 20
-79.66128741498052
 30
0.0
 10
159.3690836190119
 20
-79.66128741498052
 30
0.0
 10
160.0264078375976
 20
-79.66128741498052
 30
0.0
 10
160.5593641091657
 20
-79.12833114341237
 30
0.0
 10
160.5593641091657
 20
-78.4710069248267
 30
0.0
  0
POLYLINE
  5
4E
330
43
100
AcDbEntity
  8
Layer 1
 62
   240
420
 15539236
370
    18
100
AcDb2dPolyline
 66
     1
 10
0.0
 20
0.0
 30
0.0
  0
VERTEX
  5
4F
330
4E
100
AcDbEntity
  8
Layer 1
 62
   240
420
 15539236
370
    18
100
AcDbVertex
100
AcDb2dVertex
 10
158.3865423866187
 20
-80.03025714145078
 30
0.0
  0
VERTEX
  5
50
330
4E
100
AcDbEntity
  8
Layer 1
 62
   240
420
 15539236
370
    18
100
AcDbVertex
100
AcDb2dVertex
 10
160.3557589659875
 20
-80.03025714145078
 30
0.0
  0
SEQEND
  5
51
330
4E
100
AcDbEntity
  8
Layer 1
370
    18
  0
ENDBLK
  5
46
330
43
100
AcDbEntity
  8
0
100
AcDbBlockEnd
  0
BLOCK
  5
54
330
52
100
AcDbEntity
  8
0
100
AcDbBlockBegin
  2
block 4
 70
     0
 71
     0
 10
0.0
 20
0.0
 30
0.0
  3
block 4
  1

  0
SPLINE
  5
56
330
52
100
AcDbEntity
  8
Layer 1
 62
     7
420
 16777215
370
    18
100
AcDbSpline
210
0.0
220
0.0
230
1.0
 70
     8
 71
     3
 72
   119
 73
   115
 74
     0
 42
0.0000000001
 43
0.0000000001
 40
0.0
 40
0.0
 40
0.0
 40
0.0
 40
1.0
 40
1.0
 40
1.0
 40
2.0
 40
2.0
 40
2.0
 40
3.0
 40
3.0
 40
3.0
 40
4.0
 40
4.0
 40
4.0
 40
5.0
 40
5.0
 40
5.0
 40
6.0
 40
6.0
 40
6.0
 40
7.0
 40
7.0
 40
7.0
 40
8.0
 40
8.0
 40
8.0
 40
9.0
 40
9.0
 40
9.0
 40
10.0
 40
10.0
 40
10.0
 40
11.0
 40
11.0
 40
11.0
 40
12.0
 40
12.0
 40
12.0
 40
13.0
 40
13.0
 40
13.0
 40
14.0
 40
14.0
 40
14.0
 40
15.0
 40
15.0
 40
15.0
 40
16.0
 40
16.0
 40
16.0
 40
17.0
 40
17.0
 40
17.0
 40
18.0
 40
18.0
 40
18.0
 40
19.0
 40
19.0
 40
19.0
 40
20.0
 40
20.0
 40
20.0
 40
21.0
 40
21.0
 40
21.0
 40
22.0
 40
22.0
 40
22.0
 40
23.0
 40
23.0
 40
23.0
 40
24.0
 40
24.0
 40
24.0
 40
25.0
 40
25.0
 40
25.0
 40
26.0
 40
26.0
 40
26.0
 40
27.0
 40
27.0
 40
27.0
 40
28.0
 40
28.0
 40
28.0
 40
29.0
 40
29.0
 40
29.0
 40
30.0
 40
30.0
 40
30.0
 40
31.0
 40
31.0
 40
31.0
 40
32.0
 40
32.0
 40
32.0
 40
33.0
 40
33.0
 40
33.0
 40
34.0
 40
34.0
 40
34.0
 40
35.0
 40
35.0
 40
35.0
 40
36.0
 40
36.0
 40
36.0
 40
37.0
 40
37.0
 40
37.0
 40
38.0
 40
38.0
 40
38.0
 40
38.0
 10
133.922574836311
 20
-132.7970621412799
 30
0.0
 10
133.9994004656321
 20
-132.3901963644719
 30
0.0
 10
134.1299695845231
 20
-132.0198485998075
 30
0.0
 10
134.3039469065282
 20
-131.7184027448482
 30
0.0
 10
134.9130397883204
 20
-130.6642035263617
 30
0.0
 10
135.8942029825195
 20
-130.6738497937204
 30
0.0
 10
136.4964056733412
 20
-131.7390733177597
 30
0.0
 10
136.4964056733412
 20
-131.7390733177597
 30
0.0
 10
140.4062445395512
 20
-124.9660155937585
 30
0.0
 10
140.4062445395512
 20
-124.9660155937585
 30
0.0
 10
140.4210584501378
 20
-124.9405218871676
 30
0.0
 10
140.437594908467
 20
-124.9167507283194
 30
0.0
 10
140.4565429336359
 20
-124.8943576076653
 30
0.0
 10
140.6332763320292
 20
-124.6831732544195
 30
0.0
 10
140.9491915880266
 20
-124.6556124905375
 30
0.0
 10
141.1607204508209
 20
-124.8323458889308
 30
0.0
 10
141.1607204508209
 20
-124.8323458889308
 30
0.0
 10
142.5811333193894
 20
-126.0246934363758
 30
0.0
 10
142.5811333193894
 20
-126.0246934363758
 30
0.0
 10
142.7933512012808
 20
-126.2028048729632
 30
0.0
 10
143.1085774381812
 20
-126.1752441090812
 30
0.0
 10
143.2859998556715
 20
-125.9630262271898
 30
0.0
 10
143.3046033712919
 20
-125.9409776160842
 30
0.0
 10
143.3211398296211
 20
-125.9168619476875
 30
0.0
 10
143.3359537402077
 20
-125.8917127506451
 30
0.0
 10
143.3359537402077
 20
-125.8917127506451
 30
0.0
 10
144.0191161749327
 20
-124.7090114705589
 30
0.0
 10
144.0191161749327
 20
-124.7090114705589
 30
0.0
 10
144.1572645038912
 20
-124.4699218438825
 30
0.0
 10
144.0749267217938
 20
-124.1636528552438
 30
0.0
 10
143.836181604666
 20
-124.0255045262853
 30
0.0
 10
143.8106878980751
 20
-124.0106906156987
 30
0.0
 10
143.7841606628387
 20
-123.9986327815003
 30
0.0
 10
143.7569444085052
 20
-123.9886420045931
 30
0.0
 10
143.7569444085052
 20
-123.9886420045931
 30
0.0
 10
142.0137260929688
 20
-123.3543999257586
 30
0.0
 10
142.0137260929688
 20
-123.3543999257586
 30
0.0
 10
141.9871988577324
 20
-123.3447536583999
 30
0.0
 10
141.9606716224959
 20
-123.332351314653
 30
0.0
 10
141.9348334063566
 20
-123.317881913615
 30
0.0
 10
141.6960882892288
 20
-123.1797335846565
 30
0.0
 10
141.6144395262284
 20
-122.8738091055663
 30
0.0
 10
141.7525878551868
 20
-122.6350639884385
 30
0.0
 10
141.7525878551868
 20
-122.6350639884385
 30
0.0
 10
143.8606417826112
 20
-118.9839517931707
 30
0.0
 10
143.8606417826112
 20
-118.9839517931707
 30
0.0
 10
143.8606417826112
 20
-118.9839517931707
 30
0.0
 10
121.8940239495612
 20
-118.9836072836222
 30
0.0
 10
121.8940239495612
 20
-118.9836072836222
 30
0.0
 10
121.8940239495612
 20
-118.9836072836222
 30
0.0
 10
121.8940239495612
 20
-125.8531276812103
 30
0.0
 10
121.8940239495612
 20
-125.8531276812103
 30
0.0
 10
121.8940239495612
 20
-125.8531276812103
 30
0.0
 10
121.8940239495612
 20
-148.3113606400055
 30
0.0
 10
121.8940239495612
 20
-148.3113606400055
 30
0.0
 10
121.8940239495612
 20
-148.3113606400055
 30
0.0
 10
126.9279974726083
 20
-148.3113606400055
 30
0.0
 10
126.9279974726083
 20
-148.3113606400055
 30
0.0
 10
126.9279974726083
 20
-148.3113606400055
 30
0.0
 10
148.8946153056583
 20
-148.311705149554
 30
0.0
 10
148.8946153056583
 20
-148.311705149554
 30
0.0
 10
148.8946153056583
 20
-148.311705149554
 30
0.0
 10
148.8946153056583
 20
-141.4421847519658
 30
0.0
 10
148.8946153056583
 20
-141.4421847519658
 30
0.0
 10
148.8946153056583
 20
-141.4421847519658
 30
0.0
 10
146.4065673462109
 20
-140.0059244441652
 30
0.0
 10
146.4065673462109
 20
-140.0059244441652
 30
0.0
 10
146.167822229083
 20
-139.8688096438522
 30
0.0
 10
145.8615532404444
 20
-139.9501138973041
 30
0.0
 10
145.7240939305829
 20
-140.189548033529
 30
0.0
 10
145.7092800199963
 20
-140.2143527210228
 30
0.0
 10
145.6972221857979
 20
-140.2408799562592
 30
0.0
 10
145.6868868993422
 20
-140.2687852296897
 30
0.0
 10
145.6868868993422
 20
-140.2687852296897
 30
0.0
 10
145.0529893300562
 20
-142.0106255070321
 30
0.0
 10
145.0529893300562
 20
-142.0106255070321
 30
0.0
 10
145.0426540436005
 20
-142.0378417613655
 30
0.0
 10
145.0302516998536
 20
-142.0647135061505
 30
0.0
 10
145.015437789267
 20
-142.0895181936443
 30
0.0
 10
144.877633969857
 20
-142.3289523298692
 30
0.0
 10
144.5717094907668
 20
-142.4106010928696
 30
0.0
 10
144.3326198640905
 20
-142.2727972734596
 30
0.0
 10
144.3326198640905
 20
-142.2727972734596
 30
0.0
 10
143.1499185840042
 20
-141.5899793482831
 30
0.0
 10
143.1499185840042
 20
-141.5899793482831
 30
0.0
 10
143.1244248774133
 20
-141.5751654376965
 30
0.0
 10
143.1006537185651
 20
-141.5575954507217
 30
0.0
 10
143.0786051074595
 20
-141.540025463747
 30
0.0
 10
142.8667317351166
 20
-141.361569517611
 30
0.0
 10
142.8395154807832
 20
-141.0463432807106
 30
0.0
 10
143.016593388725
 20
-140.8351589274648
 30
0.0
 10
143.016593388725
 20
-140.8351589274648
 30
0.0
 10
144.20894093617
 20
-139.4147460588963
 30
0.0
 10
144.20894093617
 20
-139.4147460588963
 30
0.0
 10
144.3863633536604
 20
-139.2035617056505
 30
0.0
 10
144.3588025897783
 20
-138.8876464496531
 30
0.0
 10
144.1476182365325
 20
-138.7102240321627
 30
0.0
 10
144.1245360967814
 20
-138.6916205165424
 30
0.0
 10
144.1007649379331
 20
-138.6754285677617
 30
0.0
 10
144.0756157408908
 20
-138.6606146571751
 30
0.0
 10
144.0756157408908
 20
-138.6606146571751
 30
0.0
 10
136.8660644189085
 20
-134.4982502918963
 30
0.0
 10
136.8660644189085
 20
-134.4982502918963
 30
0.0
 10
136.7892387895874
 20
-134.9051160687043
 30
0.0
 10
136.6586696706964
 20
-135.2754638333686
 30
0.0
 10
136.4846923486913
 20
-135.576909688328
 30
0.0
 10
135.8755994668992
 20
-136.6311089068145
 30
0.0
 10
134.8944362727
 20
-136.6214626394558
 30
0.0
 10
134.2922335818783
 20
-135.5562391154165
 30
0.0
 10
134.2922335818783
 20
-135.5562391154165
 30
0.0
 10
134.2918890723298
 20
-135.5555500963195
 30
0.0
 10
134.2918890723298
 20
-135.5555500963195
 30
0.0
 10
133.8829562382307
 20
-134.8313910253199
 30
0.0
 10
133.7399847755928
 20
-133.7661675012807
 30
0.0
 10
133.9222303267625
 20
-132.7980956699255
 30
0.0
  0
POLYLINE
  5
57
330
52
100
AcDbEntity
  8
Layer 1
 62
   240
420
 15539236
370
    18
100
AcDb2dPolyline
 66
     1
 10
0.0
 20
0.0
 30
0.0
  0
VERTEX
  5
58
330
57
100
AcDbEntity
  8
Layer 1
 62
   240
420
 15539236
370
    18
100
AcDbVertex
100
AcDb2dVertex
 10
122.8517604944607
 20
-121.7241807421384
 30
0.0
  0
VERTEX
  5
59
330
57
100
AcDbEntity
  8
Layer 1
 62
   240
420
 15539236
370
    18
100
AcDbVertex
100
AcDb2dVertex
 10
124.7672335842596
 20
-121.7503634678263
 30
0.0
  0
VERTEX
  5
5A
330
57
100
AcDbEntity
  8
Layer 1
 62
   240
420
 15539236
370
    18
100
AcDbVertex
100
AcDb2dVertex
 10
123.9738280940065
 20
-119.7632323919342
 30
0.0
  0
VERTEX
  5
5B
330
57
100
AcDbEntity
  8
Layer 1
 62
   240
420
 15539236
370
    18
100
AcDbVertex
100
AcDb2dVertex
 10
122.8517604944607
 20
-121.7241807421384
 30
0.0
  0
SEQEND
  5
5C
330
57
100
AcDbEntity
  8
Layer 1
370
    18
  0
POLYLINE
  5
5D
330
52
100
AcDbEntity
  8
Layer 1
 62
   240
420
 15539236
370
    18
100
AcDb2dPolyline
 66
     1
 10
0.0
 20
0.0
 30
0.0
  0
VERTEX
  5
5E
330
5D
100
AcDbEntity
  8
Layer 1
 62
   240
420
 15539236
370
    18
100
AcDbVertex
100
AcDb2dVertex
 10
146.2234605211698
 20
-147.4335503103638
 30
0.0
  0
VERTEX
  5
5F
330
5D
100
AcDbEntity
  8
Layer 1
 62
   240
420
 15539236
370
    18
100
AcDbVertex
100
AcDb2dVertex
 10
148.1389336109687
 20
-147.4597330360517
 30
0.0
  0
VERTEX
  5
60
330
5D
100
AcDbEntity
  8
Layer 1
 62
   240
420
 15539236
370
    18
100
AcDbVertex
100
AcDb2dVertex
 10
147.3455281207157
 20
-145.4726019601596
 30
0.0
  0
VERTEX
  5
61
330
5D
100
AcDbEntity
  8
Layer 1
 62
   240
420
 15539236
370
    18
100
AcDbVertex
100
AcDb2dVertex
 10
146.2234605211698
 20
-147.4335503103638
 30
0.0
  0
SEQEND
  5
62
330
5D
100
AcDbEntity
  8
Layer 1
370
    18
  0
ENDBLK
  5
55
330
52
100
AcDbEntity
  8
0
100
AcDbBlockEnd
  0
BLOCK
  5
65
330
63
100
AcDbEntity
  8
0
100
AcDbBlockBegin
  2
block 5
 70
     0
 71
     0
 10
0.0
 20
0.0
 30
0.0
  3
block 5
  1

  0
SPLINE
  5
67
330
63
100
AcDbEntity
  8
Layer 1
 62
     7
420
 16777215
370
    18
100
AcDbSpline
210
0.0
220
0.0
230
1.0
 70
     8
 71
     3
 72
   116
 73
   112
 74
     0
 42
0.0000000001
 43
0.0000000001
 40
0.0
 40
0.0
 40
0.0
 40
0.0
 40
1.0
 40
1.0
 40
1.0
 40
2.0
 40
2.0
 40
2.0
 40
3.0
 40
3.0
 40
3.0
 40
4.0
 40
4.0
 40
4.0
 40
5.0
 40
5.0
 40
5.0
 40
6.0
 40
6.0
 40
6.0
 40
7.0
 40
7.0
 40
7.0
 40
8.0
 40
8.0
 40
8.0
 40
9.0
 40
9.0
 40
9.0
 40
10.0
 40
10.0
 40
10.0
 40
11.0
 40
11.0
 40
11.0
 40
12.0
 40
12.0
 40
12.0
 40
13.0
 40
13.0
 40
13.0
 40
14.0
 40
14.0
 40
14.0
 40
15.0
 40
15.0
 40
15.0
 40
16.0
 40
16.0
 40
16.0
 40
17.0
 40
17.0
 40
17.0
 40
18.0
 40
18.0
 40
18.0
 40
19.0
 40
19.0
 40
19.0
 40
20.0
 40
20.0
 40
20.0
 40
21.0
 40
21.0
 40
21.0
 40
22.0
 40
22.0
 40
22.0
 40
23.0
 40
23.0
 40
23.0
 40
24.0
 40
24.0
 40
24.0
 40
25.0
 40
25.0
 40
25.0
 40
26.0
 40
26.0
 40
26.0
 40
27.0
 40
27.0
 40
27.0
 40
28.0
 40
28.0
 40
28.0
 40
29.0
 40
29.0
 40
29.0
 40
30.0
 40
30.0
 40
30.0
 40
31.0
 40
31.0
 40
31.0
 40
32.0
 40
32.0
 40
32.0
 40
33.0
 40
33.0
 40
33.0
 40
34.0
 40
34.0
 40
34.0
 40
35.0
 40
35.0
 40
35.0
 40
36.0
 40
36.0
 40
36.0
 40
37.0
 40
37.0
 40
37.0
 40
37.0
 10
135.4552978176987
 20
-88.60854489972287
 30
0.0
 10
135.6375433688684
 20
-87.64047306836767
 30
0.0
 10
135.4945719062305
 20
-86.57524954432841
 30
0.0
 10
135.0856390721314
 20
-85.8510904733289
 30
0.0
 10
135.0856390721314
 20
-85.8510904733289
 30
0.0
 10
138.9958224478899
 20
-79.07803274932772
 30
0.0
 10
138.9958224478899
 20
-79.07803274932772
 30
0.0
 10
139.010291848928
 20
-79.05253904273687
 30
0.0
 10
139.0268283072572
 20
-79.02842337434012
 30
0.0
 10
139.0454318228775
 20
-79.00637476323452
 30
0.0
 10
139.2231987499164
 20
-78.79484590044018
 30
0.0
 10
139.5384249868168
 20
-78.76728513655819
 30
0.0
 10
139.7499538496111
 20
-78.94436304450002
 30
0.0
 10
139.7499538496111
 20
-78.94436304450002
 30
0.0
 10
141.1703667181797
 20
-80.13636608239646
 30
0.0
 10
141.1703667181797
 20
-80.13636608239646
 30
0.0
 10
141.3822400905225
 20
-80.31413300943537
 30
0.0
 10
141.6971218178743
 20
-80.28657224555336
 30
0.0
 10
141.8748887449132
 20
-80.07435436366197
 30
0.0
 10
141.8938367700821
 20
-80.05230575255638
 30
0.0
 10
141.9100287188628
 20
-80.02887910325667
 30
0.0
 10
141.9248426294494
 20
-80.00338539666582
 30
0.0
 10
141.9248426294494
 20
-80.00338539666582
 30
0.0
 10
142.6080050641744
 20
-78.82033960703103
 30
0.0
 10
142.6080050641744
 20
-78.82033960703103
 30
0.0
 10
142.7464979026814
 20
-78.58124998035468
 30
0.0
 10
142.6645046301325
 20
-78.2753255012645
 30
0.0
 10
142.4247259843591
 20
-78.13683266275746
 30
0.0
 10
142.3995767873168
 20
-78.12305228081647
 30
0.0
 10
142.3740830807259
 20
-78.11064993706957
 30
0.0
 10
142.3458332977469
 20
-78.10100366971086
 30
0.0
 10
142.3458332977469
 20
-78.10100366971086
 30
0.0
 10
140.602959491759
 20
-77.4657280622308
 30
0.0
 10
140.602959491759
 20
-77.4657280622308
 30
0.0
 10
140.5760877469741
 20
-77.45677081396914
 30
0.0
 10
140.5499050212862
 20
-77.44367945112519
 30
0.0
 10
140.5244113146953
 20
-77.42921005008715
 30
0.0
 10
140.285321688019
 20
-77.29140623067715
 30
0.0
 10
140.204017434567
 20
-76.98617077068401
 30
0.0
 10
140.3418212539771
 20
-76.74639212491063
 30
0.0
 10
140.3418212539771
 20
-76.74639212491063
 30
0.0
 10
142.4495306718529
 20
-73.09527992964286
 30
0.0
 10
142.4495306718529
 20
-73.09527992964286
 30
0.0
 10
142.4495306718529
 20
-73.09527992964286
 30
0.0
 10
147.4835041949
 20
-73.09527992964286
 30
0.0
 10
147.4835041949
 20
-73.09527992964286
 30
0.0
 10
147.4835041949
 20
-73.09527992964286
 30
0.0
 10
147.4835041949
 20
-95.5531683788895
 30
0.0
 10
147.4835041949
 20
-95.5531683788895
 30
0.0
 10
147.4835041949
 20
-95.5531683788895
 30
0.0
 10
147.4835041949
 20
-102.4226887764777
 30
0.0
 10
147.4835041949
 20
-102.4226887764777
 30
0.0
 10
147.4835041949
 20
-102.4226887764777
 30
0.0
 10
125.51688636185
 20
-102.4226887764777
 30
0.0
 10
125.51688636185
 20
-102.4226887764777
 30
0.0
 10
125.51688636185
 20
-102.4226887764777
 30
0.0
 10
120.4829128388029
 20
-102.4226887764777
 30
0.0
 10
120.4829128388029
 20
-102.4226887764777
 30
0.0
 10
120.4829128388029
 20
-102.4226887764777
 30
0.0
 10
120.4829128388029
 20
-79.96411130813398
 30
0.0
 10
120.4829128388029
 20
-79.96411130813398
 30
0.0
 10
120.4829128388029
 20
-79.96411130813398
 30
0.0
 10
122.9706162887018
 20
-81.40071612548316
 30
0.0
 10
122.9706162887018
 20
-81.40071612548316
 30
0.0
 10
123.2100504249267
 20
-81.5392089639902
 30
0.0
 10
123.5163194135654
 20
-81.45721569144125
 30
0.0
 10
123.6537787234268
 20
-81.21812606476492
 30
0.0
 10
123.6685926340134
 20
-81.19263235817407
 30
0.0
 10
123.6806504682118
 20
-81.16644963248616
 30
0.0
 10
123.690641245119
 20
-81.13888886860417
 30
0.0
 10
123.690641245119
 20
-81.13888886860417
 30
0.0
 10
124.324538814405
 20
-79.39567055306776
 30
0.0
 10
124.324538814405
 20
-79.39567055306776
 30
0.0
 10
124.3345295913122
 20
-79.3687988082828
 30
0.0
 10
124.3469319350591
 20
-79.3426160825949
 30
0.0
 10
124.3614013360972
 20
-79.31712237600405
 30
0.0
 10
124.4992051555072
 20
-79.07803274932772
 30
0.0
 10
124.8058186536944
 20
-78.99603947677878
 30
0.0
 10
125.0445637708222
 20
-79.13453231528581
 30
0.0
 10
125.0445637708222
 20
-79.13453231528581
 30
0.0
 10
126.2279540700055
 20
-79.81735024046233
 30
0.0
 10
126.2279540700055
 20
-79.81735024046233
 30
0.0
 10
126.2527587574993
 20
-79.83181964150039
 30
0.0
 10
126.2768744258961
 20
-79.84835609982959
 30
0.0
 10
126.2996120560987
 20
-79.86764863454698
 30
0.0
 10
126.5107964093445
 20
-80.04472654248882
 30
0.0
 10
126.5387016827751
 20
-80.3602972889377
 30
0.0
 10
126.3609347557362
 20
-80.57182615173205
 30
0.0
 10
126.3609347557362
 20
-80.57182615173205
 30
0.0
 10
125.1689317178397
 20
-81.99258352984909
 30
0.0
 10
125.1689317178397
 20
-81.99258352984909
 30
0.0
 10
124.9911647908008
 20
-82.20342337354637
 30
0.0
 10
125.0187255546828
 20
-82.51899411999526
 30
0.0
 10
125.2305989270257
 20
-82.69676104703414
 30
0.0
 10
125.2523030285828
 20
-82.71605358175155
 30
0.0
 10
125.276074187431
 20
-82.7319010209837
 30
0.0
 10
125.3019124035704
 20
-82.7470594411188
 30
0.0
 10
125.3019124035704
 20
-82.7470594411188
 30
0.0
 10
132.5111192160042
 20
-86.90942380639765
 30
0.0
 10
132.5111192160042
 20
-86.90942380639765
 30
0.0
 10
132.3288736648344
 20
-87.87749563775286
 30
0.0
 10
132.4718451274723
 20
-88.9427191617921
 30
0.0
 10
132.8807779615715
 20
-89.66687823279162
 30
0.0
 10
132.8807779615715
 20
-89.66687823279162
 30
0.0
 10
132.88112247112
 20
-89.66756725188867
 30
0.0
 10
132.88112247112
 20
-89.66756725188867
 30
0.0
 10
133.4833251619417
 20
-90.73279077592792
 30
0.0
 10
134.4644883561408
 20
-90.74243704328661
 30
0.0
 10
135.073581237933
 20
-89.68823782480017
 30
0.0
 10
135.2475585599381
 20
-89.38644746029227
 30
0.0
 10
135.3781276788291
 20
-89.01644420517646
 30
0.0
 10
135.4549533081502
 20
-88.60923391881992
 30
0.0
  0
POLYLINE
  5
68
330
63
100
AcDbEntity
  8
Layer 1
 62
   240
420
 15539236
370
    18
100
AcDb2dPolyline
 66
     1
 10
0.0
 20
0.0
 30
0.0
  0
VERTEX
  5
69
330
68
100
AcDbEntity
  8
Layer 1
 62
   240
420
 15539236
370
    18
100
AcDbVertex
100
AcDb2dVertex
 10
122.8517604944607
 20
-99.49125702807858
 30
0.0
  0
VERTEX
  5
6A
330
68
100
AcDbEntity
  8
Layer 1
 62
   240
420
 15539236
370
    18
100
AcDbVertex
100
AcDb2dVertex
 10
120.9362874046618
 20
-99.46507430239068
 30
0.0
  0
VERTEX
  5
6B
330
68
100
AcDbEntity
  8
Layer 1
 62
   240
420
 15539236
370
    18
100
AcDbVertex
100
AcDb2dVertex
 10
121.7296928949148
 20
-101.4522053782828
 30
0.0
  0
VERTEX
  5
6C
330
68
100
AcDbEntity
  8
Layer 1
 62
   240
420
 15539236
370
    18
100
AcDbVertex
100
AcDb2dVertex
 10
122.8517604944607
 20
-99.49125702807858
 30
0.0
  0
SEQEND
  5
6D
330
68
100
AcDbEntity
  8
Layer 1
370
    18
  0
POLYLINE
  5
6E
330
63
100
AcDbEntity
  8
Layer 1
 62
   240
420
 15539236
370
    18
100
AcDb2dPolyline
 66
     1
 10
0.0
 20
0.0
 30
0.0
  0
VERTEX
  5
6F
330
6E
100
AcDbEntity
  8
Layer 1
 62
   240
420
 15539236
370
    18
100
AcDbVertex
100
AcDb2dVertex
 10
122.95235728263
 20
-98.70233016195637
 30
0.0
  0
VERTEX
  5
70
330
6E
100
AcDbEntity
  8
Layer 1
 62
   240
420
 15539236
370
    18
100
AcDbVertex
100
AcDb2dVertex
 10
120.8356906164925
 20
-98.70233016195637
 30
0.0
  0
SEQEND
  5
71
330
6E
100
AcDbEntity
  8
Layer 1
370
    18
  0
POLYLINE
  5
72
330
63
100
AcDbEntity
  8
Layer 1
 62
   240
420
 15539236
370
    18
100
AcDb2dPolyline
 66
     1
 10
0.0
 20
0.0
 30
0.0
  0
VERTEX
  5
73
330
72
100
AcDbEntity
  8
Layer 1
 62
   240
420
 15539236
370
    18
100
AcDbVertex
100
AcDb2dVertex
 10
144.3079874313709
 20
-75.91784666070804
 30
0.0
  0
VERTEX
  5
74
330
72
100
AcDbEntity
  8
Layer 1
 62
   240
420
 15539236
370
    18
100
AcDbVertex
100
AcDb2dVertex
 10
146.2234605211698
 20
-75.94402938639594
 30
0.0
  0
VERTEX
  5
75
330
72
100
AcDbEntity
  8
Layer 1
 62
   240
420
 15539236
370
    18
100
AcDbVertex
100
AcDb2dVertex
 10
145.4300550309168
 20
-73.95689831050383
 30
0.0
  0
VERTEX
  5
76
330
72
100
AcDbEntity
  8
Layer 1
 62
   240
420
 15539236
370
    18
100
AcDbVertex
100
AcDb2dVertex
 10
144.3079874313709
 20
-75.91784666070804
 30
0.0
  0
SEQEND
  5
77
330
72
100
AcDbEntity
  8
Layer 1
370
    18
  0
POLYLINE
  5
78
330
63
100
AcDbEntity
  8
Layer 1
 62
   240
420
 15539236
370
    18
100
AcDb2dPolyline
 66
     1
 10
0.0
 20
0.0
 30
0.0
  0
VERTEX
  5
79
330
78
100
AcDbEntity
  8
Layer 1
 62
   240
420
 15539236
370
    18
100
AcDbVertex
100
AcDb2dVertex
 10
144.2073906432016
 20
-76.70677352683026
 30
0.0
  0
VERTEX
  5
7A
330
78
100
AcDbEntity
  8
Layer 1
 62
   240
420
 15539236
370
    18
100
AcDbVertex
100
AcDb2dVertex
 10
146.3240573093391
 20
-76.70677352683026
 30
0.0
  0
SEQEND
  5
7B
330
78
100
AcDbEntity
  8
Layer 1
370
    18
  0
ENDBLK
  5
66
330
63
100
AcDbEntity
  8
0
100
AcDbBlockEnd
  0
BLOCK
  5
7E
330
7C
100
AcDbEntity
  8
0
100
AcDbBlockBegin
  2
block 6
 70
     0
 71
     0
 10
0.0
 20
0.0
 30
0.0
  3
block 6
  1

  0
SPLINE
  5
80
330
7C
100
AcDbEntity
  8
Layer 1
 62
     7
420
 16777215
370
    18
100
AcDbSpline
210
0.0
220
0.0
230
1.0
 70
    11
 71
     3
 72
   110
 73
   106
 74
     0
 42
0.0000000001
 43
0.0000000001
 40
0.0
 40
0.0
 40
0.0
 40
0.0
 40
1.0
 40
1.0
 40
1.0
 40
2.0
 40
2.0
 40
2.0
 40
3.0
 40
3.0
 40
3.0
 40
4.0
 40
4.0
 40
4.0
 40
5.0
 40
5.0
 40
5.0
 40
6.0
 40
6.0
 40
6.0
 40
7.0
 40
7.0
 40
7.0
 40
8.0
 40
8.0
 40
8.0
 40
9.0
 40
9.0
 40
9.0
 40
10.0
 40
10.0
 40
10.0
 40
11.0
 40
11.0
 40
11.0
 40
12.0
 40
12.0
 40
12.0
 40
13.0
 40
13.0
 40
13.0
 40
14.0
 40
14.0
 40
14.0
 40
15.0
 40
15.0
 40
15.0
 40
16.0
 40
16.0
 40
16.0
 40
17.0
 40
17.0
 40
17.0
 40
18.0
 40
18.0
 40
18.0
 40
19.0
 40
19.0
 40
19.0
 40
20.0
 40
20.0
 40
20.0
 40
21.0
 40
21.0
 40
21.0
 40
22.0
 40
22.0
 40
22.0
 40
23.0
 40
23.0
 40
23.0
 40
24.0
 40
24.0
 40
24.0
 40
25.0
 40
25.0
 40
25.0
 40
26.0
 40
26.0
 40
26.0
 40
27.0
 40
27.0
 40
27.0
 40
28.0
 40
28.0
 40
28.0
 40
29.0
 40
29.0
 40
29.0
 40
30.0
 40
30.0
 40
30.0
 40
31.0
 40
31.0
 40
31.0
 40
32.0
 40
32.0
 40
32.0
 40
33.0
 40
33.0
 40
33.0
 40
34.0
 40
34.0
 40
34.0
 40
35.0
 40
35.0
 40
35.0
 40
35.0
 10
92.95591089255964
 20
-144.5906575159357
 30
0.0
 10
92.95591089255964
 20
-144.5906575159357
 30
0.0
 10
92.95591089255964
 20
-129.9269530925183
 30
0.0
 10
92.95591089255964
 20
-129.9269530925183
 30
0.0
 10
92.95591089255964
 20
-129.9269530925183
 30
0.0
 10
92.17197941489104
 20
-129.9269530925183
 30
0.0
 10
92.17197941489104
 20
-129.9269530925183
 30
0.0
 10
91.89585501174827
 20
-129.9269530925183
 30
0.0
 10
91.67192380520703
 20
-130.1508842990595
 30
0.0
 10
91.67192380520703
 20
-130.4271809569765
 30
0.0
 10
91.67192380520703
 20
-130.4561197590527
 30
0.0
 10
91.67450762682095
 20
-130.4854030706773
 30
0.0
 10
91.67950301527458
 20
-130.5139973632049
 30
0.0
 10
91.67950301527458
 20
-130.5139973632049
 30
0.0
 10
92.00161944314543
 20
-132.3405869894843
 30
0.0
 10
92.00161944314543
 20
-132.3405869894843
 30
0.0
 10
92.00661483159905
 20
-132.3688367724633
 30
0.0
 10
92.00919865321298
 20
-132.398120084088
 30
0.0
 10
92.00919865321298
 20
-132.4274033957126
 30
0.0
 10
92.00919865321298
 20
-132.7033555440811
 30
0.0
 10
91.78526744667174
 20
-132.9269422410738
 30
0.0
 10
91.50914304352897
 20
-132.9269422410738
 30
0.0
 10
91.50914304352897
 20
-132.9269422410738
 30
0.0
 10
90.14299042885314
 20
-132.9269422410738
 30
0.0
 10
90.14299042885314
 20
-132.9269422410738
 30
0.0
 10
90.11387937200278
 20
-132.9269422410738
 30
0.0
 10
90.08476831515242
 20
-132.9248751837827
 30
0.0
 10
90.05617402262484
 20
-132.9193630310063
 30
0.0
 10
89.78418373406437
 20
-132.8718207133098
 30
0.0
 10
89.60262720199171
 20
-132.6124050232705
 30
0.0
 10
89.65051402923667
 20
-132.3405869894843
 30
0.0
 10
89.65051402923667
 20
-132.3405869894843
 30
0.0
 10
89.97263045710754
 20
-130.5139973632049
 30
0.0
 10
89.97263045710754
 20
-130.5139973632049
 30
0.0
 10
90.02051728435251
 20
-130.2418348198701
 30
0.0
 10
89.83896075227985
 20
-129.9827636393793
 30
0.0
 10
89.56697046371937
 20
-129.9348768121343
 30
0.0
 10
89.5383761711918
 20
-129.9297091689065
 30
0.0
 10
89.50926511434143
 20
-129.9269530925183
 30
0.0
 10
89.48015405749108
 20
-129.9269530925183
 30
0.0
 10
89.48015405749108
 20
-129.9269530925183
 30
0.0
 10
81.00590818287353
 20
-129.9269530925183
 30
0.0
 10
81.00590818287353
 20
-129.9269530925183
 30
0.0
 10
81.00590818287353
 20
-131.4259141381505
 30
0.0
 10
80.31206595214421
 20
-132.6409993157981
 30
0.0
 10
79.45595972405962
 20
-132.6409993157981
 30
0.0
 10
78.59985349597504
 20
-132.6409993157981
 30
0.0
 10
77.90601126524572
 20
-131.4255696286019
 30
0.0
 10
77.90601126524572
 20
-129.9269530925183
 30
0.0
 10
77.90601126524572
 20
-128.4283365564346
 30
0.0
 10
78.59985349597504
 20
-127.2135958883355
 30
0.0
 10
79.45595972405962
 20
-127.2135958883355
 30
0.0
 10
79.45595972405962
 20
-127.2135958883355
 30
0.0
 10
79.45595972405962
 20
-119.9031032686353
 30
0.0
 10
79.45595972405962
 20
-119.9031032686353
 30
0.0
 10
79.45595972405962
 20
-119.8734754474622
 30
0.0
 10
79.4583712908993
 20
-119.8445366453861
 30
0.0
 10
79.46353893412717
 20
-119.816286862407
 30
0.0
 10
79.51142576137215
 20
-119.5441243190723
 30
0.0
 10
79.77084145141146
 20
-119.3622232774511
 30
0.0
 10
80.04265948519767
 20
-119.4104546142446
 30
0.0
 10
80.04265948519767
 20
-119.4104546142446
 30
0.0
 10
81.86924911147713
 20
-119.732226532567
 30
0.0
 10
81.86924911147713
 20
-119.732226532567
 30
0.0
 10
82.14106714526335
 20
-119.7804578693604
 30
0.0
 10
82.40048283530265
 20
-119.5985568277393
 30
0.0
 10
82.44836966254763
 20
-119.3270833035016
 30
0.0
 10
82.45353730577551
 20
-119.2981445014255
 30
0.0
 10
82.45594887261518
 20
-119.2692056993494
 30
0.0
 10
82.45594887261518
 20
-119.2402668972733
 30
0.0
 10
82.45594887261518
 20
-119.2402668972733
 30
0.0
 10
82.45594887261518
 20
-117.8739420278232
 30
0.0
 10
82.45594887261518
 20
-117.8739420278232
 30
0.0
 10
82.45594887261518
 20
-117.5976453699061
 30
0.0
 10
82.23201766607394
 20
-117.3737141633649
 30
0.0
 10
81.95606551770543
 20
-117.3737141633649
 30
0.0
 10
81.9267822060808
 20
-117.3737141633649
 30
0.0
 10
81.8978434040047
 20
-117.3764702397531
 30
0.0
 10
81.86924911147713
 20
-117.3812933734325
 30
0.0
 10
81.86924911147713
 20
-117.3812933734325
 30
0.0
 10
80.04265948519767
 20
-117.7037543108518
 30
0.0
 10
80.04265948519767
 20
-117.7037543108518
 30
0.0
 10
80.0140651926701
 20
-117.7085774445312
 30
0.0
 10
79.985126390594
 20
-117.7113335209194
 30
0.0
 10
79.95584307896938
 20
-117.7113335209194
 30
0.0
 10
79.67989093060086
 20
-117.7113335209194
 30
0.0
 10
79.45595972405962
 20
-117.4874023143782
 30
0.0
 10
79.45595972405962
 20
-117.2111056564611
 30
0.0
 10
79.45595972405962
 20
-117.2111056564611
 30
0.0
 10
79.45595972405962
 20
-115.2632486691009
 30
0.0
 10
79.45595972405962
 20
-115.2632486691009
 30
0.0
 10
79.45595972405962
 20
-115.2632486691009
 30
0.0
 10
65.9560085555596
 20
-115.2632486691009
 30
0.0
 10
65.9560085555596
 20
-115.2632486691009
 30
0.0
 10
65.9560085555596
 20
-115.2632486691009
 30
0.0
 10
65.9560085555596
 20
-129.9269530925183
 30
0.0
 10
65.9560085555596
 20
-129.9269530925183
 30
0.0
 10
65.9560085555596
 20
-129.9269530925183
 30
0.0
 10
65.9560085555596
 20
-144.5906575159357
 30
0.0
 10
65.9560085555596
 20
-144.5906575159357
 30
0.0
 10
65.9560085555596
 20
-144.5906575159357
 30
0.0
 10
79.45595972405962
 20
-144.5906575159357
 30
0.0
 10
79.45595972405962
 20
-144.5906575159357
 30
0.0
 10
79.45595972405962
 20
-144.5906575159357
 30
0.0
 10
92.95591089255964
 20
-144.5906575159357
 30
0.0
 10
92.95591089255964
 20
-144.5906575159357
 30
0.0
  0
POLYLINE
  5
81
330
7C
100
AcDbEntity
  8
Layer 1
 62
   240
420
 15539236
370
    18
100
AcDb2dPolyline
 66
     1
 10
0.0
 20
0.0
 30
0.0
  0
VERTEX
  5
82
330
81
100
AcDbEntity
  8
Layer 1
 62
   240
420
 15539236
370
    18
100
AcDbVertex
100
AcDb2dVertex
 10
68.48229707489332
 20
-117.8015950226329
 30
0.0
  0
VERTEX
  5
83
330
81
100
AcDbEntity
  8
Layer 1
 62
   240
420
 15539236
370
    18
100
AcDbVertex
100
AcDb2dVertex
 10
66.76457246594775
 20
-117.8015950226329
 30
0.0
  0
VERTEX
  5
84
330
81
100
AcDbEntity
  8
Layer 1
 62
   240
420
 15539236
370
    18
100
AcDbVertex
100
AcDb2dVertex
 10
66.76457246594775
 20
-116.0838704136874
 30
0.0
  0
VERTEX
  5
85
330
81
100
AcDbEntity
  8
Layer 1
 62
   240
420
 15539236
370
    18
100
AcDbVertex
100
AcDb2dVertex
 10
68.48229707489332
 20
-116.0838704136874
 30
0.0
  0
VERTEX
  5
86
330
81
100
AcDbEntity
  8
Layer 1
 62
   240
420
 15539236
370
    18
100
AcDbVertex
100
AcDb2dVertex
 10
68.48229707489332
 20
-117.8015950226329
 30
0.0
  0
SEQEND
  5
87
330
81
100
AcDbEntity
  8
Layer 1
370
    18
  0
POLYLINE
  5
88
330
7C
100
AcDbEntity
  8
Layer 1
 62
   240
420
 15539236
370
    18
100
AcDb2dPolyline
 66
     1
 10
0.0
 20
0.0
 30
0.0
  0
VERTEX
  5
89
330
88
100
AcDbEntity
  8
Layer 1
 62
   240
420
 15539236
370
    18
100
AcDbVertex
100
AcDb2dVertex
 10
92.40366208627408
 20
-144.1317707973004
 30
0.0
  0
VERTEX
  5
8A
330
88
100
AcDbEntity
  8
Layer 1
 62
   240
420
 15539236
370
    18
100
AcDbVertex
100
AcDb2dVertex
 10
90.68593747732852
 20
-144.1317707973004
 30
0.0
  0
VERTEX
  5
8B
330
88
100
AcDbEntity
  8
Layer 1
 62
   240
420
 15539236
370
    18
100
AcDbVertex
100
AcDb2dVertex
 10
90.68593747732852
 20
-142.4140461883548
 30
0.0
  0
VERTEX
  5
8C
330
88
100
AcDbEntity
  8
Layer 1
 62
   240
420
 15539236
370
    18
100
AcDbVertex
100
AcDb2dVertex
 10
92.40366208627408
 20
-142.4140461883548
 30
0.0
  0
VERTEX
  5
8D
330
88
100
AcDbEntity
  8
Layer 1
 62
   240
420
 15539236
370
    18
100
AcDbVertex
100
AcDb2dVertex
 10
92.40366208627408
 20
-144.1317707973004
 30
0.0
  0
SEQEND
  5
8E
330
88
100
AcDbEntity
  8
Layer 1
370
    18
  0
ENDBLK
  5
7F
330
7C
100
AcDbEntity
  8
0
100
AcDbBlockEnd
  0
BLOCK
  5
91
330
8F
100
AcDbEntity
  8
0
100
AcDbBlockBegin
  2
block 7
 70
     0
 71
     0
 10
0.0
 20
0.0
 30
0.0
  3
block 7
  1

  0
SPLINE
  5
93
330
8F
100
AcDbEntity
  8
Layer 1
 62
     7
420
 16777215
370
    18
100
AcDbSpline
210
0.0
220
0.0
230
1.0
 70
    11
 71
     3
 72
   110
 73
   106
 74
     0
 42
0.0000000001
 43
0.0000000001
 40
0.0
 40
0.0
 40
0.0
 40
0.0
 40
1.0
 40
1.0
 40
1.0
 40
2.0
 40
2.0
 40
2.0
 40
3.0
 40
3.0
 40
3.0
 40
4.0
 40
4.0
 40
4.0
 40
5.0
 40
5.0
 40
5.0
 40
6.0
 40
6.0
 40
6.0
 40
7.0
 40
7.0
 40
7.0
 40
8.0
 40
8.0
 40
8.0
 40
9.0
 40
9.0
 40
9.0
 40
10.0
 40
10.0
 40
10.0
 40
11.0
 40
11.0
 40
11.0
 40
12.0
 40
12.0
 40
12.0
 40
13.0
 40
13.0
 40
13.0
 40
14.0
 40
14.0
 40
14.0
 40
15.0
 40
15.0
 40
15.0
 40
16.0
 40
16.0
 40
16.0
 40
17.0
 40
17.0
 40
17.0
 40
18.0
 40
18.0
 40
18.0
 40
19.0
 40
19.0
 40
19.0
 40
20.0
 40
20.0
 40
20.0
 40
21.0
 40
21.0
 40
21.0
 40
22.0
 40
22.0
 40
22.0
 40
23.0
 40
23.0
 40
23.0
 40
24.0
 40
24.0
 40
24.0
 40
25.0
 40
25.0
 40
25.0
 40
26.0
 40
26.0
 40
26.0
 40
27.0
 40
27.0
 40
27.0
 40
28.0
 40
28.0
 40
28.0
 40
29.0
 40
29.0
 40
29.0
 40
30.0
 40
30.0
 40
30.0
 40
31.0
 40
31.0
 40
31.0
 40
32.0
 40
32.0
 40
32.0
 40
33.0
 40
33.0
 40
33.0
 40
34.0
 40
34.0
 40
34.0
 40
35.0
 40
35.0
 40
35.0
 40
35.0
 10
91.5447997818013
 20
-98.70233016195637
 30
0.0
 10
91.5447997818013
 20
-98.70233016195637
 30
0.0
 10
91.5447997818013
 20
-84.03862573853895
 30
0.0
 10
91.5447997818013
 20
-84.03862573853895
 30
0.0
 10
91.5447997818013
 20
-84.03862573853895
 30
0.0
 10
91.5447997818013
 20
-69.37492131512155
 30
0.0
 10
91.5447997818013
 20
-69.37492131512155
 30
0.0
 10
91.5447997818013
 20
-69.37492131512155
 30
0.0
 10
78.0448486133013
 20
-69.37492131512155
 30
0.0
 10
78.0448486133013
 20
-69.37492131512155
 30
0.0
 10
78.0448486133013
 20
-69.37492131512155
 30
0.0
 10
78.0448486133013
 20
-71.32243379293328
 30
0.0
 10
78.0448486133013
 20
-71.32243379293328
 30
0.0
 10
78.0448486133013
 20
-71.59873045085033
 30
0.0
 10
78.26877981984254
 20
-71.82266165739156
 30
0.0
 10
78.54473196821104
 20
-71.82266165739156
 30
0.0
 10
78.57401527983566
 20
-71.82266165739156
 30
0.0
 10
78.60295408191176
 20
-71.81990558100335
 30
0.0
 10
78.63154837443933
 20
-71.81508244732402
 30
0.0
 10
78.63154837443933
 20
-71.81508244732402
 30
0.0
 10
80.4581380007188
 20
-71.49296601945315
 30
0.0
 10
80.4581380007188
 20
-71.49296601945315
 30
0.0
 10
80.48673229324638
 20
-71.48779837622527
 30
0.0
 10
80.51567109532247
 20
-71.4853868093856
 30
0.0
 10
80.5449544069471
 20
-71.4853868093856
 30
0.0
 10
80.82090655531562
 20
-71.4853868093856
 30
0.0
 10
81.04483776185685
 20
-71.70897350637831
 30
0.0
 10
81.04483776185685
 20
-71.98527016429536
 30
0.0
 10
81.04483776185685
 20
-71.98527016429536
 30
0.0
 10
81.04483776185685
 20
-73.35159503374544
 30
0.0
 10
81.04483776185685
 20
-73.35159503374544
 30
0.0
 10
81.04483776185685
 20
-73.38053383582154
 30
0.0
 10
81.04242619501717
 20
-73.40947263789764
 30
0.0
 10
81.03725855178931
 20
-73.43841143997373
 30
0.0
 10
80.98937172454433
 20
-73.71022947375995
 30
0.0
 10
80.72995603450501
 20
-73.89178600583261
 30
0.0
 10
80.4581380007188
 20
-73.84389917858763
 30
0.0
 10
80.4581380007188
 20
-73.84389917858763
 30
0.0
 10
78.63154837443933
 20
-73.52178275071678
 30
0.0
 10
78.63154837443933
 20
-73.52178275071678
 30
0.0
 10
78.35973034065313
 20
-73.4738959234718
 30
0.0
 10
78.10031465061381
 20
-73.65545245554448
 30
0.0
 10
78.05242782336884
 20
-73.9276149988792
 30
0.0
 10
78.04726018014097
 20
-73.95620929140678
 30
0.0
 10
78.0448486133013
 20
-73.98514809348288
 30
0.0
 10
78.0448486133013
 20
-74.0144314051075
 30
0.0
 10
78.0448486133013
 20
-74.0144314051075
 30
0.0
 10
78.0448486133013
 20
-81.32492402480766
 30
0.0
 10
78.0448486133013
 20
-81.32492402480766
 30
0.0
 10
78.90095484138588
 20
-81.32492402480766
 30
0.0
 10
79.5947970721152
 20
-82.54000920245528
 30
0.0
 10
79.5947970721152
 20
-84.03862573853895
 30
0.0
 10
79.5947970721152
 20
-85.53758678417117
 30
0.0
 10
78.90095484138588
 20
-86.75232745227025
 30
0.0
 10
78.0448486133013
 20
-86.75232745227025
 30
0.0
 10
77.18874238521671
 20
-86.75232745227025
 30
0.0
 10
76.4949001544874
 20
-85.53724227462264
 30
0.0
 10
76.4949001544874
 20
-84.03862573853895
 30
0.0
 10
76.4949001544874
 20
-84.03862573853895
 30
0.0
 10
68.02065427986985
 20
-84.03862573853895
 30
0.0
 10
68.02065427986985
 20
-84.03862573853895
 30
0.0
 10
67.99154322301948
 20
-84.03862573853895
 30
0.0
 10
67.96243216616912
 20
-84.03621417169929
 30
0.0
 10
67.93383787364155
 20
-84.0310465284714
 30
0.0
 10
67.66184758508106
 20
-83.98315970122644
 30
0.0
 10
67.4802910530084
 20
-83.72374401118712
 30
0.0
 10
67.52817788025338
 20
-83.4519259774009
 30
0.0
 10
67.52817788025338
 20
-83.4519259774009
 30
0.0
 10
67.85029430812423
 20
-81.62568086066997
 30
0.0
 10
67.85029430812423
 20
-81.62568086066997
 30
0.0
 10
67.89818113536921
 20
-81.35351831733523
 30
0.0
 10
67.71662460329654
 20
-81.09410262729592
 30
0.0
 10
67.44463431473606
 20
-81.04621580005094
 30
0.0
 10
67.41604002220849
 20
-81.0413926663716
 30
0.0
 10
67.38692896535814
 20
-81.0386365899834
 30
0.0
 10
67.35781790850777
 20
-81.0386365899834
 30
0.0
 10
67.35781790850777
 20
-81.0386365899834
 30
0.0
 10
65.99166529383194
 20
-81.0386365899834
 30
0.0
 10
65.99166529383194
 20
-81.0386365899834
 30
0.0
 10
65.71554089068917
 20
-81.0386365899834
 30
0.0
 10
65.49160968414793
 20
-81.26256779652464
 30
0.0
 10
65.49160968414793
 20
-81.53886445444168
 30
0.0
 10
65.49160968414793
 20
-81.56780325651778
 30
0.0
 10
65.49419350576187
 20
-81.59674205859388
 30
0.0
 10
65.49918889421548
 20
-81.62568086066997
 30
0.0
 10
65.49918889421548
 20
-81.62568086066997
 30
0.0
 10
65.82130532208635
 20
-83.4519259774009
 30
0.0
 10
65.82130532208635
 20
-83.4519259774009
 30
0.0
 10
65.82630071053995
 20
-83.48052026992849
 30
0.0
 10
65.8288845321539
 20
-83.50945907200459
 30
0.0
 10
65.8288845321539
 20
-83.53874238362921
 30
0.0
 10
65.8288845321539
 20
-83.81469453199772
 30
0.0
 10
65.60495332561266
 20
-84.03862573853895
 30
0.0
 10
65.32882892246988
 20
-84.03862573853895
 30
0.0
 10
65.32882892246988
 20
-84.03862573853895
 30
0.0
 10
64.54489744480128
 20
-84.03862573853895
 30
0.0
 10
64.54489744480128
 20
-84.03862573853895
 30
0.0
 10
64.54489744480128
 20
-84.03862573853895
 30
0.0
 10
64.54489744480128
 20
-98.70233016195637
 30
0.0
 10
64.54489744480128
 20
-98.70233016195637
 30
0.0
 10
64.54489744480128
 20
-98.70233016195637
 30
0.0
 10
78.0448486133013
 20
-98.70233016195637
 30
0.0
 10
78.0448486133013
 20
-98.70233016195637
 30
0.0
 10
78.0448486133013
 20
-98.70233016195637
 30
0.0
 10
91.5447997818013
 20
-98.70233016195637
 30
0.0
 10
91.5447997818013
 20
-98.70233016195637
 30
0.0
  0
POLYLINE
  5
94
330
8F
100
AcDbEntity
  8
Layer 1
 62
   240
420
 15539236
370
    18
100
AcDb2dPolyline
 66
     1
 10
0.0
 20
0.0
 30
0.0
  0
VERTEX
  5
95
330
94
100
AcDbEntity
  8
Layer 1
 62
   240
420
 15539236
370
    18
100
AcDbVertex
100
AcDb2dVertex
 10
90.33350420918747
 20
-72.55784503394388
 30
0.0
  0
VERTEX
  5
96
330
94
100
AcDbEntity
  8
Layer 1
 62
   240
420
 15539236
370
    18
100
AcDbVertex
100
AcDb2dVertex
 10
88.6157796002419
 20
-72.55784503394388
 30
0.0
  0
VERTEX
  5
97
330
94
100
AcDbEntity
  8
Layer 1
 62
   240
420
 15539236
370
    18
100
AcDbVertex
100
AcDb2dVertex
 10
88.6157796002419
 20
-70.8401204249983
 30
0.0
  0
VERTEX
  5
98
330
94
100
AcDbEntity
  8
Layer 1
 62
   240
420
 15539236
370
    18
100
AcDbVertex
100
AcDb2dVertex
 10
90.33350420918747
 20
-70.8401204249983
 30
0.0
  0
VERTEX
  5
99
330
94
100
AcDbEntity
  8
Layer 1
 62
   240
420
 15539236
370
    18
100
AcDbVertex
100
AcDb2dVertex
 10
90.33350420918747
 20
-72.55784503394388
 30
0.0
  0
SEQEND
  5
9A
330
94
100
AcDbEntity
  8
Layer 1
370
    18
  0
POLYLINE
  5
9B
330
8F
100
AcDbEntity
  8
Layer 1
 62
   240
420
 15539236
370
    18
100
AcDb2dPolyline
 66
     1
 10
0.0
 20
0.0
 30
0.0
  0
VERTEX
  5
9C
330
9B
100
AcDbEntity
  8
Layer 1
 62
   240
420
 15539236
370
    18
100
AcDbVertex
100
AcDb2dVertex
 10
88.6157796002419
 20
-73.09527992964286
 30
0.0
  0
VERTEX
  5
9D
330
9B
100
AcDbEntity
  8
Layer 1
 62
   240
420
 15539236
370
    18
100
AcDbVertex
100
AcDb2dVertex
 10
90.33350420918747
 20
-73.09527992964286
 30
0.0
  0
SEQEND
  5
9E
330
9B
100
AcDbEntity
  8
Layer 1
370
    18
  0
POLYLINE
  5
9F
330
8F
100
AcDbEntity
  8
Layer 1
 62
   240
420
 15539236
370
    18
100
AcDb2dPolyline
 66
     1
 10
0.0
 20
0.0
 30
0.0
  0
VERTEX
  5
A0
330
9F
100
AcDbEntity
  8
Layer 1
 62
   240
420
 15539236
370
    18
100
AcDbVertex
100
AcDb2dVertex
 10
65.09714625108683
 20
-95.91008027116138
 30
0.0
  0
VERTEX
  5
A1
330
9F
100
AcDbEntity
  8
Layer 1
 62
   240
420
 15539236
370
    18
100
AcDbVertex
100
AcDb2dVertex
 10
66.8148708600324
 20
-95.91008027116138
 30
0.0
  0
VERTEX
  5
A2
330
9F
100
AcDbEntity
  8
Layer 1
 62
   240
420
 15539236
370
    18
100
AcDbVertex
100
AcDb2dVertex
 10
66.8148708600324
 20
-97.62780488010694
 30
0.0
  0
VERTEX
  5
A3
330
9F
100
AcDbEntity
  8
Layer 1
 62
   240
420
 15539236
370
    18
100
AcDbVertex
100
AcDb2dVertex
 10
65.09714625108683
 20
-97.62780488010694
 30
0.0
  0
VERTEX
  5
A4
330
9F
100
AcDbEntity
  8
Layer 1
 62
   240
420
 15539236
370
    18
100
AcDbVertex
100
AcDb2dVertex
 10
65.09714625108683
 20
-95.91008027116138
 30
0.0
  0
SEQEND
  5
A5
330
9F
100
AcDbEntity
  8
Layer 1
370
    18
  0
POLYLINE
  5
A6
330
8F
100
AcDbEntity
  8
Layer 1
 62
   240
420
 15539236
370
    18
100
AcDb2dPolyline
 66
     1
 10
0.0
 20
0.0
 30
0.0
  0
VERTEX
  5
A7
330
A6
100
AcDbEntity
  8
Layer 1
 62
   240
420
 15539236
370
    18
100
AcDbVertex
100
AcDb2dVertex
 10
66.8148708600324
 20
-95.3726453754624
 30
0.0
  0
VERTEX
  5
A8
330
A6
100
AcDbEntity
  8
Layer 1
 62
   240
420
 15539236
370
    18
100
AcDbVertex
100
AcDb2dVertex
 10
65.09714625108683
 20
-95.3726453754624
 30
0.0
  0
SEQEND
  5
A9
330
A6
100
AcDbEntity
  8
Layer 1
370
    18
  0
ENDBLK
  5
92
330
8F
100
AcDbEntity
  8
0
100
AcDbBlockEnd
  0
ENDSEC
  0
SECTION
  2
ENTITIES
  0
INSERT
  5
3D
330
1F
100
AcDbEntity
  8
Layer 1
100
AcDbBlockReference
  2
block 2
 10
0.0
 20
0.0
 30
0.0
  0
INSERT
  5
44
330
1F
100
AcDbEntity
  8
Layer 1
100
AcDbBlockReference
  2
block 3
 10
0.0
 20
0.0
 30
0.0
  0
INSERT
  5
53
330
1F
100
AcDbEntity
  8
Layer 1
100
AcDbBlockReference
  2
block 4
 10
0.0
 20
0.0
 30
0.0
  0
INSERT
  5
64
330
1F
100
AcDbEntity
  8
Layer 1
100
AcDbBlockReference
  2
block 5
 10
0.0
 20
0.0
 30
0.0
  0
INSERT
  5
7D
330
1F
100
AcDbEntity
  8
Layer 1
100
AcDbBlockReference
  2
block 6
 10
0.0
 20
0.0
 30
0.0
  0
INSERT
  5
90
330
1F
100
AcDbEntity
  8
Layer 1
100
AcDbBlockReference
  2
block 7
 10
0.0
 20
0.0
 30
0.0
  0
ENDSEC
  0
SECTION
  2
OBJECTS
  0
DICTIONARY
  5
C
330
0
100
AcDbDictionary
281
     1
  3
ACAD_GROUP
350
D
  3
ACAD_LAYOUT
350
1A
  3
ACAD_MLINESTYLE
350
17
  3
ACAD_PLOTSETTINGS
350
19
  3
ACAD_PLOTSTYLENAME
350
E
  3
ACAD_TABLESTYLE
350
AA
  3
ACAD_VISUALSTYLE
350
2A
  0
DICTIONARY
  5
D
102
{ACAD_REACTORS
330
C
102
}
330
C
100
AcDbDictionary
281
     1
  0
DICTIONARY
  5
1A
102
{ACAD_REACTORS
330
C
102
}
330
C
100
AcDbDictionary
281
     1
  3
Layout1
350
1E
  3
Layout2
350
26
  3
Model
350
22
  0
DICTIONARY
  5
17
102
{ACAD_REACTORS
330
C
102
}
330
C
100
AcDbDictionary
281
     1
  3
Standard
350
18
  0
DICTIONARY
  5
19
102
{ACAD_REACTORS
330
C
102
}
330
C
100
AcDbDictionary
281
     1
  0
ACDBDICTIONARYWDFLT
  5
E
102
{ACAD_REACTORS
330
C
102
}
330
C
100
AcDbDictionary
281
     1
  3
Normal
350
F
100
AcDbDictionaryWithDefault
340
F
  0
DICTIONARY
  5
AA
102
{ACAD_REACTORS
330
C
102
}
330
C
100
AcDbDictionary
281
     1
  0
DICTIONARY
  5
2A
102
{ACAD_REACTORS
330
C
102
}
330
C
100
AcDbDictionary
281
     1
  3
2dWireframe
350
2F
  3
3D Hidden
350
31
  3
3dWireframe
350
30
  3
Basic
350
32
  3
Brighten
350
36
  3
ColorChange
350
3A
  3
Conceptual
350
34
  3
Dim
350
35
  3
Facepattern
350
39
  3
Flat
350
2B
  3
FlatWithEdges
350
2C
  3
Gouraud
350
2D
  3
GouraudWithEdges
350
2E
  3
Linepattern
350
38
  3
Realistic
350
33
  3
Thicken
350
37
  0
LAYOUT
  5
1E
102
{ACAD_REACTORS
330
1A
102
}
330
1A
100
AcDbPlotSettings
  1

  2
none_device
  4

  6

 40
0.0
 41
0.0
 42
0.0
 43
0.0
 44
0.0
 45
0.0
 46
0.0
 47
0.0
 48
0.0
 49
0.0
140
0.0
141
0.0
142
1.0
143
1.0
 70
   688
 72
     0
 73
     0
 74
     5
  7

 75
    16
 76
     0
 77
     2
 78
   300
147
1.0
148
0.0
149
0.0
100
AcDbLayout
  1
Layout1
 70
     1
 71
     1
 10
0.0
 20
0.0
 11
12.0
 21
9.0
 12
0.0
 22
0.0
 32
0.0
 14
1.000000000000000E+20
 24
1.000000000000000E+20
 34
1.000000000000000E+20
 15
-1.000000000000000E+20
 25
-1.000000000000000E+20
 35
-1.000000000000000E+20
146
0.0
 13
0.0
 23
0.0
 33
0.0
 16
1.0
 26
0.0
 36
0.0
 17
0.0
 27
1.0
 37
0.0
 76
     0
330
1B
  0
LAYOUT
  5
26
102
{ACAD_REACTORS
330
1A
102
}
330
1A
100
AcDbPlotSettings
  1

  2
none_device
  4

  6

 40
0.0
 41
0.0
 42
0.0
 43
0.0
 44
0.0
 45
0.0
 46
0.0
 47
0.0
 48
0.0
 49
0.0
140
0.0
141
0.0
142
1.0
143
1.0
 70
   688
 72
     0
 73
     0
 74
     5
  7

 75
    16
 76
     0
 77
     2
 78
   300
147
1.0
148
0.0
149
0.0
100
AcDbLayout
  1
Layout2
 70
     1
 71
     2
 10
0.0
 20
0.0
 11
0.0
 21
0.0
 12
0.0
 22
0.0
 32
0.0
 14
0.0
 24
0.0
 34
0.0
 15
0.0
 25
0.0
 35
0.0
146
0.0
 13
0.0
 23
0.0
 33
0.0
 16
1.0
 26
0.0
 36
0.0
 17
0.0
 27
1.0
 37
0.0
 76
     0
330
23
  0
LAYOUT
  5
22
102
{ACAD_REACTORS
330
1A
102
}
330
1A
100
AcDbPlotSettings
  1

  2
none_device
  4

  6

 40
0.0
 41
0.0
 42
0.0
 43
0.0
 44
0.0
 45
0.0
 46
0.0
 47
0.0
 48
0.0
 49
0.0
140
0.0
141
0.0
142
1.0
143
1.0
 70
  1712
 72
     0
 73
     0
 74
     0
  7

 75
     0
 76
     0
 77
     2
 78
   300
147
1.0
148
0.0
149
0.0
100
AcDbLayout
  1
Model
 70
     1
 71
     0
 10
0.0
 20
0.0
 11
12.0
 21
9.0
 12
0.0
 22
0.0
 32
0.0
 14
1.000000000000000E+20
 24
1.000000000000000E+20
 34
1.000000000000000E+20
 15
-1.000000000000000E+20
 25
-1.000000000000000E+20
 35
-1.000000000000000E+20
146
0.0
 13
0.0
 23
0.0
 33
0.0
 16
1.0
 26
0.0
 36
0.0
 17
0.0
 27
1.0
 37
0.0
 76
     0
330
1F
331
29
  0
MLINESTYLE
  5
18
102
{ACAD_REACTORS
330
17
102
}
330
17
100
AcDbMlineStyle
  2
Standard
 70
     0
  3

 62
   256
 51
90.0
 52
90.0
 71
     2
 49
0.5
 62
   256
  6
BYLAYER
 49
-0.5
 62
   256
  6
BYLAYER
  0
ACDBPLACEHOLDER
  5
F
102
{ACAD_REACTORS
330
E
102
}
330
E
  0
VISUALSTYLE
  5
2F
102
{ACAD_REACTORS
330
2A
102
}
330
2A
100
AcDbVisualStyle
  2
2dWireframe
 70
     4
 71
     0
 72
     2
 73
     0
 90
        0
 40
-0.6
 41
-30.0
 62
     5
 63
     7
421
 16777215
 74
     1
 91
        4
 64
     7
 65
   257
 75
     1
175
     1
 42
1.0
 92
        0
 66
   257
 43
1.0
 76
     1
 77
     6
 78
     2
 67
     7
 79
     5
170
     0
171
     0
290
     0
174
     0
 93
        1
 44
0.0
173
     0
291
     0
 45
0.0
1001
ACAD
1000
AcDbSavedByObjectVersion
1070
     0
  0
VISUALSTYLE
  5
31
102
{ACAD_REACTORS
330
2A
102
}
330
2A
100
AcDbVisualStyle
  2
3D Hidden
 70
     6
 71
     1
 72
     2
 73
     2
 90
        0
 40
-0.6
 41
-30.0
 62
     5
 63
     7
421
 16777215
 74
     2
 91
        2
 64
     7
 65
   257
 75
     2
175
     1
 42
40.0
 92
        0
 66
   257
 43
1.0
 76
     1
 77
     6
 78
     2
 67
     7
 79
     3
170
     0
171
     0
290
     0
174
     0
 93
        1
 44
0.0
173
     0
291
     0
 45
0.0
1001
ACAD
1000
AcDbSavedByObjectVersion
1070
     0
  0
VISUALSTYLE
  5
30
102
{ACAD_REACTORS
330
2A
102
}
330
2A
100
AcDbVisualStyle
  2
3dWireframe
 70
     5
 71
     0
 72
     2
 73
     0
 90
        0
 40
-0.6
 41
-30.0
 62
     5
 63
     7
421
 16777215
 74
     1
 91
        4
 64
     7
 65
   257
 75
     1
175
     1
 42
1.0
 92
        0
 66
   257
 43
1.0
 76
     1
 77
     6
 78
     2
 67
     7
 79
     5
170
     0
171
     0
290
     0
174
     0
 93
        1
 44
0.0
173
     0
291
     0
 45
0.0
1001
ACAD
1000
AcDbSavedByObjectVersion
1070
     0
  0
VISUALSTYLE
  5
32
102
{ACAD_REACTORS
330
2A
102
}
330
2A
100
AcDbVisualStyle
  2
Basic
 70
     7
 71
     1
 72
     0
 73
     1
 90
        0
 40
-0.6
 41
-30.0
 62
     5
 63
     7
421
 16777215
 74
     0
 91
        4
 64
     7
 65
   257
 75
     1
175
     1
 42
1.0
 92
        8
 66
     7
 43
1.0
 76
     1
 77
     6
 78
     2
 67
     7
 79
     5
170
     0
171
     0
290
     0
174
     0
 93
        1
 44
0.0
173
     0
291
     1
 45
0.0
1001
ACAD
1000
AcDbSavedByObjectVersion
1070
     0
  0
VISUALSTYLE
  5
36
102
{ACAD_REACTORS
330
2A
102
}
330
2A
100
AcDbVisualStyle
  2
Brighten
 70
    12
 71
     2
 72
     2
 73
     0
 90
        0
 40
-0.6
 41
-30.0
 62
     5
 63
     7
421
 16777215
 74
     1
 91
        4
 64
     7
 65
   257
 75
     1
175
     1
 42
1.0
 92
        8
 66
     7
 43
1.0
 76
     1
 77
     6
 78
     2
 67
     7
 79
     5
170
     0
171
     0
290
     0
174
     0
 93
        1
 44
50.0
173
     0
291
     1
 45
0.0
1001
ACAD
1000
AcDbSavedByObjectVersion
1070
     0
  0
VISUALSTYLE
  5
3A
102
{ACAD_REACTORS
330
2A
102
}
330
2A
100
AcDbVisualStyle
  2
ColorChange
 70
    16
 71
     2
 72
     2
 73
     3
 90
        0
 40
-0.6
 41
-30.0
 62
     5
 63
     8
421
  8421504
 74
     1
 91
        4
 64
     7
 65
   257
 75
     1
175
     1
 42
1.0
 92
        8
 66
     8
424
  8421504
 43
1.0
 76
     1
 77
     6
 78
     2
 67
     7
 79
     5
170
     0
171
     0
290
     0
174
     0
 93
        1
 44
0.0
173
     0
291
     1
 45
0.0
1001
ACAD
1000
AcDbSavedByObjectVersion
1070
     0
  0
VISUALSTYLE
  5
34
102
{ACAD_REACTORS
330
2A
102
}
330
2A
100
AcDbVisualStyle
  2
Conceptual
 70
     9
 71
     3
 72
     2
 73
     0
 90
        0
 40
-0.6
 41
-30.0
 62
     5
 63
     7
421
 16777215
 74
     2
 91
        2
 64
     7
 65
   257
 75
     1
175
     1
 42
40.0
 92
        8
 66
     7
 43
1.0
 76
     1
 77
     6
 78
     2
 67
     7
 79
     3
170
     0
171
     0
290
     0
174
     0
 93
        1
 44
0.0
173
     0
291
     0
 45
0.0
1001
ACAD
1000
AcDbSavedByObjectVersion
1070
     0
  0
VISUALSTYLE
  5
35
102
{ACAD_REACTORS
330
2A
102
}
330
2A
100
AcDbVisualStyle
  2
Dim
 70
    11
 71
     2
 72
     2
 73
     0
 90
        0
 40
-0.6
 41
-30.0
 62
     5
 63
     7
421
 16777215
 74
     1
 91
        4
 64
     7
 65
   257
 75
     1
175
     1
 42
1.0
 92
        8
 66
     7
 43
1.0
 76
     1
 77
     6
 78
     2
 67
     7
 79
     5
170
     0
171
     0
290
     0
174
     0
 93
        1
 44
-50.0
173
     0
291
     1
 45
0.0
1001
ACAD
1000
AcDbSavedByObjectVersion
1070
     0
  0
VISUALSTYLE
  5
39
102
{ACAD_REACTORS
330
2A
102
}
330
2A
100
AcDbVisualStyle
  2
Facepattern
 70
    15
 71
     2
 72
     2
 73
     0
 90
        0
 40
-0.6
 41
-30.0
 62
     5
 63
     7
421
 16777215
 74
     1
 91
        4
 64
     7
 65
   257
 75
     1
175
     1
 42
1.0
 92
        8
 66
     7
 43
1.0
 76
     1
 77
     6
 78
     2
 67
     7
 79
     5
170
     0
171
     0
290
     0
174
     0
 93
        1
 44
0.0
173
     0
291
     1
 45
0.0
1001
ACAD
1000
AcDbSavedByObjectVersion
1070
     0
  0
VISUALSTYLE
  5
2B
102
{ACAD_REACTORS
330
2A
102
}
330
2A
100
AcDbVisualStyle
  2
Flat
 70
     0
 71
     2
 72
     1
 73
     1
 90
        2
 40
-0.6
 41
30.0
 62
     5
 63
     7
421
 16777215
 74
     0
 91
        4
 64
     7
 65
   257
 75
     1
175
     1
 42
1.0
 92
        8
 66
     7
 43
1.0
 76
     1
 77
     6
 78
     2
 67
     7
 79
     5
170
     0
171
     0
290
     0
174
     0
 93
       13
 44
0.0
173
     0
291
     1
 45
0.0
1001
ACAD
1000
AcDbSavedByObjectVersion
1070
     0
  0
VISUALSTYLE
  5
2C
102
{ACAD_REACTORS
330
2A
102
}
330
2A
100
AcDbVisualStyle
  2
FlatWithEdges
 70
     1
 71
     2
 72
     1
 73
     1
 90
        2
 40
-0.6
 41
30.0
 62
     5
 63
     7
421
 16777215
 74
     1
 91
        4
 64
     7
 65
   257
 75
     1
175
     1
 42
1.0
 92
        0
 66
   257
 43
1.0
 76
     1
 77
     6
 78
     2
 67
     7
 79
     5
170
     0
171
     0
290
     0
174
     0
 93
       13
 44
0.0
173
     0
291
     1
 45
0.0
1001
ACAD
1000
AcDbSavedByObjectVersion
1070
     0
  0
VISUALSTYLE
  5
2D
102
{ACAD_REACTORS
330
2A
102
}
330
2A
100
AcDbVisualStyle
  2
Gouraud
 70
     2
 71
     2
 72
     2
 73
     1
 90
        2
 40
-0.6
 41
30.0
 62
     5
 63
     7
421
 16777215
 74
     0
 91
        4
 64
     7
 65
   257
 75
     1
175
     1
 42
1.0
 92
        0
 66
     7
 43
1.0
 76
     1
 77
     6
 78
     2
 67
     7
 79
     5
170
     0
171
     0
290
     0
174
     0
 93
       13
 44
0.0
173
     0
291
     1
 45
0.0
1001
ACAD
1000
AcDbSavedByObjectVersion
1070
     0
  0
VISUALSTYLE
  5
2E
102
{ACAD_REACTORS
330
2A
102
}
330
2A
100
AcDbVisualStyle
  2
GouraudWithEdges
 70
     3
 71
     2
 72
     2
 73
     1
 90
        2
 40
-0.6
 41
30.0
 62
     5
 63
     7
421
 16777215
 74
     1
 91
        4
 64
     7
 65
   257
 75
     1
175
     1
 42
1.0
 92
        0
 66
   257
 43
1.0
 76
     1
 77
     6
 78
     2
 67
     7
 79
     5
170
     0
171
     0
290
     0
174
     0
 93
       13
 44
0.0
173
     0
291
     1
 45
0.0
1001
ACAD
1000
AcDbSavedByObjectVersion
1070
     0
  0
VISUALSTYLE
  5
38
102
{ACAD_REACTORS
330
2A
102
}
330
2A
100
AcDbVisualStyle
  2
Linepattern
 70
    14
 71
     2
 72
     2
 73
     0
 90
        0
 40
-0.6
 41
-30.0
 62
     5
 63
     7
421
 16777215
 74
     1
 91
        4
 64
     7
 65
   257
 75
     7
175
     7
 42
1.0
 92
        8
 66
     7
 43
1.0
 76
     1
 77
     6
 78
     2
 67
     7
 79
     5
170
     0
171
     0
290
     0
174
     0
 93
        1
 44
0.0
173
     0
291
     1
 45
0.0
1001
ACAD
1000
AcDbSavedByObjectVersion
1070
     0
  0
VISUALSTYLE
  5
33
102
{ACAD_REACTORS
330
2A
102
}
330
2A
100
AcDbVisualStyle
  2
Realistic
 70
     8
 71
     2
 72
     2
 73
     0
 90
        0
 40
-0.6
 41
-30.0
 62
     5
 63
     7
421
 16777215
 74
     1
 91
        0
 64
     7
 65
   257
 75
     1
175
     1
 42
1.0
 92
        8
 66
     8
424
  7895160
 43
1.0
 76
     1
 77
     6
 78
     2
 67
     7
 79
     5
170
     0
171
     0
290
     0
174
     0
 93
       13
 44
0.0
173
     0
291
     0
 45
0.0
1001
ACAD
1000
AcDbSavedByObjectVersion
1070
     0
  0
VISUALSTYLE
  5
37
102
{ACAD_REACTORS
330
2A
102
}
330
2A
100
AcDbVisualStyle
  2
Thicken
 70
    13
 71
     2
 72
     2
 73
     0
 90
        0
 40
-0.6
 41
-30.0
 62
     5
 63
     7
421
 16777215
 74
     1
 91
        4
 64
     7
 65
   257
 75
     1
175
     1
 42
1.0
 92
       12
 66
     7
 43
1.0
 76
     1
 77
     6
 78
     2
 67
     7
 79
     5
170
     0
171
     0
290
     0
174
     0
 93
        1
 44
0.0
173
     0
291
     1
 45
0.0
1001
ACAD
1000
AcDbSavedByObjectVersion
1070
     0
  0
ENDSEC
  0
EOF
