ISO-10303-21;
HEADER;
/* Generated by software containing ST-Developer
 * from STEP Tools, Inc. (www.steptools.com) 
 */
/* OPTION: strings as raw bytes, not using required /X/ escapes */

FILE_DESCRIPTION(
/* description */ ('Unknown'),
/* implementation_level */ '2;1');

FILE_NAME(
/* name */ 'extension',
/* time_stamp */ '2019-04-15T10:13:31+01:00',
/* author */ ('Unknown'),
/* organization */ ('Unknown'),
/* preprocessor_version */ 'ST-DEVELOPER v16.7',
/* originating_system */ 'DEX',
/* authorisation */ $);

FILE_SCHEMA (('AUTOMOTIVE_DESIGN {1 0 10303 214 3 1 1}'));
ENDSEC;

DATA;
#10=PROPERTY_DEFINITION_REPRESENTATION(#14,#12);
#11=PROPERTY_DEFINITION_REPRESENTATION(#15,#13);
#12=REPRESENTATION('',(#16),#445);
#13=REPRESENTATION('',(#17),#445);
#14=PROPERTY_DEFINITION('pmi validation property','',#450);
#15=PROPERTY_DEFINITION('pmi validation property','',#450);
#16=VALUE_REPRESENTATION_ITEM('number of annotations',COUNT_MEASURE(0.));
#17=VALUE_REPRESENTATION_ITEM('number of views',COUNT_MEASURE(0.));
#18=SHAPE_REPRESENTATION_RELATIONSHIP('','',#273,#19);
#19=ADVANCED_BREP_SHAPE_REPRESENTATION('',(#271),#445);
#20=LINE('',#389,#38);
#21=LINE('',#392,#39);
#22=LINE('',#394,#40);
#23=LINE('',#396,#41);
#24=LINE('',#398,#42);
#25=LINE('',#400,#43);
#26=LINE('',#420,#44);
#27=LINE('',#423,#45);
#28=LINE('',#425,#46);
#29=LINE('',#427,#47);
#30=LINE('',#429,#48);
#31=LINE('',#431,#49);
#32=LINE('',#433,#50);
#33=LINE('',#434,#51);
#34=LINE('',#436,#52);
#35=LINE('',#438,#53);
#36=LINE('',#440,#54);
#37=LINE('',#442,#55);
#38=VECTOR('',#320,1000.);
#39=VECTOR('',#321,1000.);
#40=VECTOR('',#322,1000.);
#41=VECTOR('',#323,1000.);
#42=VECTOR('',#324,1000.);
#43=VECTOR('',#325,1000.);
#44=VECTOR('',#352,1000.);
#45=VECTOR('',#353,1000.);
#46=VECTOR('',#354,1000.);
#47=VECTOR('',#355,1000.);
#48=VECTOR('',#356,1000.);
#49=VECTOR('',#357,1000.);
#50=VECTOR('',#360,1000.);
#51=VECTOR('',#361,1000.);
#52=VECTOR('',#364,1000.);
#53=VECTOR('',#367,1000.);
#54=VECTOR('',#370,1000.);
#55=VECTOR('',#373,1000.);
#56=PLANE('',#282);
#57=PLANE('',#287);
#58=PLANE('',#292);
#59=PLANE('',#295);
#60=PLANE('',#296);
#61=PLANE('',#297);
#62=PLANE('',#298);
#63=PLANE('',#299);
#64=PLANE('',#300);
#65=PLANE('',#301);
#66=CONICAL_SURFACE('',#281,3.00000000000001,0.785398163397447);
#67=CONICAL_SURFACE('',#293,11.,0.785398163397448);
#68=CONICAL_SURFACE('',#294,9.,0.785398163397448);
#69=ORIENTED_EDGE('',*,*,#125,.T.);
#70=ORIENTED_EDGE('',*,*,#126,.F.);
#71=ORIENTED_EDGE('',*,*,#127,.F.);
#72=ORIENTED_EDGE('',*,*,#128,.T.);
#73=ORIENTED_EDGE('',*,*,#125,.F.);
#74=ORIENTED_EDGE('',*,*,#127,.T.);
#75=ORIENTED_EDGE('',*,*,#129,.F.);
#76=ORIENTED_EDGE('',*,*,#130,.F.);
#77=ORIENTED_EDGE('',*,*,#131,.F.);
#78=ORIENTED_EDGE('',*,*,#132,.F.);
#79=ORIENTED_EDGE('',*,*,#133,.F.);
#80=ORIENTED_EDGE('',*,*,#134,.F.);
#81=ORIENTED_EDGE('',*,*,#135,.T.);
#82=ORIENTED_EDGE('',*,*,#136,.T.);
#83=ORIENTED_EDGE('',*,*,#137,.T.);
#84=ORIENTED_EDGE('',*,*,#138,.T.);
#85=ORIENTED_EDGE('',*,*,#139,.F.);
#86=ORIENTED_EDGE('',*,*,#140,.F.);
#87=ORIENTED_EDGE('',*,*,#139,.T.);
#88=ORIENTED_EDGE('',*,*,#128,.F.);
#89=ORIENTED_EDGE('',*,*,#140,.T.);
#90=ORIENTED_EDGE('',*,*,#135,.F.);
#91=ORIENTED_EDGE('',*,*,#137,.F.);
#92=ORIENTED_EDGE('',*,*,#136,.F.);
#93=ORIENTED_EDGE('',*,*,#138,.F.);
#94=ORIENTED_EDGE('',*,*,#141,.T.);
#95=ORIENTED_EDGE('',*,*,#142,.T.);
#96=ORIENTED_EDGE('',*,*,#143,.T.);
#97=ORIENTED_EDGE('',*,*,#144,.T.);
#98=ORIENTED_EDGE('',*,*,#145,.T.);
#99=ORIENTED_EDGE('',*,*,#146,.T.);
#100=ORIENTED_EDGE('',*,*,#126,.T.);
#101=ORIENTED_EDGE('',*,*,#130,.T.);
#102=ORIENTED_EDGE('',*,*,#147,.F.);
#103=ORIENTED_EDGE('',*,*,#141,.F.);
#104=ORIENTED_EDGE('',*,*,#148,.T.);
#105=ORIENTED_EDGE('',*,*,#129,.T.);
#106=ORIENTED_EDGE('',*,*,#149,.F.);
#107=ORIENTED_EDGE('',*,*,#142,.F.);
#108=ORIENTED_EDGE('',*,*,#147,.T.);
#109=ORIENTED_EDGE('',*,*,#134,.T.);
#110=ORIENTED_EDGE('',*,*,#150,.F.);
#111=ORIENTED_EDGE('',*,*,#143,.F.);
#112=ORIENTED_EDGE('',*,*,#149,.T.);
#113=ORIENTED_EDGE('',*,*,#133,.T.);
#114=ORIENTED_EDGE('',*,*,#151,.F.);
#115=ORIENTED_EDGE('',*,*,#144,.F.);
#116=ORIENTED_EDGE('',*,*,#150,.T.);
#117=ORIENTED_EDGE('',*,*,#132,.T.);
#118=ORIENTED_EDGE('',*,*,#152,.F.);
#119=ORIENTED_EDGE('',*,*,#145,.F.);
#120=ORIENTED_EDGE('',*,*,#151,.T.);
#121=ORIENTED_EDGE('',*,*,#131,.T.);
#122=ORIENTED_EDGE('',*,*,#148,.F.);
#123=ORIENTED_EDGE('',*,*,#146,.F.);
#124=ORIENTED_EDGE('',*,*,#152,.T.);
#125=EDGE_CURVE('',#153,#153,#175,.T.);
#126=EDGE_CURVE('',#154,#154,#176,.F.);
#127=EDGE_CURVE('',#155,#155,#177,.T.);
#128=EDGE_CURVE('',#156,#156,#178,.T.);
#129=EDGE_CURVE('',#157,#158,#20,.T.);
#130=EDGE_CURVE('',#159,#157,#21,.T.);
#131=EDGE_CURVE('',#160,#159,#22,.T.);
#132=EDGE_CURVE('',#161,#160,#23,.T.);
#133=EDGE_CURVE('',#162,#161,#24,.T.);
#134=EDGE_CURVE('',#158,#162,#25,.T.);
#135=EDGE_CURVE('',#163,#163,#179,.F.);
#136=EDGE_CURVE('',#164,#164,#180,.T.);
#137=EDGE_CURVE('',#165,#165,#181,.T.);
#138=EDGE_CURVE('',#166,#166,#182,.F.);
#139=EDGE_CURVE('',#167,#167,#183,.T.);
#140=EDGE_CURVE('',#168,#168,#184,.T.);
#141=EDGE_CURVE('',#169,#170,#26,.T.);
#142=EDGE_CURVE('',#170,#171,#27,.T.);
#143=EDGE_CURVE('',#171,#172,#28,.T.);
#144=EDGE_CURVE('',#172,#173,#29,.T.);
#145=EDGE_CURVE('',#173,#174,#30,.T.);
#146=EDGE_CURVE('',#174,#169,#31,.T.);
#147=EDGE_CURVE('',#170,#157,#32,.T.);
#148=EDGE_CURVE('',#169,#159,#33,.T.);
#149=EDGE_CURVE('',#171,#158,#34,.T.);
#150=EDGE_CURVE('',#172,#162,#35,.T.);
#151=EDGE_CURVE('',#173,#161,#36,.T.);
#152=EDGE_CURVE('',#174,#160,#37,.T.);
#153=VERTEX_POINT('',#379);
#154=VERTEX_POINT('',#381);
#155=VERTEX_POINT('',#384);
#156=VERTEX_POINT('',#386);
#157=VERTEX_POINT('',#390);
#158=VERTEX_POINT('',#391);
#159=VERTEX_POINT('',#393);
#160=VERTEX_POINT('',#395);
#161=VERTEX_POINT('',#397);
#162=VERTEX_POINT('',#399);
#163=VERTEX_POINT('',#402);
#164=VERTEX_POINT('',#405);
#165=VERTEX_POINT('',#407);
#166=VERTEX_POINT('',#410);
#167=VERTEX_POINT('',#412);
#168=VERTEX_POINT('',#415);
#169=VERTEX_POINT('',#421);
#170=VERTEX_POINT('',#422);
#171=VERTEX_POINT('',#424);
#172=VERTEX_POINT('',#426);
#173=VERTEX_POINT('',#428);
#174=VERTEX_POINT('',#430);
#175=CIRCLE('',#276,4.10000000000001);
#176=CIRCLE('',#277,4.1);
#177=CIRCLE('',#279,3.00000000000001);
#178=CIRCLE('',#280,3.00000000000001);
#179=CIRCLE('',#283,9.00000000000001);
#180=CIRCLE('',#285,11.);
#181=CIRCLE('',#286,11.);
#182=CIRCLE('',#288,9.00000000000001);
#183=CIRCLE('',#289,7.65000000000002);
#184=CIRCLE('',#291,7.65000000000002);
#185=EDGE_LOOP('',(#69));
#186=EDGE_LOOP('',(#70));
#187=EDGE_LOOP('',(#71));
#188=EDGE_LOOP('',(#72));
#189=EDGE_LOOP('',(#73));
#190=EDGE_LOOP('',(#74));
#191=EDGE_LOOP('',(#75,#76,#77,#78,#79,#80));
#192=EDGE_LOOP('',(#81));
#193=EDGE_LOOP('',(#82));
#194=EDGE_LOOP('',(#83));
#195=EDGE_LOOP('',(#84));
#196=EDGE_LOOP('',(#85));
#197=EDGE_LOOP('',(#86));
#198=EDGE_LOOP('',(#87));
#199=EDGE_LOOP('',(#88));
#200=EDGE_LOOP('',(#89));
#201=EDGE_LOOP('',(#90));
#202=EDGE_LOOP('',(#91));
#203=EDGE_LOOP('',(#92));
#204=EDGE_LOOP('',(#93));
#205=EDGE_LOOP('',(#94,#95,#96,#97,#98,#99));
#206=EDGE_LOOP('',(#100));
#207=EDGE_LOOP('',(#101,#102,#103,#104));
#208=EDGE_LOOP('',(#105,#106,#107,#108));
#209=EDGE_LOOP('',(#109,#110,#111,#112));
#210=EDGE_LOOP('',(#113,#114,#115,#116));
#211=EDGE_LOOP('',(#117,#118,#119,#120));
#212=EDGE_LOOP('',(#121,#122,#123,#124));
#213=FACE_BOUND('',#185,.T.);
#214=FACE_BOUND('',#186,.T.);
#215=FACE_BOUND('',#187,.T.);
#216=FACE_BOUND('',#188,.T.);
#217=FACE_BOUND('',#189,.T.);
#218=FACE_BOUND('',#190,.T.);
#219=FACE_BOUND('',#191,.T.);
#220=FACE_BOUND('',#192,.T.);
#221=FACE_BOUND('',#193,.T.);
#222=FACE_BOUND('',#194,.T.);
#223=FACE_BOUND('',#195,.T.);
#224=FACE_BOUND('',#196,.T.);
#225=FACE_BOUND('',#197,.T.);
#226=FACE_BOUND('',#198,.T.);
#227=FACE_BOUND('',#199,.T.);
#228=FACE_BOUND('',#200,.T.);
#229=FACE_BOUND('',#201,.T.);
#230=FACE_BOUND('',#202,.T.);
#231=FACE_BOUND('',#203,.T.);
#232=FACE_BOUND('',#204,.T.);
#233=FACE_BOUND('',#205,.T.);
#234=FACE_BOUND('',#206,.T.);
#235=FACE_BOUND('',#207,.T.);
#236=FACE_BOUND('',#208,.T.);
#237=FACE_BOUND('',#209,.T.);
#238=FACE_BOUND('',#210,.T.);
#239=FACE_BOUND('',#211,.T.);
#240=FACE_BOUND('',#212,.T.);
#241=CYLINDRICAL_SURFACE('',#275,4.1);
#242=CYLINDRICAL_SURFACE('',#278,3.00000000000001);
#243=CYLINDRICAL_SURFACE('',#284,11.);
#244=CYLINDRICAL_SURFACE('',#290,7.65000000000002);
#245=ADVANCED_FACE('',(#213,#214),#241,.F.);
#246=ADVANCED_FACE('',(#215,#216),#242,.F.);
#247=ADVANCED_FACE('',(#217,#218),#66,.F.);
#248=ADVANCED_FACE('',(#219,#220),#56,.F.);
#249=ADVANCED_FACE('',(#221,#222),#243,.T.);
#250=ADVANCED_FACE('',(#223,#224),#57,.F.);
#251=ADVANCED_FACE('',(#225,#226),#244,.F.);
#252=ADVANCED_FACE('',(#227,#228),#58,.F.);
#253=ADVANCED_FACE('',(#229,#230),#67,.T.);
#254=ADVANCED_FACE('',(#231,#232),#68,.T.);
#255=ADVANCED_FACE('',(#233,#234),#59,.T.);
#256=ADVANCED_FACE('',(#235),#60,.F.);
#257=ADVANCED_FACE('',(#236),#61,.F.);
#258=ADVANCED_FACE('',(#237),#62,.F.);
#259=ADVANCED_FACE('',(#238),#63,.F.);
#260=ADVANCED_FACE('',(#239),#64,.F.);
#261=ADVANCED_FACE('',(#240),#65,.F.);
#262=CLOSED_SHELL('',(#245,#246,#247,#248,#249,#250,#251,#252,#253,#254,
#255,#256,#257,#258,#259,#260,#261));
#263=STYLED_ITEM('',(#264),#271);
#264=PRESENTATION_STYLE_ASSIGNMENT((#265));
#265=SURFACE_STYLE_USAGE(.BOTH.,#266);
#266=SURFACE_SIDE_STYLE('',(#267));
#267=SURFACE_STYLE_FILL_AREA(#268);
#268=FILL_AREA_STYLE('',(#269));
#269=FILL_AREA_STYLE_COLOUR('',#270);
#270=COLOUR_RGB('',0.752941191196442,0.752941191196442,0.752941191196442);
#271=MANIFOLD_SOLID_BREP('',#262);
#272=SHAPE_DEFINITION_REPRESENTATION(#450,#273);
#273=SHAPE_REPRESENTATION('case',(#274),#445);
#274=AXIS2_PLACEMENT_3D('',#376,#302,#303);
#275=AXIS2_PLACEMENT_3D('',#377,#304,#305);
#276=AXIS2_PLACEMENT_3D('',#378,#306,#307);
#277=AXIS2_PLACEMENT_3D('',#380,#308,#309);
#278=AXIS2_PLACEMENT_3D('',#382,#310,#311);
#279=AXIS2_PLACEMENT_3D('',#383,#312,#313);
#280=AXIS2_PLACEMENT_3D('',#385,#314,#315);
#281=AXIS2_PLACEMENT_3D('',#387,#316,#317);
#282=AXIS2_PLACEMENT_3D('',#388,#318,#319);
#283=AXIS2_PLACEMENT_3D('',#401,#326,#327);
#284=AXIS2_PLACEMENT_3D('',#403,#328,#329);
#285=AXIS2_PLACEMENT_3D('',#404,#330,#331);
#286=AXIS2_PLACEMENT_3D('',#406,#332,#333);
#287=AXIS2_PLACEMENT_3D('',#408,#334,#335);
#288=AXIS2_PLACEMENT_3D('',#409,#336,#337);
#289=AXIS2_PLACEMENT_3D('',#411,#338,#339);
#290=AXIS2_PLACEMENT_3D('',#413,#340,#341);
#291=AXIS2_PLACEMENT_3D('',#414,#342,#343);
#292=AXIS2_PLACEMENT_3D('',#416,#344,#345);
#293=AXIS2_PLACEMENT_3D('',#417,#346,#347);
#294=AXIS2_PLACEMENT_3D('',#418,#348,#349);
#295=AXIS2_PLACEMENT_3D('',#419,#350,#351);
#296=AXIS2_PLACEMENT_3D('',#432,#358,#359);
#297=AXIS2_PLACEMENT_3D('',#435,#362,#363);
#298=AXIS2_PLACEMENT_3D('',#437,#365,#366);
#299=AXIS2_PLACEMENT_3D('',#439,#368,#369);
#300=AXIS2_PLACEMENT_3D('',#441,#371,#372);
#301=AXIS2_PLACEMENT_3D('',#443,#374,#375);
#302=DIRECTION('',(0.,0.,1.));
#303=DIRECTION('',(1.,0.,0.));
#304=DIRECTION('',(-2.52583402324141E-16,0.,1.));
#305=DIRECTION('',(1.,0.,2.52583402324141E-16));
#306=DIRECTION('',(-2.52583402324141E-16,0.,1.));
#307=DIRECTION('',(1.,0.,2.52583402324141E-16));
#308=DIRECTION('',(2.16840434497101E-16,0.,-1.));
#309=DIRECTION('',(-1.,0.,-2.16840434497101E-16));
#310=DIRECTION('',(-2.52583402324141E-16,0.,1.));
#311=DIRECTION('',(1.,0.,2.52583402324141E-16));
#312=DIRECTION('',(-2.52583402324141E-16,0.,1.));
#313=DIRECTION('',(1.,0.,2.52583402324141E-16));
#314=DIRECTION('',(-2.52583402324141E-16,0.,1.));
#315=DIRECTION('',(1.,0.,2.52583402324141E-16));
#316=DIRECTION('',(2.52583402324141E-16,0.,-1.));
#317=DIRECTION('',(-1.,0.,-2.52583402324141E-16));
#318=DIRECTION('',(-2.52583402324141E-16,0.,1.));
#319=DIRECTION('',(1.,0.,2.52583402324141E-16));
#320=DIRECTION('',(0.866025403784439,0.5,1.87789324842145E-16));
#321=DIRECTION('',(1.38675193729584E-15,1.,3.00703892622927E-31));
#322=DIRECTION('',(-0.866025403784437,0.500000000000003,-1.87789324842144E-16));
#323=DIRECTION('',(-0.86602540378444,-0.499999999999998,-1.87789324842145E-16));
#324=DIRECTION('',(-1.61787726017848E-15,-1.,-3.5082120806008E-31));
#325=DIRECTION('',(0.866025403784438,-0.500000000000001,1.87789324842145E-16));
#326=DIRECTION('',(-2.52583402324141E-16,0.,1.));
#327=DIRECTION('',(1.,0.,2.52583402324141E-16));
#328=DIRECTION('',(-2.52583402324141E-16,0.,1.));
#329=DIRECTION('',(1.,0.,2.52583402324141E-16));
#330=DIRECTION('',(2.52583402324141E-16,0.,-1.));
#331=DIRECTION('',(-1.,0.,-2.52583402324141E-16));
#332=DIRECTION('',(-2.52583402324141E-16,0.,1.));
#333=DIRECTION('',(1.,0.,2.52583402324141E-16));
#334=DIRECTION('',(2.52583402324141E-16,0.,-1.));
#335=DIRECTION('',(-1.,0.,-2.52583402324141E-16));
#336=DIRECTION('',(2.52583402324141E-16,0.,-1.));
#337=DIRECTION('',(-1.,0.,-2.52583402324141E-16));
#338=DIRECTION('',(-2.52583402324141E-16,0.,1.));
#339=DIRECTION('',(1.,0.,2.52583402324141E-16));
#340=DIRECTION('',(-2.52583402324141E-16,0.,1.));
#341=DIRECTION('',(1.,0.,2.52583402324141E-16));
#342=DIRECTION('',(-2.52583402324141E-16,0.,1.));
#343=DIRECTION('',(1.,0.,2.52583402324141E-16));
#344=DIRECTION('',(2.52583402324141E-16,0.,-1.));
#345=DIRECTION('',(-1.,0.,-2.52583402324141E-16));
#346=DIRECTION('',(-2.52583402324141E-16,0.,1.));
#347=DIRECTION('',(1.,0.,2.52583402324141E-16));
#348=DIRECTION('',(2.52583402324141E-16,0.,-1.));
#349=DIRECTION('',(-1.,0.,-2.52583402324141E-16));
#350=DIRECTION('',(2.16840434497101E-16,0.,-1.));
#351=DIRECTION('',(-1.,0.,-2.16840434497101E-16));
#352=DIRECTION('',(1.38675193729584E-15,1.,3.00703892622927E-31));
#353=DIRECTION('',(0.866025403784439,0.5,1.87789324842145E-16));
#354=DIRECTION('',(0.866025403784438,-0.500000000000001,1.87789324842145E-16));
#355=DIRECTION('',(-1.61787726017848E-15,-1.,-3.5082120806008E-31));
#356=DIRECTION('',(-0.86602540378444,-0.499999999999998,-1.87789324842145E-16));
#357=DIRECTION('',(-0.866025403784437,0.500000000000003,-1.87789324842144E-16));
#358=DIRECTION('',(-1.,1.38675193729584E-15,-2.52583402324141E-16));
#359=DIRECTION('',(-1.38675193729584E-15,-1.,0.));
#360=DIRECTION('',(2.52583402324141E-16,0.,-1.));
#361=DIRECTION('',(2.52583402324141E-16,0.,-1.));
#362=DIRECTION('',(-0.5,0.866025403784439,-1.26291701162071E-16));
#363=DIRECTION('',(-0.866025403784439,-0.5,0.));
#364=DIRECTION('',(2.52583402324141E-16,0.,-1.));
#365=DIRECTION('',(0.500000000000001,0.866025403784438,1.26291701162071E-16));
#366=DIRECTION('',(-0.866025403784438,0.500000000000001,0.));
#367=DIRECTION('',(2.52583402324141E-16,0.,-1.));
#368=DIRECTION('',(1.,-1.61787726017848E-15,2.52583402324141E-16));
#369=DIRECTION('',(1.61787726017848E-15,1.,0.));
#370=DIRECTION('',(2.52583402324141E-16,0.,-1.));
#371=DIRECTION('',(0.499999999999998,-0.86602540378444,1.2629170116207E-16));
#372=DIRECTION('',(0.86602540378444,0.499999999999998,0.));
#373=DIRECTION('',(2.52583402324141E-16,0.,-1.));
#374=DIRECTION('',(-0.500000000000003,-0.866025403784437,-1.26291701162071E-16));
#375=DIRECTION('',(0.866025403784437,-0.500000000000003,0.));
#376=CARTESIAN_POINT('',(0.,0.,0.));
#377=CARTESIAN_POINT('',(0.,0.,-9.50000000000001));
#378=CARTESIAN_POINT('',(-6.28932671787111E-15,0.,15.4));
#379=CARTESIAN_POINT('',(4.1,0.,15.4));
#380=CARTESIAN_POINT('',(-1.64179211510692E-15,0.,-3.00000000000001));
#381=CARTESIAN_POINT('',(-4.10000000000001,0.,-3.00000000000001));
#382=CARTESIAN_POINT('',(0.,0.,-9.50000000000001));
#383=CARTESIAN_POINT('',(-6.56716846042767E-15,0.,16.5));
#384=CARTESIAN_POINT('',(3.,0.,16.5));
#385=CARTESIAN_POINT('',(-7.07233526507595E-15,0.,18.5));
#386=CARTESIAN_POINT('',(3.,0.,18.5));
#387=CARTESIAN_POINT('',(-6.56716846042767E-15,0.,16.5));
#388=CARTESIAN_POINT('',(11.,0.,-9.50000000000001));
#389=CARTESIAN_POINT('',(-6.5,3.75277674973256,-9.50000000000001));
#390=CARTESIAN_POINT('',(-6.5,3.75277674973256,-9.50000000000001));
#391=CARTESIAN_POINT('',(4.33680868994202E-15,7.50555349946513,-9.50000000000001));
#392=CARTESIAN_POINT('',(-6.5,-3.75277674973253,-9.50000000000001));
#393=CARTESIAN_POINT('',(-6.50000000000001,-3.75277674973255,-9.50000000000001));
#394=CARTESIAN_POINT('',(-1.89733117600615E-14,-7.50555349946513,-9.50000000000001));
#395=CARTESIAN_POINT('',(-1.82145964977565E-14,-7.50555349946514,-9.50000000000001));
#396=CARTESIAN_POINT('',(6.49999999999999,-3.75277674973258,-9.50000000000001));
#397=CARTESIAN_POINT('',(6.49999999999999,-3.75277674973258,-9.50000000000001));
#398=CARTESIAN_POINT('',(6.50000000000001,3.75277674973256,-9.50000000000001));
#399=CARTESIAN_POINT('',(6.50000000000001,3.75277674973256,-9.50000000000001));
#400=CARTESIAN_POINT('',(4.78612722384997E-15,7.50555349946513,-9.50000000000001));
#401=CARTESIAN_POINT('',(3.99642787285214E-31,0.,-9.50000000000001));
#402=CARTESIAN_POINT('',(9.00000000000001,0.,-9.50000000000001));
#403=CARTESIAN_POINT('',(0.,0.,-9.50000000000001));
#404=CARTESIAN_POINT('',(-7.07233526507595E-15,0.,18.5));
#405=CARTESIAN_POINT('',(-11.,0.,18.5));
#406=CARTESIAN_POINT('',(-5.05166804648282E-16,0.,-7.50000000000001));
#407=CARTESIAN_POINT('',(11.,0.,-7.50000000000001));
#408=CARTESIAN_POINT('',(7.65000000000001,0.,20.5));
#409=CARTESIAN_POINT('',(-7.57750206972423E-15,0.,20.5));
#410=CARTESIAN_POINT('',(-9.00000000000001,0.,20.5));
#411=CARTESIAN_POINT('',(-7.57750206972423E-15,0.,20.5));
#412=CARTESIAN_POINT('',(7.65000000000001,0.,20.5));
#413=CARTESIAN_POINT('',(0.,0.,-9.50000000000001));
#414=CARTESIAN_POINT('',(-7.07233526507595E-15,0.,18.5));
#415=CARTESIAN_POINT('',(7.65000000000001,0.,18.5));
#416=CARTESIAN_POINT('',(7.65000000000001,0.,18.5));
#417=CARTESIAN_POINT('',(-5.05166804648282E-16,0.,-7.50000000000001));
#418=CARTESIAN_POINT('',(-7.57750206972423E-15,0.,20.5));
#419=CARTESIAN_POINT('',(4.18192012615541E-16,0.,-3.00000000000001));
#420=CARTESIAN_POINT('',(-6.50000000000001,-3.75277674973253,-3.00000000000001));
#421=CARTESIAN_POINT('',(-6.50000000000001,-3.75277674973255,-3.00000000000001));
#422=CARTESIAN_POINT('',(-6.5,3.75277674973256,-3.00000000000001));
#423=CARTESIAN_POINT('',(-6.5,3.75277674973256,-3.00000000000001));
#424=CARTESIAN_POINT('',(2.6950165748351E-15,7.50555349946513,-3.00000000000001));
#425=CARTESIAN_POINT('',(3.14433510874305E-15,7.50555349946513,-3.00000000000001));
#426=CARTESIAN_POINT('',(6.5,3.75277674973256,-3.00000000000001));
#427=CARTESIAN_POINT('',(6.5,3.75277674973256,-3.00000000000001));
#428=CARTESIAN_POINT('',(6.49999999999999,-3.75277674973258,-3.00000000000001));
#429=CARTESIAN_POINT('',(6.49999999999999,-3.75277674973258,-3.00000000000001));
#430=CARTESIAN_POINT('',(-1.98563886128634E-14,-7.50555349946513,-3.00000000000001));
#431=CARTESIAN_POINT('',(-2.06151038751684E-14,-7.50555349946513,-3.00000000000001));
#432=CARTESIAN_POINT('',(-6.50000000000001,-3.75277674973253,-3.00000000000001));
#433=CARTESIAN_POINT('',(-6.5,3.75277674973256,-3.00000000000001));
#434=CARTESIAN_POINT('',(-6.50000000000001,-3.75277674973255,-3.00000000000001));
#435=CARTESIAN_POINT('',(-6.5,3.75277674973256,-3.00000000000001));
#436=CARTESIAN_POINT('',(2.6950165748351E-15,7.50555349946513,-3.00000000000001));
#437=CARTESIAN_POINT('',(3.14433510874305E-15,7.50555349946513,-3.00000000000001));
#438=CARTESIAN_POINT('',(6.5,3.75277674973256,-3.00000000000001));
#439=CARTESIAN_POINT('',(6.5,3.75277674973256,-3.00000000000001));
#440=CARTESIAN_POINT('',(6.49999999999999,-3.75277674973258,-3.00000000000001));
#441=CARTESIAN_POINT('',(6.49999999999999,-3.75277674973258,-3.00000000000001));
#442=CARTESIAN_POINT('',(-1.98563886128634E-14,-7.50555349946513,-3.00000000000001));
#443=CARTESIAN_POINT('',(-2.06151038751684E-14,-7.50555349946513,-3.00000000000001));
#444=MECHANICAL_DESIGN_GEOMETRIC_PRESENTATION_REPRESENTATION('',(#263),
#445);
#445=(
GEOMETRIC_REPRESENTATION_CONTEXT(3)
GLOBAL_UNCERTAINTY_ASSIGNED_CONTEXT((#446))
GLOBAL_UNIT_ASSIGNED_CONTEXT((#449,#448,#447))
REPRESENTATION_CONTEXT('case','TOP_LEVEL_ASSEMBLY_PART')
);
#446=UNCERTAINTY_MEASURE_WITH_UNIT(LENGTH_MEASURE(0.005),#449,
'DISTANCE_ACCURACY_VALUE','Maximum Tolerance applied to model');
#447=(
NAMED_UNIT(*)
SI_UNIT($,.STERADIAN.)
SOLID_ANGLE_UNIT()
);
#448=(
NAMED_UNIT(*)
PLANE_ANGLE_UNIT()
SI_UNIT($,.RADIAN.)
);
#449=(
LENGTH_UNIT()
NAMED_UNIT(*)
SI_UNIT(.MILLI.,.METRE.)
);
#450=PRODUCT_DEFINITION_SHAPE('','',#451);
#451=PRODUCT_DEFINITION('','',#453,#452);
#452=PRODUCT_DEFINITION_CONTEXT('',#459,'design');
#453=PRODUCT_DEFINITION_FORMATION_WITH_SPECIFIED_SOURCE('','',#455,
 .NOT_KNOWN.);
#454=PRODUCT_RELATED_PRODUCT_CATEGORY('','',(#455));
#455=PRODUCT('case','case','case',(#457));
#456=PRODUCT_CATEGORY('','');
#457=PRODUCT_CONTEXT('',#459,'mechanical');
#458=APPLICATION_PROTOCOL_DEFINITION('international standard',
'automotive_design',2010,#459);
#459=APPLICATION_CONTEXT(
'core data for automotive mechanical design processes');
ENDSEC;
END-ISO-10303-21;
