  0
SECTION
  2
HEADER
  9
$ACADVER
  1
AC1009
  9
$DWGCODEPAGE
  3
ansi_1252
  9
$INSBASE
  10
0.0
  20
0.0
  30
0.0
  9
$EXTMIN
  10
118.469
  20
142.299
  30
0.0
  9
$EXTMAX
  10
361.838
  20
389.579
  30
0.0
  0
ENDSEC
  0
SECTION
  2
ENTITIES
  0
POLYLINE
  62
0
  70
1
  0
VERTEX
  10
190.15338
  20
151.22354
  0
VERTEX
  10
190.25342
  20
151.04741
  0
VERTEX
  10
190.38257
  20
150.89926
  0
VERTEX
  10
190.53555
  20
150.78113
  0
VERTEX
  10
190.70706
  20
150.69511
  0
VERTEX
  10
190.89177
  20
150.64325
  0
VERTEX
  10
191.08441
  20
150.62755
  0
VERTEX
  10
191.27966
  20
150.65012
  0
VERTEX
  10
191.47223
  20
150.71298
  0
VERTEX
  10
191.64836
  20
150.81302
  0
VERTEX
  10
191.79651
  20
150.94217
  0
VERTEX
  10
191.91464
  20
151.09515
  0
VERTEX
  10
192.00066
  20
151.26666
  0
VERTEX
  10
192.05252
  20
151.45137
  0
VERTEX
  10
192.06822
  20
151.64401
  0
VERTEX
  10
192.04565
  20
151.83926
  0
VERTEX
  10
191.98279
  20
152.03183
  0
VERTEX
  10
191.88275
  20
152.20796
  0
VERTEX
  10
191.7536
  20
152.35611
  0
VERTEX
  10
191.60062
  20
152.47424
  0
VERTEX
  10
191.42911
  20
152.56026
  0
VERTEX
  10
191.2444
  20
152.61212
  0
VERTEX
  10
191.05176
  20
152.62782
  0
VERTEX
  10
190.85651
  20
152.60526
  0
VERTEX
  10
190.66394
  20
152.54239
  0
VERTEX
  10
190.48781
  20
152.44235
  0
VERTEX
  10
190.33966
  20
152.3132
  0
VERTEX
  10
190.22153
  20
152.16022
  0
VERTEX
  10
190.13551
  20
151.98871
  0
VERTEX
  10
190.08365
  20
151.804
  0
VERTEX
  10
190.06795
  20
151.61136
  0
VERTEX
  10
190.09052
  20
151.41611
  0
VERTEX
  10
190.15338
  20
151.22354
  0
SEQEND
  0
POLYLINE
  62
0
  70
1
  0
VERTEX
  10
314.55191
  20
206.18733
  0
VERTEX
  10
314.65195
  20
206.0112
  0
VERTEX
  10
314.7811
  20
205.86305
  0
VERTEX
  10
314.93408
  20
205.74493
  0
VERTEX
  10
315.10559
  20
205.65892
  0
VERTEX
  10
315.29031
  20
205.60706
  0
VERTEX
  10
315.48294
  20
205.59135
  0
VERTEX
  10
315.67822
  20
205.61391
  0
VERTEX
  10
315.87076
  20
205.67677
  0
VERTEX
  10
316.04691
  20
205.77679
  0
VERTEX
  10
316.19507
  20
205.90598
  0
VERTEX
  10
316.31317
  20
206.05896
  0
VERTEX
  10
316.39917
  20
206.23047
  0
VERTEX
  10
316.45105
  20
206.41518
  0
VERTEX
  10
316.46674
  20
206.60782
  0
VERTEX
  10
316.44421
  20
206.80305
  0
VERTEX
  10
316.38132
  20
206.99562
  0
VERTEX
  10
316.28128
  20
207.17175
  0
VERTEX
  10
316.15213
  20
207.3199
  0
VERTEX
  10
315.99915
  20
207.43802
  0
VERTEX
  10
315.82764
  20
207.52403
  0
VERTEX
  10
315.64291
  20
207.5759
  0
VERTEX
  10
315.45029
  20
207.5916
  0
VERTEX
  10
315.255
  20
207.56905
  0
VERTEX
  10
315.06247
  20
207.50618
  0
VERTEX
  10
314.88632
  20
207.40616
  0
VERTEX
  10
314.73816
  20
207.27698
  0
VERTEX
  10
314.62006
  20
207.12399
  0
VERTEX
  10
314.53406
  20
206.95248
  0
VERTEX
  10
314.48218
  20
206.76778
  0
VERTEX
  10
314.46649
  20
206.57513
  0
VERTEX
  10
314.48901
  20
206.3799
  0
VERTEX
  10
314.55191
  20
206.18733
  0
SEQEND
  0
POLYLINE
  62
0
  70
1
  0
VERTEX
  10
304.52097
  20
276.11584
  0
VERTEX
  10
304.58386
  20
275.92331
  0
VERTEX
  10
304.60638
  20
275.72806
  0
VERTEX
  10
304.5907
  20
275.5354
  0
VERTEX
  10
304.53882
  20
275.35071
  0
VERTEX
  10
304.45282
  20
275.1792
  0
VERTEX
  10
304.33472
  20
275.02618
  0
VERTEX
  10
304.18655
  20
274.89703
  0
VERTEX
  10
304.01041
  20
274.797
  0
VERTEX
  10
303.81787
  20
274.73413
  0
VERTEX
  10
303.62259
  20
274.71158
  0
VERTEX
  10
303.42996
  20
274.72726
  0
VERTEX
  10
303.24524
  20
274.77911
  0
VERTEX
  10
303.07373
  20
274.86517
  0
VERTEX
  10
302.92075
  20
274.98328
  0
VERTEX
  10
302.7916
  20
275.13141
  0
VERTEX
  10
302.69156
  20
275.30756
  0
VERTEX
  10
302.62866
  20
275.50009
  0
VERTEX
  10
302.60614
  20
275.69534
  0
VERTEX
  10
302.62183
  20
275.888
  0
VERTEX
  10
302.67371
  20
276.07269
  0
VERTEX
  10
302.7597
  20
276.2442
  0
VERTEX
  10
302.87781
  20
276.39722
  0
VERTEX
  10
303.02597
  20
276.52637
  0
VERTEX
  10
303.20212
  20
276.6264
  0
VERTEX
  10
303.39465
  20
276.68927
  0
VERTEX
  10
303.58994
  20
276.71182
  0
VERTEX
  10
303.78256
  20
276.69614
  0
VERTEX
  10
303.96729
  20
276.64429
  0
VERTEX
  10
304.13879
  20
276.55823
  0
VERTEX
  10
304.29178
  20
276.44012
  0
VERTEX
  10
304.42093
  20
276.29199
  0
VERTEX
  10
304.52097
  20
276.11584
  0
SEQEND
  0
POLYLINE
  62
0
  70
1
  0
VERTEX
  10
147.33003
  20
206.66321
  0
VERTEX
  10
147.43005
  20
206.48708
  0
VERTEX
  10
147.55923
  20
206.33893
  0
VERTEX
  10
147.71222
  20
206.22079
  0
VERTEX
  10
147.88373
  20
206.13478
  0
VERTEX
  10
148.06844
  20
206.08292
  0
VERTEX
  10
148.26108
  20
206.06721
  0
VERTEX
  10
148.45631
  20
206.08978
  0
VERTEX
  10
148.64888
  20
206.15265
  0
VERTEX
  10
148.82501
  20
206.25269
  0
VERTEX
  10
148.97316
  20
206.38184
  0
VERTEX
  10
149.09128
  20
206.53482
  0
VERTEX
  10
149.17729
  20
206.70633
  0
VERTEX
  10
149.22916
  20
206.89104
  0
VERTEX
  10
149.24486
  20
207.08368
  0
VERTEX
  10
149.22231
  20
207.27893
  0
VERTEX
  10
149.15944
  20
207.4715
  0
VERTEX
  10
149.05942
  20
207.64763
  0
VERTEX
  10
148.93024
  20
207.79578
  0
VERTEX
  10
148.77725
  20
207.91391
  0
VERTEX
  10
148.60574
  20
207.99992
  0
VERTEX
  10
148.42104
  20
208.05179
  0
VERTEX
  10
148.22839
  20
208.06749
  0
VERTEX
  10
148.03316
  20
208.04492
  0
VERTEX
  10
147.84059
  20
207.98206
  0
VERTEX
  10
147.66446
  20
207.88202
  0
VERTEX
  10
147.51631
  20
207.75287
  0
VERTEX
  10
147.39819
  20
207.59988
  0
VERTEX
  10
147.31218
  20
207.42838
  0
VERTEX
  10
147.26031
  20
207.24367
  0
VERTEX
  10
147.24461
  20
207.05103
  0
VERTEX
  10
147.26717
  20
206.85577
  0
VERTEX
  10
147.33003
  20
206.66321
  0
SEQEND
  0
POLYLINE
  62
0
  70
1
  0
VERTEX
  10
150.8627
  20
204.68938
  0
VERTEX
  10
150.34561
  20
204.71332
  0
VERTEX
  10
149.88583
  20
204.47549
  0
VERTEX
  10
149.60657
  20
204.03964
  0
VERTEX
  10
149.58264
  20
203.52255
  0
VERTEX
  10
151.01926
  20
200.23387
  0
VERTEX
  10
152.76233
  20
196.30457
  0
VERTEX
  10
153.43066
  20
194.86343
  0
VERTEX
  10
153.95743
  20
193.72752
  0
VERTEX
  10
154.67354
  20
192.30952
  0
VERTEX
  10
155.23799
  20
191.19185
  0
VERTEX
  10
155.83945
  20
190.09367
  0
VERTEX
  10
156.60255
  20
188.70041
  0
VERTEX
  10
157.24036
  20
187.62292
  0
VERTEX
  10
158.04961
  20
186.25592
  0
VERTEX
  10
158.72308
  20
185.20038
  0
VERTEX
  10
159.57755
  20
183.86118
  0
VERTEX
  10
160.2859
  20
182.8287
  0
VERTEX
  10
161.18462
  20
181.51881
  0
VERTEX
  10
161.92712
  20
180.5106
  0
VERTEX
  10
162.86911
  20
179.23148
  0
VERTEX
  10
163.64485
  20
178.24863
  0
VERTEX
  10
164.62906
  20
177.00168
  0
VERTEX
  10
165.43721
  20
176.0453
  0
VERTEX
  10
166.46255
  20
174.83194
  0
VERTEX
  10
167.30222
  20
173.90311
  0
VERTEX
  10
168.36751
  20
172.72469
  0
VERTEX
  10
169.23773
  20
171.82443
  0
VERTEX
  10
170.34183
  20
170.68225
  0
VERTEX
  10
171.24167
  20
169.81158
  0
VERTEX
  10
172.38327
  20
168.70695
  0
VERTEX
  10
173.31171
  20
167.86682
  0
VERTEX
  10
174.48959
  20
166.80095
  0
VERTEX
  10
175.44557
  20
165.99232
  0
VERTEX
  10
176.65843
  20
164.96642
  0
VERTEX
  10
177.64088
  20
164.19019
  0
VERTEX
  10
178.88736
  20
163.20535
  0
VERTEX
  10
179.8952
  20
162.4624
  0
VERTEX
  10
181.17389
  20
161.51978
  0
VERTEX
  10
182.20599
  20
160.8109
  0
VERTEX
  10
183.51546
  20
159.91153
  0
VERTEX
  10
184.57069
  20
159.23753
  0
VERTEX
  10
185.90945
  20
158.38242
  0
VERTEX
  10
186.98662
  20
157.74408
  0
VERTEX
  10
188.35324
  20
156.93417
  0
VERTEX
  10
189.45111
  20
156.33217
  0
VERTEX
  10
190.84402
  20
155.56839
  0
VERTEX
  10
191.96141
  20
155.00342
  0
VERTEX
  10
193.37906
  20
154.28659
  0
VERTEX
  10
194.51471
  20
153.75926
  0
VERTEX
  10
195.95552
  20
153.09024
  0
VERTEX
  10
197.10815
  20
152.60114
  0
VERTEX
  10
198.57051
  20
151.98062
  0
VERTEX
  10
199.73883
  20
151.53032
  0
VERTEX
  10
201.22112
  20
150.95901
  0
VERTEX
  10
202.40384
  20
150.548
  0
VERTEX
  10
203.90439
  20
150.02655
  0
VERTEX
  10
205.10019
  20
149.65529
  0
VERTEX
  10
206.61731
  20
149.18427
  0
VERTEX
  10
207.82483
  20
148.85316
  0
VERTEX
  10
209.35687
  20
148.43309
  0
VERTEX
  10
210.57478
  20
148.14253
  0
VERTEX
  10
212.11998
  20
147.7739
  0
VERTEX
  10
213.34695
  20
147.5242
  0
VERTEX
  10
214.90359
  20
147.2074
  0
VERTEX
  10
216.13821
  20
146.99884
  0
VERTEX
  10
217.70459
  20
146.73424
  0
VERTEX
  10
218.94547
  20
146.56703
  0
VERTEX
  10
220.51982
  20
146.35492
  0
VERTEX
  10
221.76561
  20
146.22926
  0
VERTEX
  10
223.34616
  20
146.06987
  0
VERTEX
  10
224.59544
  20
145.98595
  0
VERTEX
  10
226.18044
  20
145.87946
  0
VERTEX
  10
227.43182
  20
145.83731
  0
VERTEX
  10
229.0195
  20
145.78383
  0
VERTEX
  10
230.27161
  20
145.78354
  0
VERTEX
  10
231.86017
  20
145.78314
  0
VERTEX
  10
233.11159
  20
145.82466
  0
VERTEX
  10
234.69928
  20
145.87737
  0
VERTEX
  10
235.94861
  20
145.96069
  0
VERTEX
  10
237.53366
  20
146.06641
  0
VERTEX
  10
238.7795
  20
146.19144
  0
VERTEX
  10
240.36011
  20
146.35005
  0
VERTEX
  10
241.6011
  20
146.51663
  0
VERTEX
  10
243.17554
  20
146.728
  0
VERTEX
  10
244.41026
  20
146.93594
  0
VERTEX
  10
245.97675
  20
147.1998
  0
VERTEX
  10
247.20383
  20
147.4489
  0
VERTEX
  10
248.76065
  20
147.76494
  0
VERTEX
  10
249.9787
  20
148.0549
  0
VERTEX
  10
251.52409
  20
148.42279
  0
VERTEX
  10
252.7318
  20
148.75328
  0
VERTEX
  10
254.26401
  20
149.17259
  0
VERTEX
  10
255.45999
  20
149.54327
  0
VERTEX
  10
256.97736
  20
150.01355
  0
VERTEX
  10
258.16028
  20
150.424
  0
VERTEX
  10
259.66107
  20
150.94473
  0
VERTEX
  10
260.82962
  20
151.39445
  0
VERTEX
  10
262.31219
  20
151.96503
  0
VERTEX
  10
263.46506
  20
152.45355
  0
VERTEX
  10
264.9277
  20
153.07335
  0
VERTEX
  10
266.0636
  20
153.60014
  0
VERTEX
  10
267.50476
  20
154.26845
  0
VERTEX
  10
268.62241
  20
154.83292
  0
VERTEX
  10
270.04041
  20
155.54903
  0
VERTEX
  10
271.13861
  20
156.15048
  0
VERTEX
  10
272.53189
  20
156.91357
  0
VERTEX
  10
273.60934
  20
157.55141
  0
VERTEX
  10
274.97635
  20
158.36063
  0
VERTEX
  10
276.03192
  20
159.0341
  0
VERTEX
  10
277.37112
  20
159.88857
  0
VERTEX
  10
278.40356
  20
160.59692
  0
VERTEX
  10
279.71347
  20
161.49567
  0
VERTEX
  10
280.72168
  20
162.23813
  0
VERTEX
  10
282.00082
  20
163.18013
  0
VERTEX
  10
282.98367
  20
163.95587
  0
VERTEX
  10
284.23062
  20
164.94008
  0
VERTEX
  10
285.18698
  20
165.74825
  0
VERTEX
  10
286.40033
  20
166.77357
  0
VERTEX
  10
287.32916
  20
167.61324
  0
VERTEX
  10
288.5076
  20
168.67853
  0
VERTEX
  10
289.40787
  20
169.54877
  0
VERTEX
  10
290.55002
  20
170.65285
  0
VERTEX
  10
291.42068
  20
171.55269
  0
VERTEX
  10
292.52533
  20
172.69431
  0
VERTEX
  10
293.36545
  20
173.62273
  0
VERTEX
  10
294.43134
  20
174.80063
  0
VERTEX
  10
295.23996
  20
175.75659
  0
VERTEX
  10
296.26587
  20
176.96947
  0
VERTEX
  10
297.04211
  20
177.95192
  0
VERTEX
  10
298.02692
  20
179.19838
  0
VERTEX
  10
298.7699
  20
180.20624
  0
VERTEX
  10
299.71252
  20
181.48491
  0
VERTEX
  10
300.42139
  20
182.51703
  0
VERTEX
  10
301.32077
  20
183.82649
  0
VERTEX
  10
301.99475
  20
184.88171
  0
VERTEX
  10
302.84985
  20
186.22049
  0
VERTEX
  10
303.48822
  20
187.29765
  0
VERTEX
  10
304.2981
  20
188.66426
  0
VERTEX
  10
304.90012
  20
189.76215
  0
VERTEX
  10
305.66388
  20
191.15504
  0
VERTEX
  10
306.22888
  20
192.27243
  0
VERTEX
  10
306.94568
  20
193.69009
  0
VERTEX
  10
307.47302
  20
194.82574
  0
VERTEX
  10
308.14206
  20
196.26654
  0
VERTEX
  10
308.63113
  20
197.41917
  0
VERTEX
  10
309.25165
  20
198.88153
  0
VERTEX
  10
309.70197
  20
200.04987
  0
VERTEX
  10
310.27325
  20
201.53214
  0
VERTEX
  10
310.68427
  20
202.71487
  0
VERTEX
  10
311.20575
  20
204.21542
  0
VERTEX
  10
311.577
  20
205.41121
  0
VERTEX
  10
312.048
  20
206.92833
  0
VERTEX
  10
312.37912
  20
208.13588
  0
VERTEX
  10
312.79919
  20
209.66789
  0
VERTEX
  10
313.08975
  20
210.88582
  0
VERTEX
  10
313.45837
  20
212.43102
  0
VERTEX
  10
313.70807
  20
213.65799
  0
VERTEX
  10
314.0249
  20
215.21463
  0
VERTEX
  10
314.23346
  20
216.44923
  0
VERTEX
  10
314.49805
  20
218.01561
  0
VERTEX
  10
314.66525
  20
219.2565
  0
VERTEX
  10
314.87738
  20
220.83084
  0
VERTEX
  10
315.00299
  20
222.07663
  0
VERTEX
  10
315.16241
  20
223.65717
  0
VERTEX
  10
315.24634
  20
224.90646
  0
VERTEX
  10
315.35284
  20
226.49147
  0
VERTEX
  10
315.39499
  20
227.74286
  0
VERTEX
  10
315.44846
  20
229.33051
  0
VERTEX
  10
315.44876
  20
230.58263
  0
VERTEX
  10
315.44913
  20
232.17119
  0
VERTEX
  10
315.40759
  20
233.42261
  0
VERTEX
  10
315.35492
  20
235.0103
  0
VERTEX
  10
315.27158
  20
236.25963
  0
VERTEX
  10
315.16586
  20
237.84467
  0
VERTEX
  10
315.04083
  20
239.09052
  0
VERTEX
  10
314.88223
  20
240.67114
  0
VERTEX
  10
314.71564
  20
241.91212
  0
VERTEX
  10
314.5043
  20
243.48656
  0
VERTEX
  10
314.29633
  20
244.72128
  0
VERTEX
  10
314.0325
  20
246.28778
  0
VERTEX
  10
313.78339
  20
247.51486
  0
VERTEX
  10
313.46735
  20
249.07167
  0
VERTEX
  10
313.17737
  20
250.28973
  0
VERTEX
  10
312.80951
  20
251.83511
  0
VERTEX
  10
312.479
  20
253.04282
  0
VERTEX
  10
312.05969
  20
254.57504
  0
VERTEX
  10
311.689
  20
255.77103
  0
VERTEX
  10
311.21872
  20
257.28839
  0
VERTEX
  10
310.80829
  20
258.47131
  0
VERTEX
  10
310.28757
  20
259.97211
  0
VERTEX
  10
309.83783
  20
261.14066
  0
VERTEX
  10
309.26727
  20
262.6232
  0
VERTEX
  10
308.77875
  20
263.77606
  0
VERTEX
  10
308.15894
  20
265.23874
  0
VERTEX
  10
306.78506
  20
268.33582
  0
VERTEX
  10
305.04202
  20
272.26514
  0
VERTEX
  10
304.7168
  20
272.66785
  0
VERTEX
  10
304.40485
  20
272.82053
  0
VERTEX
  10
303.8873
  20
272.83026
  0
VERTEX
  10
303.43423
  20
272.57993
  0
VERTEX
  10
303.16702
  20
272.1366
  0
VERTEX
  10
303.22403
  20
270.60388
  0
VERTEX
  10
303.34015
  20
269.13211
  0
VERTEX
  10
303.39185
  20
267.9696
  0
VERTEX
  10
303.45746
  20
266.49475
  0
VERTEX
  10
303.46927
  20
265.33118
  0
VERTEX
  10
303.48428
  20
263.85492
  0
VERTEX
  10
303.45621
  20
262.69162
  0
VERTEX
  10
303.42059
  20
261.2157
  0
VERTEX
  10
303.35266
  20
260.05405
  0
VERTEX
  10
303.26648
  20
258.58023
  0
VERTEX
  10
303.15875
  20
257.4216
  0
VERTEX
  10
303.02213
  20
255.9516
  0
VERTEX
  10
302.87473
  20
254.79733
  0
VERTEX
  10
302.68777
  20
253.33289
  0
VERTEX
  10
302.50092
  20
252.18434
  0
VERTEX
  10
302.26385
  20
250.72717
  0
VERTEX
  10
302.03775
  20
249.58572
  0
VERTEX
  10
301.75085
  20
248.13751
  0
VERTEX
  10
301.48575
  20
247.00449
  0
VERTEX
  10
301.14938
  20
245.56699
  0
VERTEX
  10
300.84561
  20
244.4437
  0
VERTEX
  10
300.46017
  20
243.01857
  0
VERTEX
  10
300.11804
  20
241.90636
  0
VERTEX
  10
299.68399
  20
240.49527
  0
VERTEX
  10
299.30392
  20
239.39545
  0
VERTEX
  10
298.82178
  20
238.00008
  0
VERTEX
  10
298.40424
  20
236.91393
  0
VERTEX
  10
297.87451
  20
235.53592
  0
VERTEX
  10
297.41998
  20
234.46469
  0
VERTEX
  10
296.84335
  20
233.10565
  0
VERTEX
  10
296.35236
  20
232.05066
  0
VERTEX
  10
295.72946
  20
230.71216
  0
VERTEX
  10
295.20261
  20
229.67462
  0
VERTEX
  10
294.53421
  20
228.35828
  0
VERTEX
  10
293.97211
  20
227.33942
  0
VERTEX
  10
293.25894
  20
226.04675
  0
VERTEX
  10
292.66223
  20
225.04776
  0
VERTEX
  10
291.90518
  20
223.7803
  0
VERTEX
  10
291.2746
  20
222.80234
  0
VERTEX
  10
290.47455
  20
221.56158
  0
VERTEX
  10
289.81079
  20
220.60582
  0
VERTEX
  10
288.96869
  20
219.39322
  0
VERTEX
  10
288.27255
  20
218.46075
  0
VERTEX
  10
287.38937
  20
217.27774
  0
VERTEX
  10
286.46613
  20
216.12569
  0
VERTEX
  10
285.73846
  20
215.21765
  0
VERTEX
  10
284.8627
  20
214.19481
  0
VERTEX
  10
283.75165
  20
212.89711
  0
VERTEX
  10
282.84491
  20
211.90163
  0
VERTEX
  10
281.69452
  20
210.63866
  0
VERTEX
  10
280.75766
  20
209.67148
  0
VERTEX
  10
279.56903
  20
208.44443
  0
VERTEX
  10
278.60294
  20
207.50647
  0
VERTEX
  10
277.3772
  20
206.31645
  0
VERTEX
  10
276.38275
  20
205.4086
  0
VERTEX
  10
275.12109
  20
204.25681
  0
VERTEX
  10
274.09924
  20
203.37988
  0
VERTEX
  10
272.8028
  20
202.26735
  0
VERTEX
  10
271.75449
  20
201.42223
  0
VERTEX
  10
270.42453
  20
200.35002
  0
VERTEX
  10
269.35077
  20
199.53748
  0
VERTEX
  10
267.98849
  20
198.50659
  0
VERTEX
  10
266.89032
  20
197.72742
  0
VERTEX
  10
265.49704
  20
196.73883
  0
VERTEX
  10
264.37546
  20
195.99373
  0
VERTEX
  10
262.95248
  20
195.0484
  0
VERTEX
  10
261.80856
  20
194.33806
  0
VERTEX
  10
260.35724
  20
193.43686
  0
VERTEX
  10
259.19205
  20
192.76198
  0
VERTEX
  10
257.71375
  20
191.90576
  0
VERTEX
  10
256.52838
  20
191.26697
  0
VERTEX
  10
255.02449
  20
190.45651
  0
VERTEX
  10
253.82007
  20
189.85443
  0
VERTEX
  10
252.29202
  20
189.09052
  0
VERTEX
  10
251.06969
  20
188.5257
  0
VERTEX
  10
249.51889
  20
187.80907
  0
VERTEX
  10
248.27982
  20
187.28201
  0
VERTEX
  10
246.70775
  20
186.61333
  0
VERTEX
  10
245.45305
  20
186.12457
  0
VERTEX
  10
243.86121
  20
185.50447
  0
VERTEX
  10
242.5921
  20
185.05446
  0
VERTEX
  10
240.98198
  20
184.48352
  0
VERTEX
  10
239.69966
  20
184.07266
  0
VERTEX
  10
238.07277
  20
183.55142
  0
VERTEX
  10
236.77843
  20
183.18013
  0
VERTEX
  10
235.13629
  20
182.70908
  0
VERTEX
  10
233.83119
  20
182.3777
  0
VERTEX
  10
232.17535
  20
181.95728
  0
VERTEX
  10
230.86069
  20
181.66614
  0
VERTEX
  10
229.19275
  20
181.29674
  0
VERTEX
  10
227.86974
  20
181.04608
  0
VERTEX
  10
226.19125
  20
180.72807
  0
VERTEX
  10
224.86118
  20
180.51814
  0
VERTEX
  10
223.17371
  20
180.25182
  0
VERTEX
  10
221.83783
  20
180.08281
  0
VERTEX
  10
220.14297
  20
179.86841
  0
VERTEX
  10
218.80254
  20
179.74051
  0
VERTEX
  10
217.1019
  20
179.57823
  0
VERTEX
  10
215.75816
  20
179.49153
  0
VERTEX
  10
214.05334
  20
179.38155
  0
VERTEX
  10
212.70758
  20
179.33614
  0
VERTEX
  10
211.00018
  20
179.27853
  0
VERTEX
  10
209.65367
  20
179.27446
  0
VERTEX
  10
207.94531
  20
179.2693
  0
VERTEX
  10
206.5993
  20
179.30658
  0
VERTEX
  10
204.8916
  20
179.35385
  0
VERTEX
  10
203.73006
  20
179.42383
  0
VERTEX
  10
202.25641
  20
179.51262
  0
VERTEX
  10
201.09795
  20
179.62239
  0
VERTEX
  10
199.6282
  20
179.76164
  0
VERTEX
  10
198.47418
  20
179.91104
  0
VERTEX
  10
197.01007
  20
180.1006
  0
VERTEX
  10
195.86188
  20
180.28947
  0
VERTEX
  10
194.40511
  20
180.52911
  0
VERTEX
  10
193.26405
  20
180.75723
  0
VERTEX
  10
191.81638
  20
181.04666
  0
VERTEX
  10
190.68381
  20
181.31378
  0
VERTEX
  10
189.24689
  20
181.65266
  0
VERTEX
  10
188.12415
  20
181.95845
  0
VERTEX
  10
186.69969
  20
182.34639
  0
VERTEX
  10
185.58809
  20
182.69048
  0
VERTEX
  10
184.17776
  20
183.12703
  0
VERTEX
  10
183.07863
  20
183.509
  0
VERTEX
  10
181.68411
  20
183.99365
  0
VERTEX
  10
180.59869
  20
184.41309
  0
VERTEX
  10
179.22162
  20
184.94525
  0
VERTEX
  10
178.1512
  20
185.40166
  0
VERTEX
  10
176.79318
  20
185.98071
  0
VERTEX
  10
175.73904
  20
186.47354
  0
VERTEX
  10
174.40166
  20
187.09882
  0
VERTEX
  10
173.36505
  20
187.62749
  0
VERTEX
  10
172.04991
  20
188.29825
  0
VERTEX
  10
171.03201
  20
188.86215
  0
VERTEX
  10
169.74062
  20
189.57758
  0
VERTEX
  10
168.74268
  20
190.17604
  0
VERTEX
  10
167.47656
  20
190.9353
  0
VERTEX
  10
166.49973
  20
191.56764
  0
VERTEX
  10
165.26038
  20
192.36987
  0
VERTEX
  10
164.30579
  20
193.03532
  0
VERTEX
  10
163.09468
  20
193.87958
  0
VERTEX
  10
162.16344
  20
194.57735
  0
VERTEX
  10
160.98198
  20
195.46262
  0
VERTEX
  10
160.07523
  20
196.19189
  0
VERTEX
  10
158.92482
  20
197.11716
  0
VERTEX
  10
158.04361
  20
197.87709
  0
VERTEX
  10
156.92557
  20
198.84123
  0
VERTEX
  10
156.07092
  20
199.63094
  0
VERTEX
  10
154.98659
  20
200.63284
  0
VERTEX
  10
154.15952
  20
201.45139
  0
VERTEX
  10
153.11018
  20
202.48987
  0
VERTEX
  10
152.09706
  20
203.56372
  0
VERTEX
  10
151.29855
  20
204.41013
  0
VERTEX
  10
150.8627
  20
204.68938
  0
SEQEND
  0
POLYLINE
  62
0
  70
1
  0
VERTEX
  10
295.66931
  20
300.17523
  0
VERTEX
  10
300.8902
  20
288.38049
  0
VERTEX
  10
307.85556
  20
272.67862
  0
VERTEX
  10
308.23495
  20
271.82336
  0
VERTEX
  10
308.96002
  20
270.1889
  0
VERTEX
  10
309.33127
  20
269.35205
  0
VERTEX
  10
310.0033
  20
267.83704
  0
VERTEX
  10
310.24857
  20
267.28421
  0
VERTEX
  10
310.52707
  20
266.65631
  0
VERTEX
  10
310.806
  20
266.02362
  0
VERTEX
  10
311.4718
  20
264.46094
  0
VERTEX
  10
311.7872
  20
263.69867
  0
VERTEX
  10
312.04337
  20
263.0528
  0
VERTEX
  10
312.43811
  20
262.03333
  0
VERTEX
  10
312.63217
  20
261.52692
  0
VERTEX
  10
312.82138
  20
261.01782
  0
VERTEX
  10
312.99997
  20
260.52206
  0
VERTEX
  10
313.3699
  20
259.46735
  0
VERTEX
  10
313.61752
  20
258.75266
  0
VERTEX
  10
313.952
  20
257.72281
  0
VERTEX
  10
314.41718
  20
256.24683
  0
VERTEX
  10
314.58798
  20
255.68062
  0
VERTEX
  10
314.75876
  20
255.08784
  0
VERTEX
  10
315.06033
  20
254.01157
  0
VERTEX
  10
315.26096
  20
253.27895
  0
VERTEX
  10
315.40433
  20
252.72687
  0
VERTEX
  10
315.82352
  20
251.02539
  0
VERTEX
  10
315.95609
  20
250.46921
  0
VERTEX
  10
316.12823
  20
249.69556
  0
VERTEX
  10
316.36023
  20
248.60216
  0
VERTEX
  10
316.48718
  20
247.98785
  0
VERTEX
  10
316.94781
  20
245.45561
  0
VERTEX
  10
317.04858
  20
244.89246
  0
VERTEX
  10
317.1312
  20
244.32637
  0
VERTEX
  10
317.45383
  20
242.11595
  0
VERTEX
  10
317.51825
  20
241.54749
  0
VERTEX
  10
317.76984
  20
239.32787
  0
VERTEX
  10
317.81601
  20
238.75763
  0
VERTEX
  10
317.99628
  20
236.53107
  0
VERTEX
  10
318.02414
  20
235.95966
  0
VERTEX
  10
318.13297
  20
233.72849
  0
VERTEX
  10
318.14249
  20
233.15645
  0
VERTEX
  10
318.17966
  20
230.92293
  0
VERTEX
  10
318.17087
  20
230.35089
  0
VERTEX
  10
318.13644
  20
228.11729
  0
VERTEX
  10
318.10928
  20
227.54587
  0
VERTEX
  10
318.00327
  20
225.31454
  0
VERTEX
  10
317.95779
  20
224.74426
  0
VERTEX
  10
317.78024
  20
222.51746
  0
VERTEX
  10
317.71652
  20
221.94894
  0
VERTEX
  10
317.46768
  20
219.72903
  0
VERTEX
  10
317.38577
  20
219.16283
  0
VERTEX
  10
317.06592
  20
216.95198
  0
VERTEX
  10
316.96588
  20
216.38872
  0
VERTEX
  10
316.57526
  20
214.18927
  0
VERTEX
  10
316.45721
  20
213.62949
  0
VERTEX
  10
315.99631
  20
211.44373
  0
VERTEX
  10
316.05807
  20
210.81508
  0
VERTEX
  10
316.38373
  20
210.41293
  0
VERTEX
  10
316.86685
  20
210.22751
  0
VERTEX
  10
317.37799
  20
210.30847
  0
VERTEX
  10
317.78015
  20
210.63414
  0
VERTEX
  10
318.10342
  20
211.47293
  0
VERTEX
  10
318.82697
  20
213.71107
  0
VERTEX
  10
318.99484
  20
214.28964
  0
VERTEX
  10
319.6503
  20
216.54871
  0
VERTEX
  10
319.80057
  20
217.1321
  0
VERTEX
  10
320.38724
  20
219.40997
  0
VERTEX
  10
320.51971
  20
219.99763
  0
VERTEX
  10
321.03714
  20
222.29221
  0
VERTEX
  10
321.15176
  20
222.88367
  0
VERTEX
  10
321.5994
  20
225.1929
  0
VERTEX
  10
321.69608
  20
225.78751
  0
VERTEX
  10
322.07352
  20
228.10924
  0
VERTEX
  10
322.15216
  20
228.7065
  0
VERTEX
  10
322.45908
  20
231.03859
  0
VERTEX
  10
322.51953
  20
231.63795
  0
VERTEX
  10
322.75568
  20
233.9783
  0
VERTEX
  10
322.79797
  20
234.57924
  0
VERTEX
  10
322.96304
  20
236.92564
  0
VERTEX
  10
322.98712
  20
237.52759
  0
VERTEX
  10
323.08105
  20
239.87794
  0
VERTEX
  10
323.08685
  20
240.4803
  0
VERTEX
  10
323.10953
  20
242.83243
  0
VERTEX
  10
323.09708
  20
243.43472
  0
VERTEX
  10
323.04846
  20
245.78645
  0
VERTEX
  10
322.97974
  20
247.31969
  0
VERTEX
  10
322.86038
  20
249.28195
  0
VERTEX
  10
325.35388
  20
249.46111
  0
VERTEX
  10
325.46405
  20
247.71422
  0
VERTEX
  10
325.52573
  20
246.35838
  0
VERTEX
  10
325.59109
  20
244.03558
  0
VERTEX
  10
325.60446
  20
243.40552
  0
VERTEX
  10
325.60513
  20
241.47484
  0
VERTEX
  10
325.59906
  20
240.84468
  0
VERTEX
  10
325.5806
  20
239.82846
  0
VERTEX
  10
325.54752
  20
238.83377
  0
VERTEX
  10
325.34689
  20
235.08347
  0
VERTEX
  10
325.26968
  20
234.04027
  0
VERTEX
  10
325.12543
  20
232.46942
  0
VERTEX
  10
325.06107
  20
231.84254
  0
VERTEX
  10
324.7767
  20
229.41722
  0
VERTEX
  10
324.69299
  20
228.79265
  0
VERTEX
  10
324.33441
  20
226.37723
  0
VERTEX
  10
324.23141
  20
225.75551
  0
VERTEX
  10
323.79895
  20
223.3522
  0
VERTEX
  10
323.67679
  20
222.73401
  0
VERTEX
  10
323.17081
  20
220.34511
  0
VERTEX
  10
323.0296
  20
219.73097
  0
VERTEX
  10
322.45056
  20
217.35872
  0
VERTEX
  10
322.29044
  20
216.74919
  0
VERTEX
  10
321.63895
  20
214.3958
  0
VERTEX
  10
321.46005
  20
213.79158
  0
VERTEX
  10
320.73672
  20
211.45926
  0
VERTEX
  10
320.53928
  20
210.86086
  0
VERTEX
  10
319.74472
  20
208.55182
  0
VERTEX
  10
319.52884
  20
207.95976
  0
VERTEX
  10
318.66385
  20
205.67621
  0
VERTEX
  10
318.42978
  20
205.09114
  0
VERTEX
  10
317.49515
  20
202.83516
  0
VERTEX
  10
317.2431
  20
202.25757
  0
VERTEX
  10
316.23978
  20
200.03134
  0
VERTEX
  10
315.96997
  20
199.46182
  0
VERTEX
  10
314.89883
  20
197.26741
  0
VERTEX
  10
314.61157
  20
196.7065
  0
VERTEX
  10
313.4736
  20
194.54599
  0
VERTEX
  10
313.16916
  20
193.99423
  0
VERTEX
  10
311.96545
  20
191.86961
  0
VERTEX
  10
311.64413
  20
191.32751
  0
VERTEX
  10
310.37582
  20
189.24078
  0
VERTEX
  10
310.03793
  20
188.70892
  0
VERTEX
  10
308.70621
  20
186.66211
  0
VERTEX
  10
308.35202
  20
186.1409
  0
VERTEX
  10
306.95816
  20
184.13589
  0
VERTEX
  10
306.58801
  20
183.62585
  0
VERTEX
  10
305.13333
  20
181.66457
  0
VERTEX
  10
304.74759
  20
181.16621
  0
VERTEX
  10
303.23349
  20
179.25046
  0
VERTEX
  10
302.83249
  20
178.7643
  0
VERTEX
  10
301.26031
  20
176.89581
  0
VERTEX
  10
300.84454
  20
176.42232
  0
VERTEX
  10
299.21576
  20
174.60294
  0
VERTEX
  10
298.78555
  20
174.14249
  0
VERTEX
  10
297.10178
  20
172.37393
  0
VERTEX
  10
296.6575
  20
171.92697
  0
VERTEX
  10
294.92029
  20
170.21091
  0
VERTEX
  10
294.46243
  20
169.77792
  0
VERTEX
  10
293.31287
  20
168.69821
  0
VERTEX
  10
292.63785
  20
168.08701
  0
VERTEX
  10
290.07303
  20
165.84839
  0
VERTEX
  10
289.45895
  20
165.33224
  0
VERTEX
  10
287.99277
  20
164.13855
  0
VERTEX
  10
287.4968
  20
163.74982
  0
VERTEX
  10
285.61005
  20
162.29465
  0
VERTEX
  10
285.10233
  20
161.92142
  0
VERTEX
  10
283.17288
  20
160.52342
  0
VERTEX
  10
282.65384
  20
160.16605
  0
VERTEX
  10
280.68344
  20
158.82639
  0
VERTEX
  10
280.15359
  20
158.48523
  0
VERTEX
  10
278.14398
  20
157.20515
  0
VERTEX
  10
277.60385
  20
156.88052
  0
VERTEX
  10
275.55685
  20
155.66115
  0
VERTEX
  10
275.00693
  20
155.35338
  0
VERTEX
  10
272.92435
  20
154.19579
  0
VERTEX
  10
272.3652
  20
153.90515
  0
VERTEX
  10
270.2489
  20
152.81042
  0
VERTEX
  10
269.68103
  20
152.5372
  0
VERTEX
  10
267.53287
  20
151.50632
  0
VERTEX
  10
266.95688
  20
151.25079
  0
VERTEX
  10
264.77884
  20
150.28462
  0
VERTEX
  10
262.57294
  20
149.38405
  0
VERTEX
  10
261.98929
  20
149.14642
  0
VERTEX
  10
259.75735
  20
148.31232
  0
VERTEX
  10
259.16663
  20
148.09285
  0
VERTEX
  10
256.9108
  20
147.3259
  0
VERTEX
  10
256.31354
  20
147.12479
  0
VERTEX
  10
254.03574
  20
146.42567
  0
VERTEX
  10
253.43259
  20
146.24313
  0
VERTEX
  10
251.13486
  20
145.61249
  0
VERTEX
  10
250.5264
  20
145.44864
  0
VERTEX
  10
248.21085
  20
144.88705
  0
VERTEX
  10
247.5975
  20
144.74213
  0
VERTEX
  10
245.2662
  20
144.25008
  0
VERTEX
  10
244.64874
  20
144.12416
  0
VERTEX
  10
242.30374
  20
143.70209
  0
VERTEX
  10
241.68268
  20
143.59534
  0
VERTEX
  10
240.09732
  20
143.35049
  0
VERTEX
  10
239.01898
  20
143.20074
  0
VERTEX
  10
235.63809
  20
142.80185
  0
VERTEX
  10
234.73193
  20
142.71161
  0
VERTEX
  10
233.16
  20
142.58408
  0
VERTEX
  10
232.53171
  20
142.53525
  0
VERTEX
  10
230.0936
  20
142.39911
  0
VERTEX
  10
229.46411
  20
142.36975
  0
VERTEX
  10
227.02298
  20
142.3085
  0
VERTEX
  10
226.39288
  20
142.29858
  0
VERTEX
  10
223.95102
  20
142.31226
  0
VERTEX
  10
223.32095
  20
142.32178
  0
VERTEX
  10
220.88065
  20
142.41034
  0
VERTEX
  10
220.25113
  20
142.43936
  0
VERTEX
  10
217.8147
  20
142.60263
  0
VERTEX
  10
217.18637
  20
142.65115
  0
VERTEX
  10
214.75613
  20
142.8891
  0
VERTEX
  10
214.12961
  20
142.957
  0
VERTEX
  10
211.70779
  20
143.26938
  0
VERTEX
  10
211.08365
  20
143.35657
  0
VERTEX
  10
208.67252
  20
143.7431
  0
VERTEX
  10
208.05142
  20
143.84952
  0
VERTEX
  10
205.65329
  20
144.30981
  0
VERTEX
  10
205.03577
  20
144.43542
  0
VERTEX
  10
202.65289
  20
144.96902
  0
VERTEX
  10
202.03952
  20
145.11366
  0
VERTEX
  10
199.67413
  20
145.72006
  0
VERTEX
  10
199.06555
  20
145.88359
  0
VERTEX
  10
196.71985
  20
146.56229
  0
VERTEX
  10
196.11661
  20
146.74454
  0
VERTEX
  10
193.79285
  20
147.49484
  0
VERTEX
  10
193.19553
  20
147.69565
  0
VERTEX
  10
190.89584
  20
148.51688
  0
VERTEX
  10
190.30502
  20
148.73602
  0
VERTEX
  10
188.03165
  20
149.6274
  0
VERTEX
  10
187.44785
  20
149.86473
  0
VERTEX
  10
185.20285
  20
150.82541
  0
VERTEX
  10
184.62668
  20
151.08064
  0
VERTEX
  10
182.4122
  20
152.10971
  0
VERTEX
  10
181.84421
  20
152.38263
  0
VERTEX
  10
179.66232
  20
153.47913
  0
VERTEX
  10
179.10306
  20
153.76952
  0
VERTEX
  10
176.95584
  20
154.93242
  0
VERTEX
  10
176.40576
  20
155.2399
  0
VERTEX
  10
174.29526
  20
156.46812
  0
VERTEX
  10
173.75497
  20
156.79245
  0
VERTEX
  10
171.68307
  20
158.08482
  0
VERTEX
  10
171.15308
  20
158.42575
  0
VERTEX
  10
169.1218
  20
159.78102
  0
VERTEX
  10
168.60257
  20
160.13812
  0
VERTEX
  10
166.61383
  20
161.5551
  0
VERTEX
  10
166.1059
  20
161.9281
  0
VERTEX
  10
164.84457
  20
162.87543
  0
VERTEX
  10
164.01941
  20
163.51834
  0
VERTEX
  10
161.10452
  20
165.88661
  0
VERTEX
  10
160.345
  20
166.52969
  0
VERTEX
  10
159.91928
  20
166.89917
  0
VERTEX
  10
159.40088
  20
167.3595
  0
VERTEX
  10
157.98605
  20
168.6275
  0
VERTEX
  10
156.60271
  20
169.92981
  0
VERTEX
  10
156.09877
  20
170.40594
  0
VERTEX
  10
154.89828
  20
171.58797
  0
VERTEX
  10
153.38942
  20
173.12857
  0
VERTEX
  10
155.1626
  20
174.89096
  0
VERTEX
  10
156.38396
  20
173.63715
  0
VERTEX
  10
157.34833
  20
172.68208
  0
VERTEX
  10
158.06577
  20
171.99203
  0
VERTEX
  10
159.77652
  20
170.37766
  0
VERTEX
  10
160.22696
  20
169.97766
  0
VERTEX
  10
161.98587
  20
168.41588
  0
VERTEX
  10
162.44824
  20
168.02972
  0
VERTEX
  10
164.25366
  20
166.52191
  0
VERTEX
  10
164.72751
  20
166.14995
  0
VERTEX
  10
166.57779
  20
164.69754
  0
VERTEX
  10
167.06271
  20
164.34009
  0
VERTEX
  10
168.95612
  20
162.94443
  0
VERTEX
  10
169.45163
  20
162.60187
  0
VERTEX
  10
171.38647
  20
161.26422
  0
VERTEX
  10
171.89218
  20
160.9368
  0
VERTEX
  10
173.86664
  20
159.65842
  0
VERTEX
  10
174.38202
  20
159.34647
  0
VERTEX
  10
176.39432
  20
158.12845
  0
VERTEX
  10
176.91891
  20
157.83228
  0
VERTEX
  10
178.96719
  20
156.67584
  0
VERTEX
  10
179.50052
  20
156.39566
  0
VERTEX
  10
181.58292
  20
155.30182
  0
VERTEX
  10
182.12448
  20
155.03796
  0
VERTEX
  10
184.23907
  20
154.00766
  0
VERTEX
  10
184.78836
  20
153.76035
  0
VERTEX
  10
186.9332
  20
152.79465
  0
VERTEX
  10
187.56253
  20
152.74033
  0
VERTEX
  10
188.01749
  20
152.98688
  0
VERTEX
  10
188.28824
  20
153.42792
  0
VERTEX
  10
188.30215
  20
153.94524
  0
VERTEX
  10
188.05557
  20
154.40021
  0
VERTEX
  10
187.32553
  20
154.87259
  0
VERTEX
  10
185.39581
  20
155.99786
  0
VERTEX
  10
184.9111
  20
156.30179
  0
VERTEX
  10
183.01846
  20
157.48833
  0
VERTEX
  10
182.54373
  20
157.8076
  0
VERTEX
  10
180.69009
  20
159.05429
  0
VERTEX
  10
180.22586
  20
159.3886
  0
VERTEX
  10
178.41318
  20
160.69402
  0
VERTEX
  10
177.9599
  20
161.04308
  0
VERTEX
  10
176.19003
  20
162.40598
  0
VERTEX
  10
175.74817
  20
162.76938
  0
VERTEX
  10
174.02286
  20
164.18829
  0
VERTEX
  10
173.5929
  20
164.5657
  0
VERTEX
  10
171.91397
  20
166.03923
  0
VERTEX
  10
171.49631
  20
166.43021
  0
VERTEX
  10
169.86551
  20
167.95682
  0
VERTEX
  10
169.4606
  20
168.36098
  0
VERTEX
  10
167.87958
  20
169.93907
  0
VERTEX
  10
167.48785
  20
170.35602
  0
VERTEX
  10
165.95828
  20
171.98401
  0
VERTEX
  10
165.58011
  20
172.4133
  0
VERTEX
  10
164.10349
  20
174.08949
  0
VERTEX
  10
163.73926
  20
174.53067
  0
VERTEX
  10
162.31717
  20
176.25336
  0
VERTEX
  10
161.96729
  20
176.70599
  0
VERTEX
  10
160.60117
  20
178.47342
  0
VERTEX
  10
160.15018
  20
179.08582
  0
VERTEX
  10
159.48697
  20
180.00317
  0
VERTEX
  10
159.11728
  20
180.51952
  0
VERTEX
  10
158.7598
  20
181.03221
  0
VERTEX
  10
157.76987
  20
182.49562
  0
VERTEX
  10
157.45926
  20
182.96228
  0
VERTEX
  10
157.12161
  20
183.48393
  0
VERTEX
  10
156.35207
  20
184.70425
  0
VERTEX
  10
156.06131
  20
185.17107
  0
VERTEX
  10
155.77386
  20
185.64316
  0
VERTEX
  10
154.96521
  20
187.01724
  0
VERTEX
  10
154.69229
  20
187.48601
  0
VERTEX
  10
154.41284
  20
187.97787
  0
VERTEX
  10
154.13159
  20
188.48624
  0
VERTEX
  10
153.54947
  20
189.55768
  0
VERTEX
  10
153.22226
  20
190.1676
  0
VERTEX
  10
152.95416
  20
190.68289
  0
VERTEX
  10
152.30724
  20
191.96654
  0
VERTEX
  10
152.02722
  20
192.52843
  0
VERTEX
  10
151.78842
  20
193.02164
  0
VERTEX
  10
151.56241
  20
193.50137
  0
VERTEX
  10
151.04977
  20
194.60873
  0
VERTEX
  10
150.82587
  20
195.09845
  0
VERTEX
  10
150.22755
  20
196.44406
  0
VERTEX
  10
149.6606
  20
197.72214
  0
VERTEX
  10
149.29048
  20
198.55649
  0
VERTEX
  10
148.20724
  20
200.99841
  0
VERTEX
  10
147.83476
  20
201.83806
  0
VERTEX
  10
140.98685
  20
217.27518
  0
VERTEX
  10
135.65656
  20
229.19333
  0
VERTEX
  10
129.9946
  20
241.92218
  0
VERTEX
  10
128.49496
  20
245.43532
  0
VERTEX
  10
128.8367
  20
245.85962
  0
VERTEX
  10
129.40782
  20
246.02138
  0
VERTEX
  10
130.0116
  20
246.00684
  0
VERTEX
  10
130.72034
  20
245.73459
  0
VERTEX
  10
131.26514
  20
245.23172
  0
VERTEX
  10
138.01176
  20
230.14709
  0
VERTEX
  10
138.28215
  20
229.53757
  0
VERTEX
  10
139.86588
  20
225.96744
  0
VERTEX
  10
140.73857
  20
224.08875
  0
VERTEX
  10
140.96208
  20
223.6076
  0
VERTEX
  10
141.20215
  20
223.13452
  0
VERTEX
  10
142.13947
  20
221.28723
  0
VERTEX
  10
142.39578
  20
220.82275
  0
VERTEX
  10
143.39664
  20
219.00909
  0
VERTEX
  10
143.66891
  20
218.55377
  0
VERTEX
  10
144.73209
  20
216.77594
  0
VERTEX
  10
145.02
  20
216.33032
  0
VERTEX
  10
146.1442
  20
214.59044
  0
VERTEX
  10
146.44739
  20
214.15512
  0
VERTEX
  10
147.63127
  20
212.45526
  0
VERTEX
  10
147.94939
  20
212.0307
  0
VERTEX
  10
149.19151
  20
210.37292
  0
VERTEX
  10
149.52417
  20
209.95966
  0
VERTEX
  10
150.82303
  20
208.34598
  0
VERTEX
  10
151.1698
  20
207.94449
  0
VERTEX
  10
152.5239
  20
206.37685
  0
VERTEX
  10
152.8844
  20
205.98764
  0
VERTEX
  10
154.29202
  20
204.4679
  0
VERTEX
  10
154.66582
  20
204.09142
  0
VERTEX
  10
156.12532
  20
202.62143
  0
VERTEX
  10
156.51193
  20
202.25815
  0
VERTEX
  10
158.02158
  20
200.83966
  0
VERTEX
  10
158.42056
  20
200.49004
  0
VERTEX
  10
159.97849
  20
199.12476
  0
VERTEX
  10
160.38937
  20
198.78915
  0
VERTEX
  10
161.99368
  20
197.47876
  0
VERTEX
  10
162.41599
  20
197.15761
  0
VERTEX
  10
164.06479
  20
195.90364
  0
VERTEX
  10
164.49796
  20
195.59735
  0
VERTEX
  10
166.1893
  20
194.40135
  0
VERTEX
  10
166.63281
  20
194.11024
  0
VERTEX
  10
168.36459
  20
192.97362
  0
VERTEX
  10
168.81796
  20
192.69809
  0
VERTEX
  10
170.58813
  20
191.62225
  0
VERTEX
  10
171.05081
  20
191.36258
  0
VERTEX
  10
172.85724
  20
190.34879
  0
VERTEX
  10
173.32861
  20
190.10535
  0
VERTEX
  10
175.1691
  20
189.1548
  0
VERTEX
  10
175.64862
  20
188.92786
  0
VERTEX
  10
177.52103
  20
188.04172
  0
VERTEX
  10
178.00815
  20
187.83156
  0
VERTEX
  10
179.91013
  20
187.01094
  0
VERTEX
  10
180.40427
  20
186.81778
  0
VERTEX
  10
182.33356
  20
186.0636
  0
VERTEX
  10
182.83408
  20
185.8877
  0
VERTEX
  10
184.78839
  20
185.20093
  0
VERTEX
  10
185.29471
  20
185.04248
  0
VERTEX
  10
187.27167
  20
184.42392
  0
VERTEX
  10
187.78317
  20
184.28317
  0
VERTEX
  10
189.78043
  20
183.73352
  0
VERTEX
  10
190.29648
  20
183.61058
  0
VERTEX
  10
192.31161
  20
183.13052
  0
VERTEX
  10
192.83163
  20
183.0256
  0
VERTEX
  10
194.86215
  20
182.61575
  0
VERTEX
  10
195.3855
  20
182.5289
  0
VERTEX
  10
197.42905
  20
182.18973
  0
VERTEX
  10
197.95508
  20
182.12108
  0
VERTEX
  10
200.00916
  20
181.85303
  0
VERTEX
  10
200.53726
  20
181.80267
  0
VERTEX
  10
202.59943
  20
181.60597
  0
VERTEX
  10
203.12897
  20
181.57397
  0
VERTEX
  10
205.19669
  20
181.44899
  0
VERTEX
  10
205.80679
  20
181.43208
  0
VERTEX
  10
208.189
  20
181.36613
  0
VERTEX
  10
208.79935
  20
181.36797
  0
VERTEX
  10
211.1825
  20
181.37517
  0
VERTEX
  10
211.79248
  20
181.39572
  0
VERTEX
  10
214.17426
  20
181.4761
  0
VERTEX
  10
214.78333
  20
181.5154
  0
VERTEX
  10
217.16153
  20
181.66884
  0
VERTEX
  10
217.76913
  20
181.72679
  0
VERTEX
  10
220.14148
  20
181.9532
  0
VERTEX
  10
220.74698
  20
182.02982
  0
VERTEX
  10
223.1113
  20
182.32892
  0
VERTEX
  10
223.71417
  20
182.42404
  0
VERTEX
  10
226.06818
  20
182.79559
  0
VERTEX
  10
226.66785
  20
182.90916
  0
VERTEX
  10
229.00934
  20
183.35278
  0
VERTEX
  10
229.60526
  20
183.4848
  0
VERTEX
  10
231.93201
  20
184.00009
  0
VERTEX
  10
232.52359
  20
184.15027
  0
VERTEX
  10
234.83344
  20
184.73677
  0
VERTEX
  10
235.4201
  20
184.90506
  0
VERTEX
  10
237.71088
  20
185.56215
  0
VERTEX
  10
238.29211
  20
185.74838
  0
VERTEX
  10
240.56161
  20
186.47554
  0
VERTEX
  10
241.13687
  20
186.6795
  0
VERTEX
  10
243.38297
  20
187.47595
  0
VERTEX
  10
243.95169
  20
187.69749
  0
VERTEX
  10
246.1723
  20
188.56255
  0
VERTEX
  10
246.73392
  20
188.80145
  0
VERTEX
  10
248.92694
  20
189.73425
  0
VERTEX
  10
249.48099
  20
189.99026
  0
VERTEX
  10
251.64432
  20
190.98994
  0
VERTEX
  10
252.19025
  20
191.26283
  0
VERTEX
  10
254.32187
  20
192.32848
  0
VERTEX
  10
254.85916
  20
192.61803
  0
VERTEX
  10
256.95706
  20
193.7486
  0
VERTEX
  10
257.4852
  20
194.05449
  0
VERTEX
  10
259.54742
  20
195.24887
  0
VERTEX
  10
260.06592
  20
195.57089
  0
VERTEX
  10
262.09048
  20
196.82805
  0
VERTEX
  10
262.59888
  20
197.16577
  0
VERTEX
  10
264.58392
  20
198.48453
  0
VERTEX
  10
265.0817
  20
198.83771
  0
VERTEX
  10
267.0253
  20
200.21674
  0
VERTEX
  10
267.51199
  20
200.58502
  0
VERTEX
  10
269.41232
  20
202.02313
  0
VERTEX
  10
269.88748
  20
202.40619
  0
VERTEX
  10
271.74283
  20
203.90192
  0
VERTEX
  10
272.20599
  20
204.29939
  0
VERTEX
  10
274.0145
  20
205.85136
  0
VERTEX
  10
274.46524
  20
206.26285
  0
VERTEX
  10
276.22531
  20
207.86961
  0
VERTEX
  10
276.66321
  20
208.29477
  0
VERTEX
  10
278.37308
  20
209.9548
  0
VERTEX
  10
280.03116
  20
211.66653
  0
VERTEX
  10
280.45581
  20
212.10492
  0
VERTEX
  10
282.06058
  20
213.86676
  0
VERTEX
  10
282.47159
  20
214.31799
  0
VERTEX
  10
282.86856
  20
214.78165
  0
VERTEX
  10
284.41846
  20
216.59189
  0
VERTEX
  10
285.71353
  20
218.20862
  0
VERTEX
  10
286.0452
  20
218.62265
  0
VERTEX
  10
286.36234
  20
219.04799
  0
VERTEX
  10
287.60052
  20
220.70868
  0
VERTEX
  10
287.90271
  20
221.14474
  0
VERTEX
  10
289.08258
  20
222.84738
  0
VERTEX
  10
289.36942
  20
223.29366
  0
VERTEX
  10
290.48947
  20
225.03619
  0
VERTEX
  10
290.76071
  20
225.49213
  0
VERTEX
  10
291.81967
  20
227.27246
  0
VERTEX
  10
292.07492
  20
227.73758
  0
VERTEX
  10
293.0715
  20
229.55359
  0
VERTEX
  10
293.31039
  20
230.02722
  0
VERTEX
  10
294.24341
  20
231.87674
  0
VERTEX
  10
294.46579
  20
232.3584
  0
VERTEX
  10
295.33401
  20
234.23914
  0
VERTEX
  10
295.53958
  20
234.72823
  0
VERTEX
  10
296.34204
  20
236.63794
  0
VERTEX
  10
296.53049
  20
237.13388
  0
VERTEX
  10
297.26627
  20
239.0703
  0
VERTEX
  10
297.43735
  20
239.57246
  0
VERTEX
  10
298.10553
  20
241.53319
  0
VERTEX
  10
298.25909
  20
242.041
  0
VERTEX
  10
298.85886
  20
244.02377
  0
VERTEX
  10
298.99478
  20
244.53661
  0
VERTEX
  10
299.52536
  20
246.53897
  0
VERTEX
  10
299.64337
  20
247.05618
  0
VERTEX
  10
300.10419
  20
249.07578
  0
VERTEX
  10
300.20419
  20
249.59677
  0
VERTEX
  10
300.59476
  20
251.63112
  0
VERTEX
  10
300.67661
  20
252.15527
  0
VERTEX
  10
300.99628
  20
254.20195
  0
VERTEX
  10
301.05994
  20
254.72864
  0
VERTEX
  10
301.30841
  20
256.78513
  0
VERTEX
  10
301.35376
  20
257.31372
  0
VERTEX
  10
301.53079
  20
259.37762
  0
VERTEX
  10
301.55777
  20
259.90747
  0
VERTEX
  10
301.66309
  20
261.97626
  0
VERTEX
  10
301.67163
  20
262.50671
  0
VERTEX
  10
301.70514
  20
264.57794
  0
VERTEX
  10
301.69531
  20
265.10837
  0
VERTEX
  10
301.65695
  20
267.17947
  0
VERTEX
  10
301.62872
  20
267.70929
  0
VERTEX
  10
301.51852
  20
269.77783
  0
VERTEX
  10
301.47195
  20
270.30627
  0
VERTEX
  10
301.29001
  20
272.36975
  0
VERTEX
  10
301.22516
  20
272.8963
  0
VERTEX
  10
300.97183
  20
274.95221
  0
VERTEX
  10
300.8887
  20
275.4762
  0
VERTEX
  10
300.56418
  20
277.52209
  0
VERTEX
  10
300.46292
  20
278.04285
  0
VERTEX
  10
300.06766
  20
280.07629
  0
VERTEX
  10
299.94843
  20
280.59323
  0
VERTEX
  10
299.48282
  20
282.61169
  0
VERTEX
  10
299.34573
  20
283.12421
  0
VERTEX
  10
298.81039
  20
285.12531
  0
VERTEX
  10
298.65561
  20
285.63275
  0
VERTEX
  10
298.05118
  20
287.61407
  0
VERTEX
  10
297.87888
  20
288.11584
  0
VERTEX
  10
297.20612
  20
290.07501
  0
VERTEX
  10
297.01651
  20
290.5705
  0
VERTEX
  10
296.27618
  20
292.50519
  0
VERTEX
  10
296.06949
  20
292.99377
  0
VERTEX
  10
295.26248
  20
294.90161
  0
VERTEX
  10
294.53122
  20
296.55008
  0
VERTEX
  10
294.30563
  20
297.05862
  0
VERTEX
  10
294.047
  20
297.64166
  0
VERTEX
  10
293.79721
  20
298.20471
  0
VERTEX
  10
292.88806
  20
300.25418
  0
VERTEX
  10
289.76569
  20
307.29291
  0
VERTEX
  10
289.5405
  20
307.80054
  0
VERTEX
  10
288.96695
  20
309.09344
  0
VERTEX
  10
288.58521
  20
309.95398
  0
VERTEX
  10
288.10831
  20
311.02911
  0
VERTEX
  10
287.79697
  20
311.73096
  0
VERTEX
  10
287.4184
  20
312.58432
  0
VERTEX
  10
287.15167
  20
313.18561
  0
VERTEX
  10
286.88672
  20
313.7829
  0
VERTEX
  10
286.72382
  20
314.45251
  0
VERTEX
  10
286.8251
  20
315.23114
  0
VERTEX
  10
287.11465
  20
315.79013
  0
VERTEX
  10
287.55005
  20
316.21909
  0
VERTEX
  10
288.34671
  20
316.61853
  0
VERTEX
  10
289.68823
  20
313.65833
  0
VERTEX
  10
290.80341
  20
311.14444
  0
VERTEX
  10
295.66931
  20
300.17523
  0
SEQEND
  0
POLYLINE
  62
0
  70
1
  0
VERTEX
  10
230.38307
  20
370.90463
  0
VERTEX
  10
230.49068
  20
371.07623
  0
VERTEX
  10
230.62616
  20
371.21863
  0
VERTEX
  10
230.78415
  20
371.32999
  0
VERTEX
  10
230.95923
  20
371.40845
  0
VERTEX
  10
231.14603
  20
371.45227
  0
VERTEX
  10
231.33917
  20
371.45953
  0
VERTEX
  10
231.53325
  20
371.4285
  0
VERTEX
  10
231.72289
  20
371.35733
  0
VERTEX
  10
231.8945
  20
371.24973
  0
VERTEX
  10
232.0369
  20
371.11423
  0
VERTEX
  10
232.14824
  20
370.95627
  0
VERTEX
  10
232.22672
  20
370.78119
  0
VERTEX
  10
232.27051
  20
370.59436
  0
VERTEX
  10
232.2778
  20
370.40125
  0
VERTEX
  10
232.24677
  20
370.20715
  0
VERTEX
  10
232.17558
  20
370.01752
  0
VERTEX
  10
232.06798
  20
369.84589
  0
VERTEX
  10
231.9325
  20
369.70352
  0
VERTEX
  10
231.77451
  20
369.59216
  0
VERTEX
  10
231.59943
  20
369.51367
  0
VERTEX
  10
231.41263
  20
369.46991
  0
VERTEX
  10
231.21948
  20
369.46262
  0
VERTEX
  10
231.02541
  20
369.49365
  0
VERTEX
  10
230.83577
  20
369.56482
  0
VERTEX
  10
230.66415
  20
369.67242
  0
VERTEX
  10
230.52176
  20
369.80792
  0
VERTEX
  10
230.41042
  20
369.96588
  0
VERTEX
  10
230.33194
  20
370.14099
  0
VERTEX
  10
230.28815
  20
370.32779
  0
VERTEX
  10
230.28085
  20
370.5209
  0
VERTEX
  10
230.31189
  20
370.715
  0
VERTEX
  10
230.38307
  20
370.90463
  0
SEQEND
  0
POLYLINE
  62
0
  70
1
  0
VERTEX
  10
352.27261
  20
310.58087
  0
VERTEX
  10
352.38019
  20
310.7525
  0
VERTEX
  10
352.51569
  20
310.8949
  0
VERTEX
  10
352.67368
  20
311.00623
  0
VERTEX
  10
352.84875
  20
311.08472
  0
VERTEX
  10
353.03555
  20
311.12851
  0
VERTEX
  10
353.2287
  20
311.1358
  0
VERTEX
  10
353.42279
  20
311.10477
  0
VERTEX
  10
353.61243
  20
311.03357
  0
VERTEX
  10
353.78406
  20
310.92596
  0
VERTEX
  10
353.92645
  20
310.7905
  0
VERTEX
  10
354.03778
  20
310.63251
  0
VERTEX
  10
354.11627
  20
310.45743
  0
VERTEX
  10
354.16003
  20
310.27063
  0
VERTEX
  10
354.16733
  20
310.07748
  0
VERTEX
  10
354.13626
  20
309.88342
  0
VERTEX
  10
354.06509
  20
309.69379
  0
VERTEX
  10
353.95752
  20
309.52216
  0
VERTEX
  10
353.82202
  20
309.37976
  0
VERTEX
  10
353.66403
  20
309.26843
  0
VERTEX
  10
353.48895
  20
309.18994
  0
VERTEX
  10
353.30215
  20
309.14615
  0
VERTEX
  10
353.10901
  20
309.13885
  0
VERTEX
  10
352.91492
  20
309.16989
  0
VERTEX
  10
352.72528
  20
309.24109
  0
VERTEX
  10
352.55365
  20
309.34869
  0
VERTEX
  10
352.41125
  20
309.48416
  0
VERTEX
  10
352.29993
  20
309.64215
  0
VERTEX
  10
352.22144
  20
309.81723
  0
VERTEX
  10
352.17767
  20
310.00403
  0
VERTEX
  10
352.17038
  20
310.19717
  0
VERTEX
  10
352.20145
  20
310.39124
  0
VERTEX
  10
352.27261
  20
310.58087
  0
SEQEND
  0
POLYLINE
  62
0
  70
1
  0
VERTEX
  10
339.20886
  20
241.15498
  0
VERTEX
  10
339.28006
  20
241.34462
  0
VERTEX
  10
339.3111
  20
241.5387
  0
VERTEX
  10
339.30377
  20
241.73184
  0
VERTEX
  10
339.26001
  20
241.91864
  0
VERTEX
  10
339.18152
  20
242.09372
  0
VERTEX
  10
339.07019
  20
242.25171
  0
VERTEX
  10
338.9278
  20
242.38719
  0
VERTEX
  10
338.7562
  20
242.4948
  0
VERTEX
  10
338.56656
  20
242.56598
  0
VERTEX
  10
338.37247
  20
242.59702
  0
VERTEX
  10
338.17932
  20
242.58972
  0
VERTEX
  10
337.99252
  20
242.54593
  0
VERTEX
  10
337.81744
  20
242.46745
  0
VERTEX
  10
337.65945
  20
242.35611
  0
VERTEX
  10
337.52399
  20
242.21371
  0
VERTEX
  10
337.41638
  20
242.0421
  0
VERTEX
  10
337.34518
  20
241.85246
  0
VERTEX
  10
337.31415
  20
241.65839
  0
VERTEX
  10
337.32147
  20
241.46524
  0
VERTEX
  10
337.36523
  20
241.27844
  0
VERTEX
  10
337.44373
  20
241.10336
  0
VERTEX
  10
337.55505
  20
240.94537
  0
VERTEX
  10
337.69745
  20
240.80989
  0
VERTEX
  10
337.86905
  20
240.70229
  0
VERTEX
  10
338.05869
  20
240.6311
  0
VERTEX
  10
338.25278
  20
240.60007
  0
VERTEX
  10
338.44592
  20
240.60736
  0
VERTEX
  10
338.63272
  20
240.65115
  0
VERTEX
  10
338.8078
  20
240.72963
  0
VERTEX
  10
338.96579
  20
240.84097
  0
VERTEX
  10
339.10126
  20
240.98337
  0
VERTEX
  10
339.20886
  20
241.15498
  0
SEQEND
  0
POLYLINE
  62
0
  70
1
  0
VERTEX
  10
185.18837
  20
317.38049
  0
VERTEX
  10
185.29597
  20
317.55212
  0
VERTEX
  10
185.43146
  20
317.69452
  0
VERTEX
  10
185.58945
  20
317.80585
  0
VERTEX
  10
185.76453
  20
317.88434
  0
VERTEX
  10
185.95132
  20
317.92813
  0
VERTEX
  10
186.14447
  20
317.93542
  0
VERTEX
  10
186.33855
  20
317.90439
  0
VERTEX
  10
186.52818
  20
317.83319
  0
VERTEX
  10
186.6998
  20
317.72559
  0
VERTEX
  10
186.84219
  20
317.59012
  0
VERTEX
  10
186.95354
  20
317.43213
  0
VERTEX
  10
187.03201
  20
317.25705
  0
VERTEX
  10
187.07581
  20
317.07025
  0
VERTEX
  10
187.0831
  20
316.87711
  0
VERTEX
  10
187.05206
  20
316.68304
  0
VERTEX
  10
186.98088
  20
316.49341
  0
VERTEX
  10
186.87328
  20
316.32178
  0
VERTEX
  10
186.73779
  20
316.17938
  0
VERTEX
  10
186.5798
  20
316.06805
  0
VERTEX
  10
186.40472
  20
315.98956
  0
VERTEX
  10
186.21793
  20
315.94577
  0
VERTEX
  10
186.02478
  20
315.93848
  0
VERTEX
  10
185.8307
  20
315.96951
  0
VERTEX
  10
185.64107
  20
316.04071
  0
VERTEX
  10
185.46945
  20
316.14832
  0
VERTEX
  10
185.32706
  20
316.28378
  0
VERTEX
  10
185.21571
  20
316.44177
  0
VERTEX
  10
185.13724
  20
316.61685
  0
VERTEX
  10
185.09344
  20
316.80365
  0
VERTEX
  10
185.08615
  20
316.9968
  0
VERTEX
  10
185.11719
  20
317.19086
  0
VERTEX
  10
185.18837
  20
317.38049
  0
SEQEND
  0
POLYLINE
  62
0
  70
1
  0
VERTEX
  10
188.80356
  20
319.19873
  0
VERTEX
  10
188.28592
  20
319.19733
  0
VERTEX
  10
187.83691
  20
319.45493
  0
VERTEX
  10
187.57687
  20
319.90253
  0
VERTEX
  10
187.57547
  20
320.42017
  0
VERTEX
  10
189.15382
  20
323.64322
  0
VERTEX
  10
191.06618
  20
327.49298
  0
VERTEX
  10
191.79655
  20
328.90369
  0
VERTEX
  10
192.37225
  20
330.01556
  0
VERTEX
  10
193.14937
  20
331.40106
  0
VERTEX
  10
193.7619
  20
332.49313
  0
VERTEX
  10
194.41058
  20
333.56409
  0
VERTEX
  10
195.23358
  20
334.92285
  0
VERTEX
  10
195.91766
  20
335.97156
  0
VERTEX
  10
196.78561
  20
337.30206
  0
VERTEX
  10
197.50436
  20
338.32733
  0
VERTEX
  10
198.41628
  20
339.62808
  0
VERTEX
  10
199.1689
  20
340.62875
  0
VERTEX
  10
200.12375
  20
341.89832
  0
VERTEX
  10
200.90941
  20
342.87326
  0
VERTEX
  10
201.90614
  20
344.1102
  0
VERTEX
  10
202.72392
  20
345.05838
  0
VERTEX
  10
203.76143
  20
346.26132
  0
VERTEX
  10
204.61044
  20
347.18164
  0
VERTEX
  10
205.68759
  20
348.34924
  0
VERTEX
  10
206.56686
  20
349.24066
  0
VERTEX
  10
207.68242
  20
350.37161
  0
VERTEX
  10
208.59099
  20
351.23315
  0
VERTEX
  10
209.74373
  20
352.3262
  0
VERTEX
  10
210.68059
  20
353.15692
  0
VERTEX
  10
211.86917
  20
354.21082
  0
VERTEX
  10
212.83328
  20
355.00977
  0
VERTEX
  10
214.05643
  20
356.02341
  0
VERTEX
  10
215.04669
  20
356.78967
  0
VERTEX
  10
216.30304
  20
357.76184
  0
VERTEX
  10
217.31833
  20
358.4946
  0
VERTEX
  10
218.60646
  20
359.42426
  0
VERTEX
  10
219.64568
  20
360.12268
  0
VERTEX
  10
220.96416
  20
361.00879
  0
VERTEX
  10
222.02612
  20
361.67206
  0
VERTEX
  10
223.37347
  20
362.51361
  0
VERTEX
  10
224.45702
  20
363.14108
  0
VERTEX
  10
225.83173
  20
363.93713
  0
VERTEX
  10
226.93565
  20
364.52802
  0
VERTEX
  10
228.3362
  20
365.27768
  0
VERTEX
  10
229.45924
  20
365.83136
  0
VERTEX
  10
230.88403
  20
366.53381
  0
VERTEX
  10
232.02496
  20
367.04965
  0
VERTEX
  10
233.47244
  20
367.7041
  0
VERTEX
  10
234.62997
  20
368.18152
  0
VERTEX
  10
236.09851
  20
368.78723
  0
VERTEX
  10
237.27133
  20
369.22571
  0
VERTEX
  10
238.75931
  20
369.78204
  0
VERTEX
  10
239.94614
  20
370.18109
  0
VERTEX
  10
241.45184
  20
370.68738
  0
VERTEX
  10
242.65134
  20
371.04654
  0
VERTEX
  10
244.17316
  20
371.5022
  0
VERTEX
  10
245.38396
  20
371.82111
  0
VERTEX
  10
246.92014
  20
372.22565
  0
VERTEX
  10
248.14095
  20
372.50391
  0
VERTEX
  10
249.68979
  20
372.85693
  0
VERTEX
  10
250.91919
  20
373.09424
  0
VERTEX
  10
252.47896
  20
373.39529
  0
VERTEX
  10
253.71564
  20
373.5914
  0
VERTEX
  10
255.28459
  20
373.84018
  0
VERTEX
  10
256.5271
  20
373.99481
  0
VERTEX
  10
258.10352
  20
374.19104
  0
VERTEX
  10
259.35052
  20
374.30408
  0
VERTEX
  10
260.93259
  20
374.44751
  0
VERTEX
  10
262.18265
  20
374.51886
  0
VERTEX
  10
263.76865
  20
374.60931
  0
VERTEX
  10
265.02039
  20
374.63882
  0
VERTEX
  10
266.60852
  20
374.67627
  0
VERTEX
  10
267.86057
  20
374.66391
  0
VERTEX
  10
269.44904
  20
374.64825
  0
VERTEX
  10
270.69998
  20
374.59409
  0
VERTEX
  10
272.28708
  20
374.52539
  0
VERTEX
  10
273.53549
  20
374.42944
  0
VERTEX
  10
275.11938
  20
374.30774
  0
VERTEX
  10
276.36392
  20
374.17014
  0
VERTEX
  10
277.94287
  20
373.99554
  0
VERTEX
  10
279.18207
  20
373.81644
  0
VERTEX
  10
280.7543
  20
373.5892
  0
VERTEX
  10
281.98688
  20
373.36877
  0
VERTEX
  10
283.55063
  20
373.08914
  0
VERTEX
  10
284.77512
  20
372.82767
  0
VERTEX
  10
286.32864
  20
372.49591
  0
VERTEX
  10
287.54373
  20
372.19366
  0
VERTEX
  10
289.08533
  20
371.81018
  0
VERTEX
  10
290.28961
  20
371.46753
  0
VERTEX
  10
291.81754
  20
371.03275
  0
VERTEX
  10
293.0097
  20
370.65002
  0
VERTEX
  10
294.52225
  20
370.16443
  0
VERTEX
  10
295.70096
  20
369.74207
  0
VERTEX
  10
297.19641
  20
369.20624
  0
VERTEX
  10
298.36038
  20
368.74472
  0
VERTEX
  10
299.8371
  20
368.15918
  0
VERTEX
  10
300.98495
  20
367.65906
  0
VERTEX
  10
302.44131
  20
367.02454
  0
VERTEX
  10
303.57184
  20
366.4863
  0
VERTEX
  10
305.00613
  20
365.80347
  0
VERTEX
  10
306.11804
  20
365.22775
  0
VERTEX
  10
307.52875
  20
364.49738
  0
VERTEX
  10
308.62079
  20
363.88483
  0
VERTEX
  10
310.00629
  20
363.1077
  0
VERTEX
  10
311.07727
  20
362.45901
  0
VERTEX
  10
312.43604
  20
361.63605
  0
VERTEX
  10
313.48474
  20
360.95193
  0
VERTEX
  10
314.81525
  20
360.08401
  0
VERTEX
  10
315.84052
  20
359.36526
  0
VERTEX
  10
317.14124
  20
358.45334
  0
VERTEX
  10
318.14191
  20
357.70071
  0
VERTEX
  10
319.4115
  20
356.74585
  0
VERTEX
  10
320.38644
  20
355.96024
  0
VERTEX
  10
321.62338
  20
354.9635
  0
VERTEX
  10
322.57153
  20
354.14569
  0
VERTEX
  10
323.77448
  20
353.10818
  0
VERTEX
  10
324.69479
  20
352.25916
  0
VERTEX
  10
325.8624
  20
351.18204
  0
VERTEX
  10
326.75385
  20
350.30273
  0
VERTEX
  10
327.8848
  20
349.18719
  0
VERTEX
  10
328.74634
  20
348.27863
  0
VERTEX
  10
329.83939
  20
347.12592
  0
VERTEX
  10
330.67007
  20
346.18903
  0
VERTEX
  10
331.724
  20
345.00043
  0
VERTEX
  10
332.52295
  20
344.03632
  0
VERTEX
  10
333.53656
  20
342.81317
  0
VERTEX
  10
334.30283
  20
341.82294
  0
VERTEX
  10
335.27502
  20
340.56659
  0
VERTEX
  10
336.00778
  20
339.55127
  0
VERTEX
  10
336.93744
  20
338.26315
  0
VERTEX
  10
337.63583
  20
337.22394
  0
VERTEX
  10
338.52194
  20
335.90546
  0
VERTEX
  10
339.18524
  20
334.84348
  0
VERTEX
  10
340.02679
  20
333.49612
  0
VERTEX
  10
340.65424
  20
332.4126
  0
VERTEX
  10
341.45029
  20
331.0379
  0
VERTEX
  10
342.0412
  20
329.93396
  0
VERTEX
  10
342.79086
  20
328.53342
  0
VERTEX
  10
343.34454
  20
327.4104
  0
VERTEX
  10
344.047
  20
325.9856
  0
VERTEX
  10
344.56284
  20
324.84467
  0
VERTEX
  10
345.21729
  20
323.39716
  0
VERTEX
  10
345.6947
  20
322.23965
  0
VERTEX
  10
346.30042
  20
320.77112
  0
VERTEX
  10
346.73889
  20
319.59827
  0
VERTEX
  10
347.29523
  20
318.11032
  0
VERTEX
  10
347.69424
  20
316.92349
  0
VERTEX
  10
348.20053
  20
315.41779
  0
VERTEX
  10
348.55969
  20
314.21829
  0
VERTEX
  10
349.01538
  20
312.69647
  0
VERTEX
  10
349.33426
  20
311.48566
  0
VERTEX
  10
349.73883
  20
309.94946
  0
VERTEX
  10
350.01709
  20
308.72867
  0
VERTEX
  10
350.37012
  20
307.17981
  0
VERTEX
  10
350.60742
  20
305.95041
  0
VERTEX
  10
350.90848
  20
304.39063
  0
VERTEX
  10
351.10455
  20
303.15399
  0
VERTEX
  10
351.35333
  20
301.58502
  0
VERTEX
  10
351.508
  20
300.3425
  0
VERTEX
  10
351.70419
  20
298.76611
  0
VERTEX
  10
351.81726
  20
297.51913
  0
VERTEX
  10
351.96069
  20
295.93704
  0
VERTEX
  10
352.03201
  20
294.68695
  0
VERTEX
  10
352.1225
  20
293.10098
  0
VERTEX
  10
352.15198
  20
291.84921
  0
VERTEX
  10
352.18942
  20
290.26111
  0
VERTEX
  10
352.17709
  20
289.00906
  0
VERTEX
  10
352.16144
  20
287.42056
  0
VERTEX
  10
352.10727
  20
286.16962
  0
VERTEX
  10
352.03854
  20
284.58255
  0
VERTEX
  10
351.9426
  20
283.33414
  0
VERTEX
  10
351.82089
  20
281.75024
  0
VERTEX
  10
351.68329
  20
280.50571
  0
VERTEX
  10
351.50873
  20
278.92676
  0
VERTEX
  10
351.32962
  20
277.68753
  0
VERTEX
  10
351.10239
  20
276.1153
  0
VERTEX
  10
350.88196
  20
274.88275
  0
VERTEX
  10
350.60233
  20
273.319
  0
VERTEX
  10
350.34082
  20
272.09451
  0
VERTEX
  10
350.00909
  20
270.54095
  0
VERTEX
  10
349.70685
  20
269.3259
  0
VERTEX
  10
349.32336
  20
267.7843
  0
VERTEX
  10
348.98068
  20
266.58002
  0
VERTEX
  10
348.54593
  20
265.05206
  0
VERTEX
  10
348.16318
  20
263.85992
  0
VERTEX
  10
347.67761
  20
262.34738
  0
VERTEX
  10
347.25525
  20
261.16867
  0
VERTEX
  10
346.71939
  20
259.67319
  0
VERTEX
  10
346.2579
  20
258.50925
  0
VERTEX
  10
345.67236
  20
257.03253
  0
VERTEX
  10
345.17224
  20
255.88464
  0
VERTEX
  10
344.53769
  20
254.42831
  0
VERTEX
  10
343.99948
  20
253.29779
  0
VERTEX
  10
343.31662
  20
251.86346
  0
VERTEX
  10
341.80933
  20
248.8291
  0
VERTEX
  10
339.89697
  20
244.97934
  0
VERTEX
  10
339.55453
  20
244.59116
  0
VERTEX
  10
339.23627
  20
244.45219
  0
VERTEX
  10
338.71878
  20
244.46498
  0
VERTEX
  10
338.27701
  20
244.7348
  0
VERTEX
  10
338.02936
  20
245.18933
  0
VERTEX
  10
338.15298
  20
246.71812
  0
VERTEX
  10
338.33304
  20
248.18344
  0
VERTEX
  10
338.43524
  20
249.34258
  0
VERTEX
  10
338.56497
  20
250.8132
  0
VERTEX
  10
338.62738
  20
251.97516
  0
VERTEX
  10
338.7066
  20
253.44937
  0
VERTEX
  10
338.72916
  20
254.61279
  0
VERTEX
  10
338.75781
  20
256.08884
  0
VERTEX
  10
338.74048
  20
257.25235
  0
VERTEX
  10
338.71848
  20
258.72852
  0
VERTEX
  10
338.66129
  20
259.89075
  0
VERTEX
  10
338.58871
  20
261.3653
  0
VERTEX
  10
338.4917
  20
262.5249
  0
VERTEX
  10
338.36859
  20
263.99609
  0
VERTEX
  10
338.2319
  20
265.15167
  0
VERTEX
  10
338.05847
  20
266.61777
  0
VERTEX
  10
337.8822
  20
267.76801
  0
VERTEX
  10
337.65863
  20
269.22729
  0
VERTEX
  10
337.44305
  20
270.37079
  0
VERTEX
  10
337.16956
  20
271.82156
  0
VERTEX
  10
336.91492
  20
272.957
  0
VERTEX
  10
336.59186
  20
274.39755
  0
VERTEX
  10
336.29843
  20
275.52359
  0
VERTEX
  10
335.92618
  20
276.95221
  0
VERTEX
  10
335.59433
  20
278.06754
  0
VERTEX
  10
335.17334
  20
279.48257
  0
VERTEX
  10
334.80344
  20
280.58588
  0
VERTEX
  10
334.33417
  20
281.98563
  0
VERTEX
  10
333.9267
  20
283.07556
  0
VERTEX
  10
333.40973
  20
284.45844
  0
VERTEX
  10
332.96509
  20
285.53378
  0
VERTEX
  10
332.40103
  20
286.8981
  0
VERTEX
  10
331.9198
  20
287.95758
  0
VERTEX
  10
331.3093
  20
289.30176
  0
VERTEX
  10
330.79205
  20
290.34412
  0
VERTEX
  10
330.1358
  20
291.6666
  0
VERTEX
  10
329.58313
  20
292.69061
  0
VERTEX
  10
328.88196
  20
293.98981
  0
VERTEX
  10
328.29449
  20
294.99426
  0
VERTEX
  10
327.54916
  20
296.26865
  0
VERTEX
  10
326.92761
  20
297.25238
  0
VERTEX
  10
326.13907
  20
298.50049
  0
VERTEX
  10
325.48416
  20
299.46234
  0
VERTEX
  10
324.65329
  20
300.68265
  0
VERTEX
  10
323.78107
  20
301.87378
  0
VERTEX
  10
323.09357
  20
302.81262
  0
VERTEX
  10
322.26315
  20
303.87259
  0
VERTEX
  10
321.20959
  20
305.21741
  0
VERTEX
  10
320.34705
  20
306.25137
  0
VERTEX
  10
319.25269
  20
307.5632
  0
VERTEX
  10
318.3588
  20
308.57025
  0
VERTEX
  10
317.22467
  20
309.84784
  0
VERTEX
  10
316.30026
  20
310.82693
  0
VERTEX
  10
315.1275
  20
312.06915
  0
VERTEX
  10
314.17346
  20
313.01941
  0
VERTEX
  10
312.9631
  20
314.22501
  0
VERTEX
  10
311.98038
  20
315.14554
  0
VERTEX
  10
310.73355
  20
316.31342
  0
VERTEX
  10
309.72302
  20
317.20337
  0
VERTEX
  10
308.44095
  20
318.3324
  0
VERTEX
  10
307.40356
  20
319.19089
  0
VERTEX
  10
306.08743
  20
320.28006
  0
VERTEX
  10
305.0242
  20
321.10629
  0
VERTEX
  10
303.67523
  20
322.15454
  0
VERTEX
  10
302.58713
  20
322.94775
  0
VERTEX
  10
301.20667
  20
323.9541
  0
VERTEX
  10
300.0947
  20
324.7135
  0
VERTEX
  10
298.68396
  20
325.677
  0
VERTEX
  10
297.54922
  20
326.40192
  0
VERTEX
  10
296.10959
  20
327.32166
  0
VERTEX
  10
294.95313
  20
328.01141
  0
VERTEX
  10
293.48593
  20
328.88654
  0
VERTEX
  10
292.30884
  20
329.54047
  0
VERTEX
  10
290.81546
  20
330.37012
  0
VERTEX
  10
289.61887
  20
330.98758
  0
VERTEX
  10
288.10071
  20
331.771
  0
VERTEX
  10
286.88574
  20
332.35144
  0
VERTEX
  10
285.34427
  20
333.08789
  0
VERTEX
  10
284.112
  20
333.6308
  0
VERTEX
  10
282.54865
  20
334.31955
  0
VERTEX
  10
281.30032
  20
334.82434
  0
VERTEX
  10
279.71655
  20
335.46478
  0
VERTEX
  10
278.45334
  20
335.93103
  0
VERTEX
  10
276.85065
  20
336.52258
  0
VERTEX
  10
275.5737
  20
336.94983
  0
VERTEX
  10
273.95361
  20
337.49188
  0
VERTEX
  10
272.66415
  20
337.8797
  0
VERTEX
  10
271.0282
  20
338.37177
  0
VERTEX
  10
269.72742
  20
338.71985
  0
VERTEX
  10
268.07715
  20
339.16144
  0
VERTEX
  10
266.7663
  20
339.46942
  0
VERTEX
  10
265.10321
  20
339.86017
  0
VERTEX
  10
263.78357
  20
340.12775
  0
VERTEX
  10
262.10925
  20
340.46725
  0
VERTEX
  10
260.78198
  20
340.69421
  0
VERTEX
  10
259.09808
  20
340.98212
  0
VERTEX
  10
257.76447
  20
341.16824
  0
VERTEX
  10
256.07251
  20
341.40436
  0
VERTEX
  10
254.73381
  20
341.54944
  0
VERTEX
  10
253.0354
  20
341.73346
  0
VERTEX
  10
251.69289
  20
341.8374
  0
VERTEX
  10
249.98961
  20
341.96924
  0
VERTEX
  10
248.64455
  20
342.03186
  0
VERTEX
  10
246.93803
  20
342.11133
  0
VERTEX
  10
245.59167
  20
342.13266
  0
VERTEX
  10
243.88353
  20
342.15973
  0
VERTEX
  10
242.72006
  20
342.14035
  0
VERTEX
  10
241.24393
  20
342.11575
  0
VERTEX
  10
240.08179
  20
342.05649
  0
VERTEX
  10
238.60736
  20
341.98132
  0
VERTEX
  10
237.44795
  20
341.88226
  0
VERTEX
  10
235.97699
  20
341.75659
  0
VERTEX
  10
234.82164
  20
341.61783
  0
VERTEX
  10
233.35583
  20
341.4418
  0
VERTEX
  10
232.20593
  20
341.26352
  0
VERTEX
  10
230.74704
  20
341.03735
  0
VERTEX
  10
229.60393
  20
340.81976
  0
VERTEX
  10
228.15363
  20
340.54373
  0
VERTEX
  10
227.01865
  20
340.28708
  0
VERTEX
  10
225.57866
  20
339.96149
  0
VERTEX
  10
224.45314
  20
339.66608
  0
VERTEX
  10
223.02516
  20
339.29129
  0
VERTEX
  10
221.91043
  20
338.95749
  0
VERTEX
  10
220.49615
  20
338.53397
  0
VERTEX
  10
219.39351
  20
338.16214
  0
VERTEX
  10
217.99458
  20
337.6904
  0
VERTEX
  10
216.90535
  20
337.28101
  0
VERTEX
  10
215.52341
  20
336.76157
  0
VERTEX
  10
214.44884
  20
336.31506
  0
VERTEX
  10
213.08551
  20
335.7486
  0
VERTEX
  10
212.02689
  20
335.2655
  0
VERTEX
  10
210.68381
  20
334.65259
  0
VERTEX
  10
209.64235
  20
334.13351
  0
VERTEX
  10
208.32104
  20
333.47495
  0
VERTEX
  10
207.298
  20
332.92047
  0
VERTEX
  10
206.00006
  20
332.21698
  0
VERTEX
  10
204.99664
  20
331.62775
  0
VERTEX
  10
203.72357
  20
330.88019
  0
VERTEX
  10
202.74092
  20
330.25693
  0
VERTEX
  10
201.49423
  20
329.46616
  0
VERTEX
  10
200.53354
  20
328.80957
  0
VERTEX
  10
199.31467
  20
327.97653
  0
VERTEX
  10
198.37704
  20
327.28738
  0
VERTEX
  10
197.18745
  20
326.41306
  0
VERTEX
  10
196.27403
  20
325.69217
  0
VERTEX
  10
195.11511
  20
324.77759
  0
VERTEX
  10
194.22691
  20
324.02582
  0
VERTEX
  10
193.10002
  20
323.07202
  0
VERTEX
  10
192.23811
  20
322.29025
  0
VERTEX
  10
191.14461
  20
321.2984
  0
VERTEX
  10
190.08572
  20
320.26965
  0
VERTEX
  10
189.25114
  20
319.45877
  0
VERTEX
  10
188.80356
  20
319.19873
  0
SEQEND
  0
POLYLINE
  62
0
  70
1
  0
VERTEX
  10
329.31897
  20
217.50349
  0
VERTEX
  10
335.04803
  20
229.05992
  0
VERTEX
  10
342.68994
  20
244.44391
  0
VERTEX
  10
343.10614
  20
245.28185
  0
VERTEX
  10
343.90161
  20
246.88322
  0
VERTEX
  10
344.3089
  20
247.70316
  0
VERTEX
  10
345.04626
  20
249.18747
  0
VERTEX
  10
345.31531
  20
249.72911
  0
VERTEX
  10
345.62091
  20
250.34428
  0
VERTEX
  10
345.927
  20
250.96425
  0
VERTEX
  10
346.66022
  20
252.49646
  0
VERTEX
  10
347.00848
  20
253.24429
  0
VERTEX
  10
347.29248
  20
253.87843
  0
VERTEX
  10
347.7312
  20
254.87978
  0
VERTEX
  10
347.94714
  20
255.37726
  0
VERTEX
  10
348.15833
  20
255.87761
  0
VERTEX
  10
348.35828
  20
256.36514
  0
VERTEX
  10
348.7738
  20
257.40277
  0
VERTEX
  10
349.05225
  20
258.10602
  0
VERTEX
  10
349.43121
  20
259.1203
  0
VERTEX
  10
349.96014
  20
260.57468
  0
VERTEX
  10
350.15546
  20
261.13293
  0
VERTEX
  10
350.35187
  20
261.71768
  0
VERTEX
  10
350.69995
  20
262.77985
  0
VERTEX
  10
350.93225
  20
263.50305
  0
VERTEX
  10
351.09955
  20
264.04834
  0
VERTEX
  10
351.59235
  20
265.72998
  0
VERTEX
  10
351.74896
  20
266.27988
  0
VERTEX
  10
351.95465
  20
267.04529
  0
VERTEX
  10
352.23395
  20
268.12756
  0
VERTEX
  10
352.38751
  20
268.73578
  0
VERTEX
  10
352.95789
  20
271.24554
  0
VERTEX
  10
353.08307
  20
271.8038
  0
VERTEX
  10
353.19019
  20
272.36578
  0
VERTEX
  10
353.6087
  20
274.56006
  0
VERTEX
  10
353.69781
  20
275.12515
  0
VERTEX
  10
354.04572
  20
277.33179
  0
VERTEX
  10
354.11664
  20
277.89944
  0
VERTEX
  10
354.39362
  20
280.11603
  0
VERTEX
  10
354.44629
  20
280.6857
  0
VERTEX
  10
354.6521
  20
282.91003
  0
VERTEX
  10
354.68646
  20
283.48108
  0
VERTEX
  10
354.8208
  20
285.71094
  0
VERTEX
  10
354.83691
  20
286.28278
  0
VERTEX
  10
354.89966
  20
288.51575
  0
VERTEX
  10
354.8974
  20
289.08783
  0
VERTEX
  10
354.88855
  20
291.32166
  0
VERTEX
  10
354.86792
  20
291.89337
  0
VERTEX
  10
354.78748
  20
294.12579
  0
VERTEX
  10
354.74854
  20
294.69653
  0
VERTEX
  10
354.5965
  20
296.9252
  0
VERTEX
  10
354.53931
  20
297.49445
  0
VERTEX
  10
354.31592
  20
299.71704
  0
VERTEX
  10
354.24048
  20
300.28418
  0
VERTEX
  10
353.94592
  20
302.49854
  0
VERTEX
  10
353.85236
  20
303.06287
  0
VERTEX
  10
353.48694
  20
305.26666
  0
VERTEX
  10
353.57599
  20
305.892
  0
VERTEX
  10
353.91888
  20
306.2796
  0
VERTEX
  10
354.40961
  20
306.44385
  0
VERTEX
  10
354.91669
  20
306.34076
  0
VERTEX
  10
355.30432
  20
305.99786
  0
VERTEX
  10
355.59082
  20
305.14578
  0
VERTEX
  10
356.21631
  20
302.8783
  0
VERTEX
  10
356.35889
  20
302.29297
  0
VERTEX
  10
356.91541
  20
300.00754
  0
VERTEX
  10
357.04016
  20
299.41815
  0
VERTEX
  10
357.52716
  20
297.11694
  0
VERTEX
  10
357.63397
  20
296.52405
  0
VERTEX
  10
358.05109
  20
294.20911
  0
VERTEX
  10
358.13983
  20
293.61328
  0
VERTEX
  10
358.48657
  20
291.28674
  0
VERTEX
  10
358.55731
  20
290.68848
  0
VERTEX
  10
358.83337
  20
288.35254
  0
VERTEX
  10
358.88599
  20
287.75241
  0
VERTEX
  10
359.09119
  20
285.40918
  0
VERTEX
  10
359.12549
  20
284.80774
  0
VERTEX
  10
359.25952
  20
282.45935
  0
VERTEX
  10
359.2757
  20
281.85712
  0
VERTEX
  10
359.3385
  20
279.50574
  0
VERTEX
  10
359.33636
  20
278.90338
  0
VERTEX
  10
359.32794
  20
276.55115
  0
VERTEX
  10
359.30756
  20
275.94907
  0
VERTEX
  10
359.22784
  20
273.59821
  0
VERTEX
  10
359.18921
  20
272.99701
  0
VERTEX
  10
359.03839
  20
270.64966
  0
VERTEX
  10
358.90302
  20
269.12085
  0
VERTEX
  10
358.69836
  20
267.16565
  0
VERTEX
  10
361.18176
  20
266.87817
  0
VERTEX
  10
361.3678
  20
268.61859
  0
VERTEX
  10
361.4884
  20
269.97049
  0
VERTEX
  10
361.65472
  20
272.28824
  0
VERTEX
  10
361.69556
  20
272.91711
  0
VERTEX
  10
361.78021
  20
274.84595
  0
VERTEX
  10
361.80151
  20
275.47577
  0
VERTEX
  10
361.82727
  20
276.49182
  0
VERTEX
  10
361.83752
  20
277.487
  0
VERTEX
  10
361.80023
  20
281.24249
  0
VERTEX
  10
361.76849
  20
282.28809
  0
VERTEX
  10
361.69275
  20
283.86371
  0
VERTEX
  10
361.65564
  20
284.4928
  0
VERTEX
  10
361.47711
  20
286.92819
  0
VERTEX
  10
361.42065
  20
287.55582
  0
VERTEX
  10
361.16748
  20
289.98453
  0
VERTEX
  10
361.09161
  20
290.61017
  0
VERTEX
  10
360.76416
  20
293.02997
  0
VERTEX
  10
360.66901
  20
293.65295
  0
VERTEX
  10
360.2674
  20
296.06158
  0
VERTEX
  10
360.15308
  20
296.68127
  0
VERTEX
  10
359.6778
  20
299.07648
  0
VERTEX
  10
359.54431
  20
299.69238
  0
VERTEX
  10
358.99585
  20
302.07187
  0
VERTEX
  10
358.84344
  20
302.68332
  0
VERTEX
  10
358.22223
  20
305.04489
  0
VERTEX
  10
358.05096
  20
305.65131
  0
VERTEX
  10
357.3576
  20
307.99274
  0
VERTEX
  10
357.16772
  20
308.59363
  0
VERTEX
  10
356.40289
  20
310.91266
  0
VERTEX
  10
356.19452
  20
311.50739
  0
VERTEX
  10
355.35889
  20
313.80188
  0
VERTEX
  10
355.1322
  20
314.38989
  0
VERTEX
  10
354.22668
  20
316.65765
  0
VERTEX
  10
353.98193
  20
317.23834
  0
VERTEX
  10
353.00726
  20
319.47729
  0
VERTEX
  10
352.74469
  20
320.05017
  0
VERTEX
  10
351.70178
  20
322.25815
  0
VERTEX
  10
351.42163
  20
322.82263
  0
VERTEX
  10
350.31152
  20
324.99759
  0
VERTEX
  10
350.0141
  20
325.55316
  0
VERTEX
  10
348.83777
  20
327.69305
  0
VERTEX
  10
348.52332
  20
328.23914
  0
VERTEX
  10
347.28192
  20
330.34198
  0
VERTEX
  10
346.95068
  20
330.87811
  0
VERTEX
  10
345.64539
  20
332.94186
  0
VERTEX
  10
345.29785
  20
333.46747
  0
VERTEX
  10
343.92981
  20
335.49017
  0
VERTEX
  10
343.56616
  20
336.00485
  0
VERTEX
  10
342.13678
  20
337.98468
  0
VERTEX
  10
341.75732
  20
338.48785
  0
VERTEX
  10
340.26794
  20
340.42294
  0
VERTEX
  10
339.87317
  20
340.91409
  0
VERTEX
  10
338.32507
  20
342.80261
  0
VERTEX
  10
337.91528
  20
343.28134
  0
VERTEX
  10
336.31006
  20
345.12143
  0
VERTEX
  10
335.88568
  20
345.58731
  0
VERTEX
  10
334.22473
  20
347.37735
  0
VERTEX
  10
333.78613
  20
347.82983
  0
VERTEX
  10
332.68463
  20
348.9585
  0
VERTEX
  10
332.03687
  20
349.59854
  0
VERTEX
  10
329.57184
  20
351.94662
  0
VERTEX
  10
328.98083
  20
352.48901
  0
VERTEX
  10
327.56793
  20
353.74533
  0
VERTEX
  10
327.08936
  20
354.15527
  0
VERTEX
  10
325.26776
  20
355.69113
  0
VERTEX
  10
324.77667
  20
356.08612
  0
VERTEX
  10
322.90991
  20
357.56674
  0
VERTEX
  10
322.40692
  20
357.94635
  0
VERTEX
  10
320.4967
  20
359.37048
  0
VERTEX
  10
319.98218
  20
359.73438
  0
VERTEX
  10
318.03015
  20
361.10065
  0
VERTEX
  10
317.50464
  20
361.44849
  0
VERTEX
  10
315.51263
  20
362.75577
  0
VERTEX
  10
314.97662
  20
363.08716
  0
VERTEX
  10
312.94635
  20
364.33423
  0
VERTEX
  10
312.40039
  20
364.64893
  0
VERTEX
  10
310.33374
  20
365.83469
  0
VERTEX
  10
309.77826
  20
366.13239
  0
VERTEX
  10
307.67706
  20
367.25574
  0
VERTEX
  10
307.11267
  20
367.53607
  0
VERTEX
  10
304.97876
  20
368.5961
  0
VERTEX
  10
302.81409
  20
369.5918
  0
VERTEX
  10
302.24133
  20
369.85455
  0
VERTEX
  10
300.04785
  20
370.785
  0
VERTEX
  10
299.46722
  20
371.02994
  0
VERTEX
  10
297.24683
  20
371.89432
  0
VERTEX
  10
296.65894
  20
372.12122
  0
VERTEX
  10
294.4137
  20
372.91876
  0
VERTEX
  10
293.81903
  20
373.12738
  0
VERTEX
  10
291.55096
  20
373.85742
  0
VERTEX
  10
290.9502
  20
374.04752
  0
VERTEX
  10
288.66125
  20
374.70932
  0
VERTEX
  10
288.05481
  20
374.8808
  0
VERTEX
  10
285.74713
  20
375.47382
  0
VERTEX
  10
285.13574
  20
375.62646
  0
VERTEX
  10
282.81128
  20
376.15015
  0
VERTEX
  10
282.19543
  20
376.28384
  0
VERTEX
  10
280.62231
  20
376.59741
  0
VERTEX
  10
279.55145
  20
376.79395
  0
VERTEX
  10
276.19116
  20
377.33954
  0
VERTEX
  10
275.28973
  20
377.46909
  0
VERTEX
  10
273.72485
  20
377.66495
  0
VERTEX
  10
273.0993
  20
377.74103
  0
VERTEX
  10
270.66943
  20
377.98309
  0
VERTEX
  10
270.04181
  20
378.03979
  0
VERTEX
  10
267.60565
  20
378.20721
  0
VERTEX
  10
266.97656
  20
378.24457
  0
VERTEX
  10
264.53644
  20
378.33716
  0
VERTEX
  10
263.90649
  20
378.35504
  0
VERTEX
  10
261.46466
  20
378.37274
  0
VERTEX
  10
260.83453
  20
378.37109
  0
VERTEX
  10
258.39325
  20
378.31396
  0
VERTEX
  10
257.76343
  20
378.29282
  0
VERTEX
  10
255.32515
  20
378.16086
  0
VERTEX
  10
254.69624
  20
378.1203
  0
VERTEX
  10
252.26314
  20
377.91357
  0
VERTEX
  10
251.63582
  20
377.85361
  0
VERTEX
  10
249.21016
  20
377.57236
  0
VERTEX
  10
248.58501
  20
377.49301
  0
VERTEX
  10
246.16914
  20
377.13754
  0
VERTEX
  10
245.54671
  20
377.03888
  0
VERTEX
  10
243.1429
  20
376.60947
  0
VERTEX
  10
242.52382
  20
376.49164
  0
VERTEX
  10
240.13429
  20
375.98871
  0
VERTEX
  10
239.51915
  20
375.85184
  0
VERTEX
  10
237.14613
  20
375.27582
  0
VERTEX
  10
236.53554
  20
375.12
  0
VERTEX
  10
234.18135
  20
374.4715
  0
VERTEX
  10
233.57585
  20
374.29688
  0
VERTEX
  10
231.24263
  20
373.57648
  0
VERTEX
  10
230.64284
  20
373.38321
  0
VERTEX
  10
228.33281
  20
372.59158
  0
VERTEX
  10
227.73924
  20
372.37991
  0
VERTEX
  10
225.45461
  20
371.51776
  0
VERTEX
  10
224.86787
  20
371.28784
  0
VERTEX
  10
222.61073
  20
370.35608
  0
VERTEX
  10
222.03139
  20
370.10815
  0
VERTEX
  10
219.80388
  20
369.1076
  0
VERTEX
  10
219.23247
  20
368.84186
  0
VERTEX
  10
217.0367
  20
367.77347
  0
VERTEX
  10
216.47377
  20
367.4902
  0
VERTEX
  10
214.31181
  20
366.35498
  0
VERTEX
  10
213.75795
  20
366.05441
  0
VERTEX
  10
211.63179
  20
364.85345
  0
VERTEX
  10
211.08745
  20
364.53589
  0
VERTEX
  10
208.99916
  20
363.27026
  0
VERTEX
  10
208.46489
  20
362.9361
  0
VERTEX
  10
206.41637
  20
361.60699
  0
VERTEX
  10
205.89268
  20
361.25644
  0
VERTEX
  10
204.59132
  20
360.36487
  0
VERTEX
  10
203.73897
  20
359.75848
  0
VERTEX
  10
200.72383
  20
357.51923
  0
VERTEX
  10
199.93703
  20
356.90982
  0
VERTEX
  10
199.49568
  20
356.5592
  0
VERTEX
  10
198.95772
  20
356.12189
  0
VERTEX
  10
197.48909
  20
354.91666
  0
VERTEX
  10
196.05037
  20
353.67572
  0
VERTEX
  10
195.5262
  20
353.22202
  0
VERTEX
  10
194.27544
  20
352.09329
  0
VERTEX
  10
192.70097
  20
350.61981
  0
VERTEX
  10
194.3958
  20
348.78192
  0
VERTEX
  10
195.67055
  20
349.98141
  0
VERTEX
  10
196.67555
  20
350.89365
  0
VERTEX
  10
197.42232
  20
351.55182
  0
VERTEX
  10
199.20171
  20
353.09024
  0
VERTEX
  10
199.66914
  20
353.47025
  0
VERTEX
  10
201.49434
  20
354.95407
  0
VERTEX
  10
201.97304
  20
355.31973
  0
VERTEX
  10
203.84236
  20
356.74753
  0
VERTEX
  10
204.33195
  20
357.09854
  0
VERTEX
  10
206.24364
  20
358.46909
  0
VERTEX
  10
206.74367
  20
358.80508
  0
VERTEX
  10
208.696
  20
360.11707
  0
VERTEX
  10
209.20595
  20
360.43774
  0
VERTEX
  10
211.19716
  20
361.68994
  0
VERTEX
  10
211.71663
  20
361.99509
  0
VERTEX
  10
213.74483
  20
363.18634
  0
VERTEX
  10
214.27327
  20
363.47559
  0
VERTEX
  10
216.33669
  20
364.60489
  0
VERTEX
  10
216.87367
  20
364.87793
  0
VERTEX
  10
218.97032
  20
365.94421
  0
VERTEX
  10
219.51534
  20
366.2009
  0
VERTEX
  10
221.64333
  20
367.20313
  0
VERTEX
  10
222.19588
  20
367.44315
  0
VERTEX
  10
224.35329
  20
368.38046
  0
VERTEX
  10
224.9128
  20
368.60364
  0
VERTEX
  10
227.09761
  20
369.47513
  0
VERTEX
  10
227.72871
  20
369.50204
  0
VERTEX
  10
228.17253
  20
369.2359
  0
VERTEX
  10
228.42384
  20
368.78351
  0
VERTEX
  10
228.41524
  20
368.26611
  0
VERTEX
  10
228.14909
  20
367.8223
  0
VERTEX
  10
227.39919
  20
367.38211
  0
VERTEX
  10
225.42235
  20
366.34186
  0
VERTEX
  10
224.92485
  20
366.0593
  0
VERTEX
  10
222.98241
  20
364.95618
  0
VERTEX
  10
222.49422
  20
364.65787
  0
VERTEX
  10
220.58812
  20
363.49304
  0
VERTEX
  10
220.10976
  20
363.1792
  0
VERTEX
  10
218.24202
  20
361.95392
  0
VERTEX
  10
217.77397
  20
361.62491
  0
VERTEX
  10
215.94649
  20
360.3403
  0
VERTEX
  10
215.48921
  20
359.99646
  0
VERTEX
  10
213.70381
  20
358.65393
  0
VERTEX
  10
213.25783
  20
358.29559
  0
VERTEX
  10
211.5164
  20
356.89655
  0
VERTEX
  10
211.08211
  20
356.52408
  0
VERTEX
  10
209.38646
  20
355.06985
  0
VERTEX
  10
208.96437
  20
354.68372
  0
VERTEX
  10
207.31618
  20
353.17587
  0
VERTEX
  10
206.90669
  20
352.77634
  0
VERTEX
  10
205.30769
  20
351.21649
  0
VERTEX
  10
204.91124
  20
350.80405
  0
VERTEX
  10
203.36308
  20
349.19366
  0
VERTEX
  10
202.98003
  20
348.76874
  0
VERTEX
  10
201.48433
  20
347.10956
  0
VERTEX
  10
201.11507
  20
346.67258
  0
VERTEX
  10
199.67336
  20
344.96628
  0
VERTEX
  10
199.19615
  20
344.37408
  0
VERTEX
  10
198.49367
  20
343.48645
  0
VERTEX
  10
198.10185
  20
342.98666
  0
VERTEX
  10
197.7224
  20
342.49002
  0
VERTEX
  10
196.66975
  20
341.07104
  0
VERTEX
  10
196.33913
  20
340.61835
  0
VERTEX
  10
195.97911
  20
340.11188
  0
VERTEX
  10
195.15721
  20
338.92621
  0
VERTEX
  10
194.84639
  20
338.47247
  0
VERTEX
  10
194.53871
  20
338.01334
  0
VERTEX
  10
193.67104
  20
336.67572
  0
VERTEX
  10
193.37798
  20
336.2193
  0
VERTEX
  10
193.07741
  20
335.74005
  0
VERTEX
  10
192.77431
  20
335.24438
  0
VERTEX
  10
192.1461
  20
334.19928
  0
VERTEX
  10
191.79268
  20
333.60419
  0
VERTEX
  10
191.50243
  20
333.10104
  0
VERTEX
  10
190.80025
  20
331.84674
  0
VERTEX
  10
190.49605
  20
331.29758
  0
VERTEX
  10
190.23604
  20
330.81522
  0
VERTEX
  10
189.98933
  20
330.34576
  0
VERTEX
  10
189.42903
  20
329.26178
  0
VERTEX
  10
189.18404
  20
328.78226
  0
VERTEX
  10
188.52776
  20
327.46396
  0
VERTEX
  10
187.90572
  20
326.21173
  0
VERTEX
  10
187.49965
  20
325.39429
  0
VERTEX
  10
186.3112
  20
323.0018
  0
VERTEX
  10
185.90256
  20
322.17914
  0
VERTEX
  10
178.38951
  20
307.05457
  0
VERTEX
  10
172.54578
  20
295.37961
  0
VERTEX
  10
166.3354
  20
282.90912
  0
VERTEX
  10
164.68434
  20
279.46457
  0
VERTEX
  10
165.00731
  20
279.02582
  0
VERTEX
  10
165.57085
  20
278.83936
  0
VERTEX
  10
166.1747
  20
278.82761
  0
VERTEX
  10
166.89461
  20
279.06876
  0
VERTEX
  10
167.46075
  20
279.54745
  0
VERTEX
  10
174.85725
  20
294.32428
  0
VERTEX
  10
175.15392
  20
294.92148
  0
VERTEX
  10
176.89145
  20
298.41931
  0
VERTEX
  10
177.84506
  20
300.25824
  0
VERTEX
  10
178.08928
  20
300.72919
  0
VERTEX
  10
178.3497
  20
301.19141
  0
VERTEX
  10
179.3665
  20
302.99615
  0
VERTEX
  10
179.64281
  20
303.44907
  0
VERTEX
  10
180.7216
  20
305.21747
  0
VERTEX
  10
181.01343
  20
305.66049
  0
VERTEX
  10
182.15294
  20
307.39041
  0
VERTEX
  10
182.45998
  20
307.82306
  0
VERTEX
  10
183.6588
  20
309.51239
  0
VERTEX
  10
183.98064
  20
309.93414
  0
VERTEX
  10
185.23735
  20
311.58087
  0
VERTEX
  10
185.57362
  20
311.99118
  0
VERTEX
  10
186.8867
  20
313.59332
  0
VERTEX
  10
187.23701
  20
313.99176
  0
VERTEX
  10
188.60487
  20
315.54739
  0
VERTEX
  10
188.9688
  20
315.93341
  0
VERTEX
  10
190.38979
  20
317.44067
  0
VERTEX
  10
190.76686
  20
317.81381
  0
VERTEX
  10
192.23927
  20
319.27087
  0
VERTEX
  10
192.6291
  20
319.63074
  0
VERTEX
  10
194.1512
  20
321.03586
  0
VERTEX
  10
194.55324
  20
321.38196
  0
VERTEX
  10
196.12315
  20
322.73343
  0
VERTEX
  10
196.53697
  20
323.06537
  0
VERTEX
  10
198.15282
  20
324.36157
  0
VERTEX
  10
198.5779
  20
324.67902
  0
VERTEX
  10
200.23775
  20
325.91833
  0
VERTEX
  10
200.6736
  20
326.22083
  0
VERTEX
  10
202.37538
  20
327.40186
  0
VERTEX
  10
202.82149
  20
327.68903
  0
VERTEX
  10
204.56325
  20
328.8103
  0
VERTEX
  10
205.019
  20
329.08185
  0
VERTEX
  10
206.7986
  20
330.14203
  0
VERTEX
  10
207.26353
  20
330.39758
  0
VERTEX
  10
209.07881
  20
331.39542
  0
VERTEX
  10
209.55235
  20
331.6347
  0
VERTEX
  10
211.40117
  20
332.56894
  0
VERTEX
  10
211.88271
  20
332.79166
  0
VERTEX
  10
213.7628
  20
333.66122
  0
VERTEX
  10
214.25175
  20
333.86707
  0
VERTEX
  10
216.16093
  20
334.67093
  0
VERTEX
  10
216.65669
  20
334.85968
  0
VERTEX
  10
218.59264
  20
335.5968
  0
VERTEX
  10
219.09468
  20
335.76828
  0
VERTEX
  10
221.05495
  20
336.43781
  0
VERTEX
  10
221.56267
  20
336.59174
  0
VERTEX
  10
223.545
  20
337.19287
  0
VERTEX
  10
224.05772
  20
337.32913
  0
VERTEX
  10
226.05974
  20
337.86111
  0
VERTEX
  10
226.57686
  20
337.97946
  0
VERTEX
  10
228.59615
  20
338.44171
  0
VERTEX
  10
229.11705
  20
338.54208
  0
VERTEX
  10
231.15114
  20
338.93399
  0
VERTEX
  10
231.67525
  20
339.0162
  0
VERTEX
  10
233.72169
  20
339.33734
  0
VERTEX
  10
234.24831
  20
339.40134
  0
VERTEX
  10
236.3047
  20
339.65125
  0
VERTEX
  10
236.83321
  20
339.69696
  0
VERTEX
  10
238.89699
  20
339.87543
  0
VERTEX
  10
239.42683
  20
339.90274
  0
VERTEX
  10
241.49556
  20
340.00952
  0
VERTEX
  10
242.02602
  20
340.01846
  0
VERTEX
  10
244.09718
  20
340.05334
  0
VERTEX
  10
244.70744
  20
340.0437
  0
VERTEX
  10
247.09029
  20
340.00598
  0
VERTEX
  10
247.69997
  20
339.97757
  0
VERTEX
  10
250.08052
  20
339.8667
  0
VERTEX
  10
250.68904
  20
339.81961
  0
VERTEX
  10
253.06508
  20
339.63571
  0
VERTEX
  10
253.67186
  20
339.56995
  0
VERTEX
  10
256.04114
  20
339.3132
  0
VERTEX
  10
256.64563
  20
339.22885
  0
VERTEX
  10
259.00592
  20
338.89948
  0
VERTEX
  10
259.60748
  20
338.7966
  0
VERTEX
  10
261.95654
  20
338.3949
  0
VERTEX
  10
262.55475
  20
338.27362
  0
VERTEX
  10
264.89032
  20
337.80002
  0
VERTEX
  10
265.4845
  20
337.66046
  0
VERTEX
  10
267.8045
  20
337.11539
  0
VERTEX
  10
268.39404
  20
336.95758
  0
VERTEX
  10
270.69623
  20
336.34155
  0
VERTEX
  10
271.2807
  20
336.16574
  0
VERTEX
  10
273.56287
  20
335.47934
  0
VERTEX
  10
274.14166
  20
335.28571
  0
VERTEX
  10
276.40167
  20
334.52957
  0
VERTEX
  10
276.97424
  20
334.31824
  0
VERTEX
  10
279.20996
  20
333.49301
  0
VERTEX
  10
279.77576
  20
333.26422
  0
VERTEX
  10
281.98511
  20
332.37079
  0
VERTEX
  10
282.54364
  20
332.12473
  0
VERTEX
  10
284.72455
  20
331.16388
  0
VERTEX
  10
285.27521
  20
330.90076
  0
VERTEX
  10
287.4256
  20
329.87347
  0
VERTEX
  10
287.96796
  20
329.59357
  0
VERTEX
  10
290.08575
  20
328.5007
  0
VERTEX
  10
290.61932
  20
328.20432
  0
VERTEX
  10
292.70251
  20
327.04697
  0
VERTEX
  10
293.22675
  20
326.73434
  0
VERTEX
  10
295.27344
  20
325.51355
  0
VERTEX
  10
295.78778
  20
325.18497
  0
VERTEX
  10
297.79608
  20
323.90201
  0
VERTEX
  10
298.30011
  20
323.55774
  0
VERTEX
  10
300.26807
  20
322.21368
  0
VERTEX
  10
300.76129
  20
321.85416
  0
VERTEX
  10
302.68707
  20
320.45029
  0
VERTEX
  10
303.16901
  20
320.07578
  0
VERTEX
  10
305.05078
  20
318.61353
  0
VERTEX
  10
305.52094
  20
318.22437
  0
VERTEX
  10
307.35693
  20
316.70496
  0
VERTEX
  10
307.815
  20
316.30164
  0
VERTEX
  10
309.60352
  20
314.72659
  0
VERTEX
  10
310.04895
  20
314.30936
  0
VERTEX
  10
311.78821
  20
312.68018
  0
VERTEX
  10
312.22064
  20
312.24945
  0
VERTEX
  10
313.90912
  20
310.56763
  0
VERTEX
  10
314.32813
  20
310.12384
  0
VERTEX
  10
315.96411
  20
308.39099
  0
VERTEX
  10
317.5462
  20
306.6087
  0
VERTEX
  10
317.95135
  20
306.15228
  0
VERTEX
  10
319.47797
  20
304.32227
  0
VERTEX
  10
319.86896
  20
303.85364
  0
VERTEX
  10
320.24536
  20
303.37314
  0
VERTEX
  10
321.71503
  20
301.49716
  0
VERTEX
  10
322.93854
  20
299.82562
  0
VERTEX
  10
323.25189
  20
299.39755
  0
VERTEX
  10
323.55023
  20
298.95883
  0
VERTEX
  10
324.71497
  20
297.24585
  0
VERTEX
  10
324.99792
  20
296.79706
  0
VERTEX
  10
326.1026
  20
295.04468
  0
VERTEX
  10
326.36975
  20
294.58636
  0
VERTEX
  10
327.41296
  20
292.79675
  0
VERTEX
  10
327.66406
  20
292.32941
  0
VERTEX
  10
328.64459
  20
290.5047
  0
VERTEX
  10
328.87933
  20
290.02893
  0
VERTEX
  10
329.79596
  20
288.1713
  0
VERTEX
  10
330.0141
  20
287.68768
  0
VERTEX
  10
330.86572
  20
285.79938
  0
VERTEX
  10
331.06696
  20
285.30847
  0
VERTEX
  10
331.85254
  20
283.39172
  0
VERTEX
  10
332.03662
  20
282.89417
  0
VERTEX
  10
332.75525
  20
280.95135
  0
VERTEX
  10
332.92194
  20
280.44769
  0
VERTEX
  10
333.57275
  20
278.48111
  0
VERTEX
  10
333.72186
  20
277.97198
  0
VERTEX
  10
334.30408
  20
275.98401
  0
VERTEX
  10
334.43542
  20
275.47
  0
VERTEX
  10
334.94836
  20
273.46301
  0
VERTEX
  10
335.06183
  20
272.94476
  0
VERTEX
  10
335.50482
  20
270.9212
  0
VERTEX
  10
335.60022
  20
270.39935
  0
VERTEX
  10
335.97272
  20
268.36163
  0
VERTEX
  10
336.04993
  20
267.83679
  0
VERTEX
  10
336.35162
  20
265.78735
  0
VERTEX
  10
336.41058
  20
265.26013
  0
VERTEX
  10
336.64093
  20
263.20148
  0
VERTEX
  10
336.68164
  20
262.67255
  0
VERTEX
  10
336.84039
  20
260.60718
  0
VERTEX
  10
336.86267
  20
260.07715
  0
VERTEX
  10
336.94977
  20
258.00745
  0
VERTEX
  10
336.95367
  20
257.47693
  0
VERTEX
  10
336.96887
  20
255.40555
  0
VERTEX
  10
336.95435
  20
254.87521
  0
VERTEX
  10
336.89771
  20
252.8045
  0
VERTEX
  10
336.86481
  20
252.27501
  0
VERTEX
  10
336.73639
  20
250.20752
  0
VERTEX
  10
336.68512
  20
249.67946
  0
VERTEX
  10
336.48505
  20
247.61768
  0
VERTEX
  10
336.41553
  20
247.09172
  0
VERTEX
  10
336.14398
  20
245.03812
  0
VERTEX
  10
336.05627
  20
244.51491
  0
VERTEX
  10
335.71375
  20
242.47194
  0
VERTEX
  10
335.60791
  20
241.95207
  0
VERTEX
  10
335.1947
  20
239.92224
  0
VERTEX
  10
335.07092
  20
239.40636
  0
VERTEX
  10
334.58752
  20
237.39206
  0
VERTEX
  10
334.44592
  20
236.8808
  0
VERTEX
  10
333.89294
  20
234.88449
  0
VERTEX
  10
333.73364
  20
234.37845
  0
VERTEX
  10
333.11182
  20
232.40251
  0
VERTEX
  10
332.93506
  20
231.90228
  0
VERTEX
  10
332.245
  20
229.94911
  0
VERTEX
  10
332.05109
  20
229.45532
  0
VERTEX
  10
331.2937
  20
227.52728
  0
VERTEX
  10
331.0827
  20
227.0405
  0
VERTEX
  10
330.25891
  20
225.13988
  0
VERTEX
  10
330.03113
  20
224.66074
  0
VERTEX
  10
329.14191
  20
222.78983
  0
VERTEX
  10
328.3396
  20
221.17473
  0
VERTEX
  10
328.0921
  20
220.67648
  0
VERTEX
  10
327.80835
  20
220.10526
  0
VERTEX
  10
327.53436
  20
219.55359
  0
VERTEX
  10
326.53687
  20
217.54562
  0
VERTEX
  10
323.11127
  20
210.64941
  0
VERTEX
  10
322.8642
  20
210.15204
  0
VERTEX
  10
322.23492
  20
208.8853
  0
VERTEX
  10
321.8161
  20
208.04219
  0
VERTEX
  10
321.29285
  20
206.98885
  0
VERTEX
  10
320.95129
  20
206.30121
  0
VERTEX
  10
320.53595
  20
205.46512
  0
VERTEX
  10
320.24335
  20
204.87599
  0
VERTEX
  10
319.95264
  20
204.29082
  0
VERTEX
  10
319.76074
  20
203.62894
  0
VERTEX
  10
319.82806
  20
202.84663
  0
VERTEX
  10
320.09308
  20
202.27556
  0
VERTEX
  10
320.5094
  20
201.82808
  0
VERTEX
  10
321.2879
  20
201.39436
  0
VERTEX
  10
322.7569
  20
204.29337
  0
VERTEX
  10
323.98041
  20
206.75636
  0
VERTEX
  10
329.31897
  20
217.50349
  0
SEQEND
  0
POLYLINE
  62
0
  70
1
  0
VERTEX
  10
263.83401
  20
384.31775
  0
VERTEX
  10
263.82587
  20
384.57162
  0
VERTEX
  10
263.79266
  20
384.81876
  0
VERTEX
  10
263.73566
  20
385.05789
  0
VERTEX
  10
263.65613
  20
385.28772
  0
VERTEX
  10
263.43433
  20
385.71432
  0
VERTEX
  10
263.13715
  20
386.08826
  0
VERTEX
  10
262.77457
  20
386.3992
  0
VERTEX
  10
262.35657
  20
386.63681
  0
VERTEX
  10
262.12985
  20
386.72488
  0
VERTEX
  10
261.89301
  20
386.79077
  0
VERTEX
  10
261.64728
  20
386.83316
  0
VERTEX
  10
261.39389
  20
386.8508
  0
VERTEX
  10
261.14001
  20
386.84265
  0
VERTEX
  10
260.89288
  20
386.80948
  0
VERTEX
  10
260.65375
  20
386.75247
  0
VERTEX
  10
260.42389
  20
386.67291
  0
VERTEX
  10
259.99728
  20
386.45108
  0
VERTEX
  10
259.62332
  20
386.15393
  0
VERTEX
  10
259.31235
  20
385.79135
  0
VERTEX
  10
259.07474
  20
385.37332
  0
VERTEX
  10
258.98666
  20
385.14664
  0
VERTEX
  10
258.92078
  20
384.90979
  0
VERTEX
  10
258.87836
  20
384.66406
  0
VERTEX
  10
258.86075
  20
384.41068
  0
VERTEX
  10
258.8689
  20
384.15683
  0
VERTEX
  10
258.9021
  20
383.90967
  0
VERTEX
  10
258.95911
  20
383.67053
  0
VERTEX
  10
259.03867
  20
383.4407
  0
VERTEX
  10
259.2605
  20
383.01407
  0
VERTEX
  10
259.55768
  20
382.64011
  0
VERTEX
  10
259.92026
  20
382.32916
  0
VERTEX
  10
260.33832
  20
382.09155
  0
VERTEX
  10
260.56503
  20
382.00345
  0
VERTEX
  10
260.80188
  20
381.93756
  0
VERTEX
  10
261.04761
  20
381.89514
  0
VERTEX
  10
261.30096
  20
381.87753
  0
VERTEX
  10
261.55484
  20
381.88568
  0
VERTEX
  10
261.80197
  20
381.91885
  0
VERTEX
  10
262.04111
  20
381.97586
  0
VERTEX
  10
262.27094
  20
382.05542
  0
VERTEX
  10
262.69754
  20
382.27728
  0
VERTEX
  10
263.07147
  20
382.57446
  0
VERTEX
  10
263.38242
  20
382.93704
  0
VERTEX
  10
263.62003
  20
383.3551
  0
VERTEX
  10
263.7081
  20
383.58179
  0
VERTEX
  10
263.77399
  20
383.81863
  0
VERTEX
  10
263.81641
  20
384.06436
  0
VERTEX
  10
263.83401
  20
384.31775
  0
SEQEND
  0
POLYLINE
  62
0
  70
1
  0
VERTEX
  10
215.60907
  20
378.22571
  0
VERTEX
  10
215.84402
  20
378.68695
  0
VERTEX
  10
215.81686
  20
379.20386
  0
VERTEX
  10
215.5349
  20
379.63797
  0
VERTEX
  10
215.07365
  20
379.87292
  0
VERTEX
  10
211.48518
  20
379.91968
  0
VERTEX
  10
207.18674
  20
379.95135
  0
VERTEX
  10
205.59824
  20
379.93652
  0
VERTEX
  10
204.34619
  20
379.9248
  0
VERTEX
  10
202.75908
  20
379.8569
  0
VERTEX
  10
201.50812
  20
379.80338
  0
VERTEX
  10
200.25964
  20
379.70807
  0
VERTEX
  10
198.67569
  20
379.58716
  0
VERTEX
  10
197.43111
  20
379.4502
  0
VERTEX
  10
195.85207
  20
379.27643
  0
VERTEX
  10
194.61276
  20
379.09796
  0
VERTEX
  10
193.04041
  20
378.87152
  0
VERTEX
  10
191.80774
  20
378.65173
  0
VERTEX
  10
190.24384
  20
378.37286
  0
VERTEX
  10
189.01921
  20
378.112
  0
VERTEX
  10
187.4655
  20
377.78107
  0
VERTEX
  10
186.25027
  20
377.47943
  0
VERTEX
  10
184.7085
  20
377.09674
  0
VERTEX
  10
183.50403
  20
376.7547
  0
VERTEX
  10
181.97589
  20
376.32071
  0
VERTEX
  10
180.78351
  20
375.93857
  0
VERTEX
  10
179.27075
  20
375.45374
  0
VERTEX
  10
178.0918
  20
375.03201
  0
VERTEX
  10
176.59607
  20
374.49692
  0
VERTEX
  10
175.43188
  20
374.03601
  0
VERTEX
  10
173.95486
  20
373.45123
  0
VERTEX
  10
172.80673
  20
372.95166
  0
VERTEX
  10
171.35007
  20
372.31787
  0
VERTEX
  10
170.21927
  20
371.78024
  0
VERTEX
  10
168.78462
  20
371.09814
  0
VERTEX
  10
167.67242
  20
370.52301
  0
VERTEX
  10
166.26135
  20
369.79333
  0
VERTEX
  10
165.16901
  20
369.18134
  0
VERTEX
  10
163.78308
  20
368.40494
  0
VERTEX
  10
162.71179
  20
367.75681
  0
VERTEX
  10
161.3526
  20
366.93451
  0
VERTEX
  10
160.30356
  20
366.25095
  0
VERTEX
  10
158.97263
  20
365.38373
  0
VERTEX
  10
157.94701
  20
364.66547
  0
VERTEX
  10
156.64578
  20
363.75421
  0
VERTEX
  10
155.64471
  20
363.00211
  0
VERTEX
  10
154.37469
  20
362.04791
  0
VERTEX
  10
153.39932
  20
361.26276
  0
VERTEX
  10
152.16187
  20
360.26666
  0
VERTEX
  10
151.21329
  20
359.44934
  0
VERTEX
  10
150.00983
  20
358.41241
  0
VERTEX
  10
149.08908
  20
357.5639
  0
VERTEX
  10
147.92093
  20
356.48737
  0
VERTEX
  10
147.02905
  20
355.60852
  0
VERTEX
  10
145.89752
  20
354.49353
  0
VERTEX
  10
145.03552
  20
353.58539
  0
VERTEX
  10
143.94188
  20
352.43323
  0
VERTEX
  10
143.1107
  20
351.49683
  0
VERTEX
  10
142.05618
  20
350.30875
  0
VERTEX
  10
141.25674
  20
349.34509
  0
VERTEX
  10
140.24249
  20
348.12244
  0
VERTEX
  10
139.47572
  20
347.13257
  0
VERTEX
  10
138.50291
  20
345.87671
  0
VERTEX
  10
137.76962
  20
344.86179
  0
VERTEX
  10
136.83931
  20
343.57416
  0
VERTEX
  10
136.14037
  20
342.53528
  0
VERTEX
  10
135.25362
  20
341.21722
  0
VERTEX
  10
134.58977
  20
340.15561
  0
VERTEX
  10
133.74753
  20
338.80872
  0
VERTEX
  10
133.11952
  20
337.72546
  0
VERTEX
  10
132.32277
  20
336.35117
  0
VERTEX
  10
131.73132
  20
335.24756
  0
VERTEX
  10
130.98094
  20
333.84741
  0
VERTEX
  10
130.4267
  20
332.72464
  0
VERTEX
  10
129.7235
  20
331.30017
  0
VERTEX
  10
129.20709
  20
330.15955
  0
VERTEX
  10
128.5519
  20
328.71237
  0
VERTEX
  10
128.07387
  20
327.55511
  0
VERTEX
  10
127.46741
  20
326.08685
  0
VERTEX
  10
127.02834
  20
324.91428
  0
VERTEX
  10
126.47127
  20
323.42657
  0
VERTEX
  10
126.07162
  20
322.23999
  0
VERTEX
  10
125.56458
  20
320.73453
  0
VERTEX
  10
125.20479
  20
319.53522
  0
VERTEX
  10
124.74834
  20
318.01361
  0
VERTEX
  10
124.42883
  20
316.80298
  0
VERTEX
  10
124.02347
  20
315.267
  0
VERTEX
  10
123.74461
  20
314.04636
  0
VERTEX
  10
123.39079
  20
312.49768
  0
VERTEX
  10
123.15288
  20
311.2684
  0
VERTEX
  10
122.85101
  20
309.70877
  0
VERTEX
  10
122.6543
  20
308.47223
  0
VERTEX
  10
122.40471
  20
306.90338
  0
VERTEX
  10
122.24942
  20
305.66095
  0
VERTEX
  10
122.05241
  20
304.08466
  0
VERTEX
  10
121.93874
  20
302.83771
  0
VERTEX
  10
121.79451
  20
301.25571
  0
VERTEX
  10
121.72255
  20
300.00568
  0
VERTEX
  10
121.63124
  20
298.41974
  0
VERTEX
  10
121.6011
  20
297.168
  0
VERTEX
  10
121.56288
  20
295.5799
  0
VERTEX
  10
121.57457
  20
294.32785
  0
VERTEX
  10
121.58939
  20
292.73932
  0
VERTEX
  10
121.64294
  20
291.4884
  0
VERTEX
  10
121.71086
  20
289.90128
  0
VERTEX
  10
121.80615
  20
288.6528
  0
VERTEX
  10
121.92706
  20
287.06885
  0
VERTEX
  10
122.06401
  20
285.82425
  0
VERTEX
  10
122.23778
  20
284.24524
  0
VERTEX
  10
122.41626
  20
283.00589
  0
VERTEX
  10
122.6427
  20
281.43356
  0
VERTEX
  10
122.86249
  20
280.2009
  0
VERTEX
  10
123.14133
  20
278.63699
  0
VERTEX
  10
123.40219
  20
277.41235
  0
VERTEX
  10
123.73314
  20
275.85864
  0
VERTEX
  10
124.03477
  20
274.64343
  0
VERTEX
  10
124.41745
  20
273.10165
  0
VERTEX
  10
124.75952
  20
271.89716
  0
VERTEX
  10
125.19353
  20
270.36905
  0
VERTEX
  10
125.57565
  20
269.17667
  0
VERTEX
  10
126.06046
  20
267.66388
  0
VERTEX
  10
126.48219
  20
266.48495
  0
VERTEX
  10
127.01729
  20
264.98923
  0
VERTEX
  10
127.47821
  20
263.82504
  0
VERTEX
  10
128.06297
  20
262.34802
  0
VERTEX
  10
128.56255
  20
261.19989
  0
VERTEX
  10
129.19632
  20
259.74323
  0
VERTEX
  10
129.73396
  20
258.61243
  0
VERTEX
  10
130.41609
  20
257.17776
  0
VERTEX
  10
130.99121
  20
256.06555
  0
VERTEX
  10
131.72089
  20
254.65451
  0
VERTEX
  10
132.33287
  20
253.56215
  0
VERTEX
  10
133.10928
  20
252.17624
  0
VERTEX
  10
133.75742
  20
251.10493
  0
VERTEX
  10
134.57971
  20
249.74576
  0
VERTEX
  10
135.26326
  20
248.69672
  0
VERTEX
  10
136.13052
  20
247.36577
  0
VERTEX
  10
136.84875
  20
246.34015
  0
VERTEX
  10
137.76001
  20
245.03893
  0
VERTEX
  10
138.51212
  20
244.03787
  0
VERTEX
  10
139.46632
  20
242.76784
  0
VERTEX
  10
140.25146
  20
241.79248
  0
VERTEX
  10
141.24759
  20
240.55502
  0
VERTEX
  10
142.06488
  20
239.60645
  0
VERTEX
  10
143.10178
  20
238.40297
  0
VERTEX
  10
143.95032
  20
237.48224
  0
VERTEX
  10
145.02686
  20
236.31409
  0
VERTEX
  10
145.9057
  20
235.42221
  0
VERTEX
  10
147.02066
  20
234.29068
  0
VERTEX
  10
147.9288
  20
233.42868
  0
VERTEX
  10
149.08098
  20
232.33502
  0
VERTEX
  10
150.0174
  20
231.50385
  0
VERTEX
  10
151.20547
  20
230.44933
  0
VERTEX
  10
152.16916
  20
229.6499
  0
VERTEX
  10
153.3918
  20
228.63565
  0
VERTEX
  10
154.38165
  20
227.86888
  0
VERTEX
  10
155.6375
  20
226.89606
  0
VERTEX
  10
156.65244
  20
226.16278
  0
VERTEX
  10
157.94008
  20
225.23247
  0
VERTEX
  10
158.97894
  20
224.53352
  0
VERTEX
  10
160.29697
  20
223.64676
  0
VERTEX
  10
161.35858
  20
222.98291
  0
VERTEX
  10
162.70551
  20
222.14069
  0
VERTEX
  10
163.78876
  20
221.51268
  0
VERTEX
  10
165.16306
  20
220.71593
  0
VERTEX
  10
166.26666
  20
220.12448
  0
VERTEX
  10
167.66682
  20
219.37408
  0
VERTEX
  10
168.78958
  20
218.81984
  0
VERTEX
  10
170.21402
  20
218.11667
  0
VERTEX
  10
171.35468
  20
217.60025
  0
VERTEX
  10
172.80183
  20
216.94505
  0
VERTEX
  10
173.95911
  20
216.46704
  0
VERTEX
  10
175.42734
  20
215.86057
  0
VERTEX
  10
176.59995
  20
215.42149
  0
VERTEX
  10
178.08763
  20
214.86443
  0
VERTEX
  10
179.27425
  20
214.46477
  0
VERTEX
  10
180.77971
  20
213.95772
  0
VERTEX
  10
181.979
  20
213.59795
  0
VERTEX
  10
183.50058
  20
213.14149
  0
VERTEX
  10
184.71124
  20
212.82199
  0
VERTEX
  10
186.24721
  20
212.41663
  0
VERTEX
  10
187.46786
  20
212.13776
  0
VERTEX
  10
189.01653
  20
211.78395
  0
VERTEX
  10
190.24582
  20
211.54602
  0
VERTEX
  10
191.80545
  20
211.24417
  0
VERTEX
  10
193.04199
  20
211.04745
  0
VERTEX
  10
194.61084
  20
210.79787
  0
VERTEX
  10
195.85327
  20
210.64258
  0
VERTEX
  10
197.42957
  20
210.44557
  0
VERTEX
  10
198.67651
  20
210.33188
  0
VERTEX
  10
200.25851
  20
210.18765
  0
VERTEX
  10
201.50854
  20
210.11569
  0
VERTEX
  10
203.09448
  20
210.0244
  0
VERTEX
  10
204.34622
  20
209.99426
  0
VERTEX
  10
205.93433
  20
209.95601
  0
VERTEX
  10
209.32236
  20
209.93105
  0
VERTEX
  10
213.62082
  20
209.89938
  0
VERTEX
  10
214.1218
  20
210.02968
  0
VERTEX
  10
214.38947
  20
210.25095
  0
VERTEX
  10
214.61168
  20
210.71846
  0
VERTEX
  10
214.57037
  20
211.23445
  0
VERTEX
  10
214.2766
  20
211.66064
  0
VERTEX
  10
212.85666
  20
212.24052
  0
VERTEX
  10
211.46791
  20
212.74141
  0
VERTEX
  10
210.38747
  20
213.17349
  0
VERTEX
  10
209.01669
  20
213.72171
  0
VERTEX
  10
207.95169
  20
214.19058
  0
VERTEX
  10
206.60052
  20
214.78546
  0
VERTEX
  10
205.55222
  20
215.29056
  0
VERTEX
  10
204.22223
  20
215.9314
  0
VERTEX
  10
203.19186
  20
216.47215
  0
VERTEX
  10
201.88461
  20
217.1582
  0
VERTEX
  10
200.87341
  20
217.73395
  0
VERTEX
  10
199.59045
  20
218.46442
  0
VERTEX
  10
198.59955
  20
219.07449
  0
VERTEX
  10
197.34241
  20
219.84851
  0
VERTEX
  10
196.373
  20
220.4922
  0
VERTEX
  10
195.14313
  20
221.30885
  0
VERTEX
  10
194.19637
  20
221.9854
  0
VERTEX
  10
192.99518
  20
222.84373
  0
VERTEX
  10
192.07217
  20
223.55234
  0
VERTEX
  10
190.90114
  20
224.45134
  0
VERTEX
  10
190.00296
  20
225.19116
  0
VERTEX
  10
188.86343
  20
226.12979
  0
VERTEX
  10
187.99115
  20
226.89996
  0
VERTEX
  10
186.88446
  20
227.87711
  0
VERTEX
  10
186.03909
  20
228.67673
  0
VERTEX
  10
184.96655
  20
229.69122
  0
VERTEX
  10
184.14908
  20
230.51936
  0
VERTEX
  10
183.11195
  20
231.57002
  0
VERTEX
  10
182.32336
  20
232.4257
  0
VERTEX
  10
181.32285
  20
233.51131
  0
VERTEX
  10
180.56406
  20
234.39351
  0
VERTEX
  10
179.60135
  20
235.51279
  0
VERTEX
  10
178.87323
  20
236.42047
  0
VERTEX
  10
177.94946
  20
237.57208
  0
VERTEX
  10
177.2529
  20
238.50421
  0
VERTEX
  10
176.36916
  20
239.68681
  0
VERTEX
  10
175.70496
  20
240.64226
  0
VERTEX
  10
174.86226
  20
241.85446
  0
VERTEX
  10
174.2312
  20
242.83212
  0
VERTEX
  10
173.43057
  20
244.07249
  0
VERTEX
  10
172.8334
  20
245.07121
  0
VERTEX
  10
172.07574
  20
246.3383
  0
VERTEX
  10
171.51315
  20
247.35692
  0
VERTEX
  10
170.79939
  20
248.64923
  0
VERTEX
  10
170.13034
  20
249.96526
  0
VERTEX
  10
169.603
  20
251.00255
  0
VERTEX
  10
169.0321
  20
252.22206
  0
VERTEX
  10
168.3078
  20
253.76927
  0
VERTEX
  10
167.7746
  20
255.00574
  0
VERTEX
  10
167.09814
  20
256.57446
  0
VERTEX
  10
166.60313
  20
257.82672
  0
VERTEX
  10
165.97516
  20
259.41547
  0
VERTEX
  10
165.51886
  20
260.68231
  0
VERTEX
  10
164.93991
  20
262.28958
  0
VERTEX
  10
164.52272
  20
263.56985
  0
VERTEX
  10
163.99341
  20
265.19412
  0
VERTEX
  10
163.61569
  20
266.4866
  0
VERTEX
  10
163.13651
  20
268.1264
  0
VERTEX
  10
162.79865
  20
269.42984
  0
VERTEX
  10
162.37003
  20
271.08356
  0
VERTEX
  10
162.07236
  20
272.39676
  0
VERTEX
  10
161.69467
  20
274.06287
  0
VERTEX
  10
161.43747
  20
275.38458
  0
VERTEX
  10
161.11111
  20
277.06149
  0
VERTEX
  10
160.89459
  20
278.3905
  0
VERTEX
  10
160.61989
  20
280.07663
  0
VERTEX
  10
160.44427
  20
281.41165
  0
VERTEX
  10
160.22145
  20
283.10541
  0
VERTEX
  10
160.0869
  20
284.44519
  0
VERTEX
  10
159.9162
  20
286.14502
  0
VERTEX
  10
159.82281
  20
287.48828
  0
VERTEX
  10
159.70438
  20
289.19254
  0
VERTEX
  10
159.6523
  20
290.53806
  0
VERTEX
  10
159.58621
  20
292.24515
  0
VERTEX
  10
159.57547
  20
293.59161
  0
VERTEX
  10
159.56183
  20
295.29993
  0
VERTEX
  10
159.59241
  20
296.64612
  0
VERTEX
  10
159.63121
  20
298.35403
  0
VERTEX
  10
159.70313
  20
299.69864
  0
VERTEX
  10
159.79434
  20
301.40454
  0
VERTEX
  10
159.90749
  20
302.74634
  0
VERTEX
  10
160.05104
  20
304.44864
  0
VERTEX
  10
160.20531
  20
305.78632
  0
VERTEX
  10
160.40106
  20
307.4834
  0
VERTEX
  10
160.59631
  20
308.8157
  0
VERTEX
  10
160.84407
  20
310.50601
  0
VERTEX
  10
161.08015
  20
311.83167
  0
VERTEX
  10
161.37967
  20
313.51358
  0
VERTEX
  10
161.65634
  20
314.83136
  0
VERTEX
  10
162.00735
  20
316.5033
  0
VERTEX
  10
162.32434
  20
317.81198
  0
VERTEX
  10
162.72653
  20
319.47232
  0
VERTEX
  10
163.08354
  20
320.77063
  0
VERTEX
  10
163.5365
  20
322.41785
  0
VERTEX
  10
163.9332
  20
323.70462
  0
VERTEX
  10
164.43651
  20
325.33716
  0
VERTEX
  10
164.87251
  20
326.61115
  0
VERTEX
  10
165.4257
  20
328.22748
  0
VERTEX
  10
165.90063
  20
329.48746
  0
VERTEX
  10
166.50319
  20
331.08603
  0
VERTEX
  10
167.01656
  20
332.33084
  0
VERTEX
  10
167.66789
  20
333.91019
  0
VERTEX
  10
168.21924
  20
335.13867
  0
VERTEX
  10
168.91876
  20
336.69724
  0
VERTEX
  10
169.50757
  20
337.9082
  0
VERTEX
  10
170.25458
  20
339.44458
  0
VERTEX
  10
170.79715
  20
340.47397
  0
VERTEX
  10
171.4855
  20
341.78
  0
VERTEX
  10
172.06305
  20
342.79022
  0
VERTEX
  10
172.79578
  20
344.0719
  0
VERTEX
  10
173.40759
  20
345.06171
  0
VERTEX
  10
174.18384
  20
346.3175
  0
VERTEX
  10
174.82922
  20
347.28574
  0
VERTEX
  10
175.64806
  20
348.51419
  0
VERTEX
  10
176.32626
  20
349.45975
  0
VERTEX
  10
177.18672
  20
350.65939
  0
VERTEX
  10
177.89696
  20
351.58115
  0
VERTEX
  10
178.79803
  20
352.75061
  0
VERTEX
  10
179.53943
  20
353.64746
  0
VERTEX
  10
180.48007
  20
354.78534
  0
VERTEX
  10
181.25177
  20
355.65628
  0
VERTEX
  10
182.23087
  20
356.76123
  0
VERTEX
  10
183.03198
  20
357.60519
  0
VERTEX
  10
184.04837
  20
358.67593
  0
VERTEX
  10
184.87796
  20
359.49194
  0
VERTEX
  10
185.93045
  20
360.52722
  0
VERTEX
  10
186.78751
  20
361.31433
  0
VERTEX
  10
187.87489
  20
362.3129
  0
VERTEX
  10
188.75842
  20
363.07013
  0
VERTEX
  10
189.87939
  20
364.03088
  0
VERTEX
  10
190.78836
  20
364.75739
  0
VERTEX
  10
191.9416
  20
365.67908
  0
VERTEX
  10
192.87497
  20
366.37402
  0
VERTEX
  10
194.05911
  20
367.25568
  0
VERTEX
  10
195.01575
  20
367.91821
  0
VERTEX
  10
196.22943
  20
368.75873
  0
VERTEX
  10
197.20819
  20
369.38806
  0
VERTEX
  10
198.44998
  20
370.18652
  0
VERTEX
  10
199.44975
  20
370.78192
  0
VERTEX
  10
200.7182
  20
371.53735
  0
VERTEX
  10
201.73778
  20
372.09814
  0
VERTEX
  10
203.03134
  20
372.80963
  0
VERTEX
  10
204.06958
  20
373.33514
  0
VERTEX
  10
205.38678
  20
374.00186
  0
VERTEX
  10
206.44241
  20
374.49146
  0
VERTEX
  10
207.78169
  20
375.11261
  0
VERTEX
  10
208.85349
  20
375.56573
  0
VERTEX
  10
210.21327
  20
376.14069
  0
VERTEX
  10
211.29997
  20
376.55679
  0
VERTEX
  10
212.67868
  20
377.08472
  0
VERTEX
  10
214.07466
  20
377.56512
  0
VERTEX
  10
215.17499
  20
377.94373
  0
VERTEX
  10
215.60907
  20
378.22571
  0
SEQEND
  0
POLYLINE
  62
0
  70
1
  0
VERTEX
  10
150.71565
  20
364.30331
  0
VERTEX
  10
150.51396
  20
364.28448
  0
VERTEX
  10
150.32582
  20
364.2276
  0
VERTEX
  10
150.15527
  20
364.13666
  0
VERTEX
  10
150.00639
  20
364.01566
  0
VERTEX
  10
149.88319
  20
363.86856
  0
VERTEX
  10
149.78975
  20
363.69937
  0
VERTEX
  10
149.7301
  20
363.51208
  0
VERTEX
  10
149.70831
  20
363.3107
  0
VERTEX
  10
149.72714
  20
363.10904
  0
VERTEX
  10
149.78403
  20
362.9209
  0
VERTEX
  10
149.87497
  20
362.75037
  0
VERTEX
  10
149.99599
  20
362.60147
  0
VERTEX
  10
150.14308
  20
362.47827
  0
VERTEX
  10
150.31226
  20
362.38483
  0
VERTEX
  10
150.49953
  20
362.32516
  0
VERTEX
  10
150.70091
  20
362.30338
  0
VERTEX
  10
150.9026
  20
362.3222
  0
VERTEX
  10
151.09074
  20
362.37909
  0
VERTEX
  10
151.26129
  20
362.47003
  0
VERTEX
  10
151.41017
  20
362.59103
  0
VERTEX
  10
151.53337
  20
362.73813
  0
VERTEX
  10
151.62682
  20
362.90732
  0
VERTEX
  10
151.68646
  20
363.0946
  0
VERTEX
  10
151.70825
  20
363.29599
  0
VERTEX
  10
151.68942
  20
363.49765
  0
VERTEX
  10
151.63254
  20
363.68579
  0
VERTEX
  10
151.5416
  20
363.85632
  0
VERTEX
  10
151.42058
  20
364.00522
  0
VERTEX
  10
151.27348
  20
364.12842
  0
VERTEX
  10
151.10431
  20
364.22186
  0
VERTEX
  10
150.91704
  20
364.28152
  0
VERTEX
  10
150.71565
  20
364.30331
  0
SEQEND
  0
POLYLINE
  62
0
  70
1
  0
VERTEX
  10
149.71382
  20
228.30734
  0
VERTEX
  10
149.51213
  20
228.28851
  0
VERTEX
  10
149.32399
  20
228.23163
  0
VERTEX
  10
149.15344
  20
228.14069
  0
VERTEX
  10
149.00456
  20
228.01965
  0
VERTEX
  10
148.88136
  20
227.87257
  0
VERTEX
  10
148.78792
  20
227.70338
  0
VERTEX
  10
148.72827
  20
227.51611
  0
VERTEX
  10
148.70648
  20
227.31473
  0
VERTEX
  10
148.72531
  20
227.11305
  0
VERTEX
  10
148.7822
  20
226.92491
  0
VERTEX
  10
148.87314
  20
226.75436
  0
VERTEX
  10
148.99416
  20
226.60548
  0
VERTEX
  10
149.14125
  20
226.48228
  0
VERTEX
  10
149.31042
  20
226.38882
  0
VERTEX
  10
149.4977
  20
226.32919
  0
VERTEX
  10
149.69908
  20
226.30737
  0
VERTEX
  10
149.90077
  20
226.3262
  0
VERTEX
  10
150.08891
  20
226.38309
  0
VERTEX
  10
150.25946
  20
226.47403
  0
VERTEX
  10
150.40834
  20
226.59506
  0
VERTEX
  10
150.53154
  20
226.74214
  0
VERTEX
  10
150.62498
  20
226.91133
  0
VERTEX
  10
150.68463
  20
227.0986
  0
VERTEX
  10
150.70642
  20
227.29999
  0
VERTEX
  10
150.68759
  20
227.50166
  0
VERTEX
  10
150.63071
  20
227.6898
  0
VERTEX
  10
150.53976
  20
227.86035
  0
VERTEX
  10
150.41875
  20
228.00923
  0
VERTEX
  10
150.27165
  20
228.13243
  0
VERTEX
  10
150.10248
  20
228.22589
  0
VERTEX
  10
149.91521
  20
228.28552
  0
VERTEX
  10
149.71382
  20
228.30734
  0
SEQEND
  0
POLYLINE
  62
0
  70
1
  0
VERTEX
  10
217.58835
  20
208.72002
  0
VERTEX
  10
217.38698
  20
208.74182
  0
VERTEX
  10
217.19971
  20
208.80147
  0
VERTEX
  10
217.03052
  20
208.89491
  0
VERTEX
  10
216.88342
  20
209.01811
  0
VERTEX
  10
216.76242
  20
209.16699
  0
VERTEX
  10
216.67146
  20
209.33754
  0
VERTEX
  10
216.61458
  20
209.52568
  0
VERTEX
  10
216.59575
  20
209.72737
  0
VERTEX
  10
216.61755
  20
209.92876
  0
VERTEX
  10
216.6772
  20
210.11603
  0
VERTEX
  10
216.77065
  20
210.28522
  0
VERTEX
  10
216.89384
  20
210.43231
  0
VERTEX
  10
217.04272
  20
210.55331
  0
VERTEX
  10
217.21327
  20
210.64427
  0
VERTEX
  10
217.40141
  20
210.70116
  0
VERTEX
  10
217.60309
  20
210.71999
  0
VERTEX
  10
217.80446
  20
210.69818
  0
VERTEX
  10
217.99173
  20
210.63853
  0
VERTEX
  10
218.16092
  20
210.54509
  0
VERTEX
  10
218.30801
  20
210.42189
  0
VERTEX
  10
218.42902
  20
210.27301
  0
VERTEX
  10
218.51997
  20
210.10246
  0
VERTEX
  10
218.57686
  20
209.91432
  0
VERTEX
  10
218.59569
  20
209.71263
  0
VERTEX
  10
218.57388
  20
209.51125
  0
VERTEX
  10
218.51424
  20
209.32397
  0
VERTEX
  10
218.42079
  20
209.15479
  0
VERTEX
  10
218.29759
  20
209.00769
  0
VERTEX
  10
218.14871
  20
208.88669
  0
VERTEX
  10
217.97816
  20
208.79573
  0
VERTEX
  10
217.79002
  20
208.73885
  0
VERTEX
  10
217.58835
  20
208.72002
  0
SEQEND
  0
POLYLINE
  62
0
  70
1
  0
VERTEX
  10
218.85435
  20
380.56619
  0
VERTEX
  10
218.65266
  20
380.54736
  0
VERTEX
  10
218.46452
  20
380.49048
  0
VERTEX
  10
218.29398
  20
380.39954
  0
VERTEX
  10
218.1451
  20
380.27853
  0
VERTEX
  10
218.0219
  20
380.13144
  0
VERTEX
  10
217.92845
  20
379.96225
  0
VERTEX
  10
217.8688
  20
379.77496
  0
VERTEX
  10
217.84702
  20
379.57358
  0
VERTEX
  10
217.86584
  20
379.37192
  0
VERTEX
  10
217.92273
  20
379.18378
  0
VERTEX
  10
218.01367
  20
379.01324
  0
VERTEX
  10
218.13469
  20
378.86435
  0
VERTEX
  10
218.28178
  20
378.74115
  0
VERTEX
  10
218.45096
  20
378.64771
  0
VERTEX
  10
218.63823
  20
378.58804
  0
VERTEX
  10
218.83961
  20
378.56625
  0
VERTEX
  10
219.04131
  20
378.58508
  0
VERTEX
  10
219.22945
  20
378.64197
  0
VERTEX
  10
219.39999
  20
378.73291
  0
VERTEX
  10
219.54887
  20
378.85391
  0
VERTEX
  10
219.67207
  20
379.00101
  0
VERTEX
  10
219.76552
  20
379.1702
  0
VERTEX
  10
219.82516
  20
379.35748
  0
VERTEX
  10
219.84695
  20
379.55887
  0
VERTEX
  10
219.82813
  20
379.76053
  0
VERTEX
  10
219.77124
  20
379.94867
  0
VERTEX
  10
219.6803
  20
380.1192
  0
VERTEX
  10
219.55928
  20
380.2681
  0
VERTEX
  10
219.41219
  20
380.3913
  0
VERTEX
  10
219.24301
  20
380.48474
  0
VERTEX
  10
219.05574
  20
380.5444
  0
VERTEX
  10
218.85435
  20
380.56619
  0
SEQEND
  0
POLYLINE
  62
0
  70
1
  0
VERTEX
  10
240.63579
  20
209.46097
  0
VERTEX
  10
240.07945
  20
209.46507
  0
VERTEX
  10
238.27611
  20
209.47836
  0
VERTEX
  10
236.20526
  20
209.52957
  0
VERTEX
  10
235.6749
  20
209.54263
  0
VERTEX
  10
233.60709
  20
209.66565
  0
VERTEX
  10
233.07748
  20
209.69719
  0
VERTEX
  10
231.01518
  20
209.89185
  0
VERTEX
  10
230.48701
  20
209.94171
  0
VERTEX
  10
228.43271
  20
210.20773
  0
VERTEX
  10
227.90659
  20
210.27588
  0
VERTEX
  10
225.86272
  20
210.61305
  0
VERTEX
  10
225.33928
  20
210.69942
  0
VERTEX
  10
223.30833
  20
211.10727
  0
VERTEX
  10
222.78821
  20
211.21172
  0
VERTEX
  10
220.77266
  20
211.6898
  0
VERTEX
  10
220.25645
  20
211.81223
  0
VERTEX
  10
218.2587
  20
212.35992
  0
VERTEX
  10
217.74706
  20
212.5002
  0
VERTEX
  10
215.76947
  20
213.11688
  0
VERTEX
  10
215.26302
  20
213.27481
  0
VERTEX
  10
213.30804
  20
213.95966
  0
VERTEX
  10
212.80734
  20
214.1351
  0
VERTEX
  10
210.87732
  20
214.88733
  0
VERTEX
  10
210.38298
  20
215.08002
  0
VERTEX
  10
208.48021
  20
215.89885
  0
VERTEX
  10
207.99289
  20
216.10852
  0
VERTEX
  10
206.11964
  20
216.99283
  0
VERTEX
  10
205.63991
  20
217.21933
  0
VERTEX
  10
203.79848
  20
218.16808
  0
VERTEX
  10
203.32686
  20
218.41104
  0
VERTEX
  10
201.51944
  20
219.4231
  0
VERTEX
  10
201.05655
  20
219.68234
  0
VERTEX
  10
199.28532
  20
220.75641
  0
VERTEX
  10
198.83173
  20
221.03152
  0
VERTEX
  10
197.09879
  20
222.16643
  0
VERTEX
  10
196.65498
  20
222.45712
  0
VERTEX
  10
194.96252
  20
223.65149
  0
VERTEX
  10
194.52908
  20
223.9574
  0
VERTEX
  10
192.879
  20
225.20975
  0
VERTEX
  10
192.45642
  20
225.53046
  0
VERTEX
  10
190.8508
  20
226.83929
  0
VERTEX
  10
190.43959
  20
227.17453
  0
VERTEX
  10
188.8804
  20
228.53827
  0
VERTEX
  10
188.48099
  20
228.88754
  0
VERTEX
  10
186.97006
  20
230.30457
  0
VERTEX
  10
186.58304
  20
230.66743
  0
VERTEX
  10
185.12212
  20
232.13602
  0
VERTEX
  10
184.74796
  20
232.51215
  0
VERTEX
  10
183.33884
  20
234.03049
  0
VERTEX
  10
182.97797
  20
234.41934
  0
VERTEX
  10
181.62239
  20
235.98567
  0
VERTEX
  10
181.27521
  20
236.38686
  0
VERTEX
  10
179.97476
  20
237.99927
  0
VERTEX
  10
179.64172
  20
238.41217
  0
VERTEX
  10
178.39799
  20
240.06876
  0
VERTEX
  10
178.07945
  20
240.493
  0
VERTEX
  10
176.89394
  20
242.19171
  0
VERTEX
  10
176.59033
  20
242.62679
  0
VERTEX
  10
175.46446
  20
244.36552
  0
VERTEX
  10
175.17609
  20
244.81084
  0
VERTEX
  10
174.11124
  20
246.58766
  0
VERTEX
  10
173.8385
  20
247.04272
  0
VERTEX
  10
172.83585
  20
248.85538
  0
VERTEX
  10
172.57909
  20
249.31964
  0
VERTEX
  10
172.33858
  20
249.79247
  0
VERTEX
  10
171.39946
  20
251.63887
  0
VERTEX
  10
170.38907
  20
253.79721
  0
VERTEX
  10
170.13025
  20
254.34998
  0
VERTEX
  10
169.8886
  20
254.91042
  0
VERTEX
  10
168.94492
  20
257.09879
  0
VERTEX
  10
168.72055
  20
257.66632
  0
VERTEX
  10
167.8445
  20
259.88269
  0
VERTEX
  10
167.03691
  20
262.12476
  0
VERTEX
  10
166.83008
  20
262.69904
  0
VERTEX
  10
166.09174
  20
264.9649
  0
VERTEX
  10
165.9026
  20
265.54517
  0
VERTEX
  10
165.23416
  20
267.83264
  0
VERTEX
  10
165.06294
  20
268.41852
  0
VERTEX
  10
164.46498
  20
270.7254
  0
VERTEX
  10
164.31189
  20
271.31622
  0
VERTEX
  10
163.78499
  20
273.64041
  0
VERTEX
  10
163.65007
  20
274.23563
  0
VERTEX
  10
163.19485
  20
276.57489
  0
VERTEX
  10
163.07825
  20
277.17401
  0
VERTEX
  10
162.69501
  20
279.52615
  0
VERTEX
  10
162.59688
  20
280.12854
  0
VERTEX
  10
162.28609
  20
282.49133
  0
VERTEX
  10
162.20644
  20
283.09644
  0
VERTEX
  10
161.96834
  20
285.46765
  0
VERTEX
  10
161.90735
  20
286.07495
  0
VERTEX
  10
161.74208
  20
288.45233
  0
VERTEX
  10
161.69977
  20
289.06122
  0
VERTEX
  10
161.60757
  20
291.4426
  0
VERTEX
  10
161.58401
  20
292.05249
  0
VERTEX
  10
161.56497
  20
294.43555
  0
VERTEX
  10
161.56012
  20
295.04584
  0
VERTEX
  10
161.61426
  20
297.42841
  0
VERTEX
  10
161.62811
  20
298.03857
  0
VERTEX
  10
161.75533
  20
300.4183
  0
VERTEX
  10
161.78793
  20
301.02777
  0
VERTEX
  10
161.98819
  20
303.4025
  0
VERTEX
  10
162.03946
  20
304.01068
  0
VERTEX
  10
162.3125
  20
306.37811
  0
VERTEX
  10
162.38245
  20
306.98444
  0
VERTEX
  10
162.72809
  20
309.34241
  0
VERTEX
  10
162.81654
  20
309.94626
  0
VERTEX
  10
163.23441
  20
312.29248
  0
VERTEX
  10
163.34138
  20
312.8934
  0
VERTEX
  10
163.83105
  20
315.22571
  0
VERTEX
  10
163.95644
  20
315.823
  0
VERTEX
  10
164.51747
  20
318.13919
  0
VERTEX
  10
164.66121
  20
318.73236
  0
VERTEX
  10
165.29303
  20
321.03021
  0
VERTEX
  10
165.45486
  20
321.61871
  0
VERTEX
  10
166.157
  20
323.89606
  0
VERTEX
  10
166.33676
  20
324.47931
  0
VERTEX
  10
167.10846
  20
326.73407
  0
VERTEX
  10
167.30608
  20
327.31152
  0
VERTEX
  10
168.14665
  20
329.54153
  0
VERTEX
  10
168.36191
  20
330.11261
  0
VERTEX
  10
169.27051
  20
332.3158
  0
VERTEX
  10
169.50323
  20
332.88
  0
VERTEX
  10
170.47905
  20
335.0542
  0
VERTEX
  10
170.72893
  20
335.61102
  0
VERTEX
  10
171.77103
  20
337.75427
  0
VERTEX
  10
172.03795
  20
338.30316
  0
VERTEX
  10
173.00417
  20
340.13547
  0
VERTEX
  10
173.2516
  20
340.60474
  0
VERTEX
  10
174.28084
  20
342.40247
  0
VERTEX
  10
174.54443
  20
342.86285
  0
VERTEX
  10
175.63538
  20
344.62378
  0
VERTEX
  10
175.91479
  20
345.07477
  0
VERTEX
  10
177.06615
  20
346.79681
  0
VERTEX
  10
177.36107
  20
347.23779
  0
VERTEX
  10
178.57144
  20
348.91885
  0
VERTEX
  10
178.88142
  20
349.34937
  0
VERTEX
  10
180.14946
  20
350.98743
  0
VERTEX
  10
180.47415
  20
351.40698
  0
VERTEX
  10
181.79825
  20
353.00003
  0
VERTEX
  10
182.13736
  20
353.40802
  0
VERTEX
  10
183.51587
  20
354.95422
  0
VERTEX
  10
183.86891
  20
355.35022
  0
VERTEX
  10
185.30025
  20
356.84766
  0
VERTEX
  10
185.66682
  20
357.23114
  0
VERTEX
  10
187.14922
  20
358.67804
  0
VERTEX
  10
187.52888
  20
359.04858
  0
VERTEX
  10
189.06061
  20
360.44318
  0
VERTEX
  10
189.45284
  20
360.80035
  0
VERTEX
  10
191.03207
  20
362.14099
  0
VERTEX
  10
191.43646
  20
362.48431
  0
VERTEX
  10
193.06119
  20
363.76935
  0
VERTEX
  10
193.47729
  20
364.09845
  0
VERTEX
  10
195.1456
  20
365.32635
  0
VERTEX
  10
195.57291
  20
365.64087
  0
VERTEX
  10
197.28276
  20
366.81012
  0
VERTEX
  10
197.72069
  20
367.10962
  0
VERTEX
  10
199.47011
  20
368.2189
  0
VERTEX
  10
199.91818
  20
368.50296
  0
VERTEX
  10
201.70503
  20
369.5509
  0
VERTEX
  10
202.16264
  20
369.81931
  0
VERTEX
  10
203.98477
  20
370.8046
  0
VERTEX
  10
204.45146
  20
371.05695
  0
VERTEX
  10
206.30664
  20
371.97845
  0
VERTEX
  10
206.7818
  20
372.21448
  0
VERTEX
  10
208.66789
  20
373.07108
  0
VERTEX
  10
209.15088
  20
373.2905
  0
VERTEX
  10
211.06555
  20
374.08115
  0
VERTEX
  10
211.55589
  20
374.28363
  0
VERTEX
  10
213.49683
  20
375.00742
  0
VERTEX
  10
213.99391
  20
375.19278
  0
VERTEX
  10
215.95879
  20
375.84879
  0
VERTEX
  10
216.46199
  20
376.01682
  0
VERTEX
  10
218.44844
  20
376.60425
  0
VERTEX
  10
218.95717
  20
376.7547
  0
VERTEX
  10
220.96278
  20
377.27292
  0
VERTEX
  10
221.47643
  20
377.40561
  0
VERTEX
  10
223.49883
  20
377.85394
  0
VERTEX
  10
224.01675
  20
377.96878
  0
VERTEX
  10
226.05347
  20
378.34662
  0
VERTEX
  10
226.5751
  20
378.44348
  0
VERTEX
  10
228.62369
  20
378.75046
  0
VERTEX
  10
229.14836
  20
378.8291
  0
VERTEX
  10
231.20639
  20
379.06488
  0
VERTEX
  10
231.73344
  20
379.12521
  0
VERTEX
  10
233.7984
  20
379.28946
  0
VERTEX
  10
234.32724
  20
379.33154
  0
VERTEX
  10
236.39668
  20
379.42407
  0
VERTEX
  10
236.92667
  20
379.44775
  0
VERTEX
  10
237.45715
  20
379.45306
  0
VERTEX
  10
239.52852
  20
379.47372
  0
VERTEX
  10
243.43405
  20
379.44498
  0
VERTEX
  10
244.10085
  20
379.44003
  0
VERTEX
  10
261.27695
  20
379.36484
  0
VERTEX
  10
261.78854
  20
379.3811
  0
VERTEX
  10
262.28632
  20
379.44757
  0
VERTEX
  10
262.7677
  20
379.5618
  0
VERTEX
  10
263.23016
  20
379.72131
  0
VERTEX
  10
263.67108
  20
379.92368
  0
VERTEX
  10
264.08795
  20
380.16638
  0
VERTEX
  10
264.47815
  20
380.44696
  0
VERTEX
  10
264.83923
  20
380.763
  0
VERTEX
  10
265.16852
  20
381.11197
  0
VERTEX
  10
265.4635
  20
381.49146
  0
VERTEX
  10
265.72162
  20
381.89893
  0
VERTEX
  10
265.94028
  20
382.332
  0
VERTEX
  10
266.11694
  20
382.78815
  0
VERTEX
  10
266.24908
  20
383.26495
  0
VERTEX
  10
266.33411
  20
383.75989
  0
VERTEX
  10
266.36948
  20
384.27054
  0
VERTEX
  10
266.35254
  20
384.78903
  0
VERTEX
  10
266.2843
  20
385.30557
  0
VERTEX
  10
266.16739
  20
385.81491
  0
VERTEX
  10
266.00458
  20
386.31171
  0
VERTEX
  10
265.79858
  20
386.79065
  0
VERTEX
  10
265.55219
  20
387.24646
  0
VERTEX
  10
265.26807
  20
387.67377
  0
VERTEX
  10
264.94891
  20
388.06732
  0
VERTEX
  10
264.59753
  20
388.42181
  0
VERTEX
  10
264.21661
  20
388.7319
  0
VERTEX
  10
263.8089
  20
388.99231
  0
VERTEX
  10
263.37714
  20
389.19769
  0
VERTEX
  10
262.92401
  20
389.34277
  0
VERTEX
  10
262.45224
  20
389.42224
  0
VERTEX
  10
261.9646
  20
389.43079
  0
VERTEX
  10
261.46378
  20
389.36307
  0
VERTEX
  10
260.56995
  20
389.17307
  0
VERTEX
  10
259.72827
  20
388.99396
  0
VERTEX
  10
258.93588
  20
388.82516
  0
VERTEX
  10
258.18982
  20
388.66611
  0
VERTEX
  10
257.48718
  20
388.5162
  0
VERTEX
  10
256.82501
  20
388.37491
  0
VERTEX
  10
256.20038
  20
388.24161
  0
VERTEX
  10
255.61038
  20
388.11575
  0
VERTEX
  10
255.05209
  20
387.99677
  0
VERTEX
  10
254.52257
  20
387.88406
  0
VERTEX
  10
254.01889
  20
387.77707
  0
VERTEX
  10
253.53815
  20
387.67523
  0
VERTEX
  10
252.63367
  20
387.48468
  0
VERTEX
  10
251.78577
  20
387.30777
  0
VERTEX
  10
250.16597
  20
386.97665
  0
VERTEX
  10
248.49146
  20
386.64511
  0
VERTEX
  10
247.57513
  20
386.46768
  0
VERTEX
  10
246.57489
  20
386.27637
  0
VERTEX
  10
246.03598
  20
386.17404
  0
VERTEX
  10
245.46732
  20
386.06653
  0
VERTEX
  10
244.86595
  20
385.95328
  0
VERTEX
  10
244.22897
  20
385.83365
  0
VERTEX
  10
244.08093
  20
385.76898
  0
VERTEX
  10
243.98691
  20
385.6496
  0
VERTEX
  10
243.94522
  20
385.48853
  0
VERTEX
  10
243.95413
  20
385.29883
  0
VERTEX
  10
244.01195
  20
385.09354
  0
VERTEX
  10
244.11694
  20
384.88574
  0
VERTEX
  10
244.26743
  20
384.68851
  0
VERTEX
  10
244.46167
  20
384.51486
  0
VERTEX
  10
244.87503
  20
384.2446
  0
VERTEX
  10
245.26114
  20
384.04443
  0
VERTEX
  10
245.59689
  20
383.91122
  0
VERTEX
  10
245.85919
  20
383.84183
  0
VERTEX
  10
246.24886
  20
383.76489
  0
VERTEX
  10
246.61157
  20
383.69574
  0
VERTEX
  10
246.94978
  20
383.63388
  0
VERTEX
  10
247.26588
  20
383.5788
  0
VERTEX
  10
247.8414
  20
383.48712
  0
VERTEX
  10
248.35748
  20
383.41672
  0
VERTEX
  10
249.28867
  20
383.3241
  0
VERTEX
  10
250.21408
  20
383.26947
  0
VERTEX
  10
250.76242
  20
383.22485
  0
VERTEX
  10
251.31041
  20
383.17578
  0
VERTEX
  10
251.35179
  20
383.34473
  0
VERTEX
  10
251.43086
  20
383.48514
  0
VERTEX
  10
251.54346
  20
383.60519
  0
VERTEX
  10
251.68544
  20
383.71298
  0
VERTEX
  10
251.96457
  20
383.82336
  0
VERTEX
  10
252.21758
  20
383.89767
  0
VERTEX
  10
252.44989
  20
383.93182
  0
VERTEX
  10
252.66702
  20
383.92175
  0
VERTEX
  10
252.87442
  20
383.8634
  0
VERTEX
  10
253.07753
  20
383.75269
  0
VERTEX
  10
253.28185
  20
383.58554
  0
VERTEX
  10
253.49281
  20
383.35791
  0
VERTEX
  10
253.57066
  20
383.21893
  0
VERTEX
  10
253.61717
  20
383.06149
  0
VERTEX
  10
253.63449
  20
382.89212
  0
VERTEX
  10
253.62479
  20
382.71735
  0
VERTEX
  10
253.59016
  20
382.54364
  0
VERTEX
  10
253.53278
  20
382.37756
  0
VERTEX
  10
253.45474
  20
382.22565
  0
VERTEX
  10
253.35823
  20
382.09436
  0
VERTEX
  10
253.22531
  20
381.9874
  0
VERTEX
  10
253.07277
  20
381.9043
  0
VERTEX
  10
252.90546
  20
381.84427
  0
VERTEX
  10
252.72824
  20
381.80652
  0
VERTEX
  10
252.36362
  20
381.79489
  0
VERTEX
  10
252.01791
  20
381.86316
  0
VERTEX
  10
251.8522
  20
381.96268
  0
VERTEX
  10
251.67813
  20
382.08255
  0
VERTEX
  10
251.49823
  20
382.23785
  0
VERTEX
  10
251.315
  20
382.44363
  0
VERTEX
  10
250.42958
  20
382.38864
  0
VERTEX
  10
249.6378
  20
382.32831
  0
VERTEX
  10
248.89233
  20
382.2648
  0
VERTEX
  10
248.14584
  20
382.20044
  0
VERTEX
  10
247.35097
  20
382.13742
  0
VERTEX
  10
246.46039
  20
382.078
  0
VERTEX
  10
245.96442
  20
382.05035
  0
VERTEX
  10
245.42677
  20
382.02448
  0
VERTEX
  10
244.84152
  20
382.00058
  0
VERTEX
  10
244.20277
  20
381.979
  0
VERTEX
  10
243.00305
  20
381.94681
  0
VERTEX
  10
241.8499
  20
381.92404
  0
VERTEX
  10
240.74429
  20
381.90973
  0
VERTEX
  10
239.68719
  20
381.90283
  0
VERTEX
  10
238.67963
  20
381.9024
  0
VERTEX
  10
237.7226
  20
381.90738
  0
VERTEX
  10
236.81703
  20
381.91678
  0
VERTEX
  10
235.96396
  20
381.92963
  0
VERTEX
  10
235.16435
  20
381.94489
  0
VERTEX
  10
234.41919
  20
381.96155
  0
VERTEX
  10
233.72949
  20
381.97867
  0
VERTEX
  10
233.09621
  20
381.99521
  0
VERTEX
  10
232.52032
  20
382.01019
  0
VERTEX
  10
232.00287
  20
382.02255
  0
VERTEX
  10
231.54478
  20
382.03137
  0
VERTEX
  10
231.14708
  20
382.03558
  0
VERTEX
  10
214.25972
  20
382.15997
  0
VERTEX
  10
213.34117
  20
382.16675
  0
VERTEX
  10
210.66986
  20
382.1864
  0
VERTEX
  10
209.75713
  20
382.19312
  0
VERTEX
  10
208.35898
  20
382.20343
  0
VERTEX
  10
206.88637
  20
382.21301
  0
VERTEX
  10
206.34787
  20
382.21085
  0
VERTEX
  10
205.1277
  20
382.20029
  0
VERTEX
  10
204.59743
  20
382.19211
  0
VERTEX
  10
204.04965
  20
382.17789
  0
VERTEX
  10
203.42227
  20
382.15436
  0
VERTEX
  10
201.9861
  20
382.09409
  0
VERTEX
  10
201.40613
  20
382.06226
  0
VERTEX
  10
200.71553
  20
382.01556
  0
VERTEX
  10
199.4994
  20
381.92691
  0
VERTEX
  10
198.92029
  20
381.88022
  0
VERTEX
  10
198.35698
  20
381.82834
  0
VERTEX
  10
197.8174
  20
381.77292
  0
VERTEX
  10
196.23212
  20
381.60263
  0
VERTEX
  10
195.68355
  20
381.53534
  0
VERTEX
  10
195.13838
  20
381.46286
  0
VERTEX
  10
193.70938
  20
381.26474
  0
VERTEX
  10
193.09489
  20
381.17218
  0
VERTEX
  10
192.54169
  20
381.08151
  0
VERTEX
  10
190.80032
  20
380.78287
  0
VERTEX
  10
190.18584
  20
380.66855
  0
VERTEX
  10
189.56302
  20
380.54456
  0
VERTEX
  10
188.45387
  20
380.31845
  0
VERTEX
  10
187.70999
  20
380.16003
  0
VERTEX
  10
185.53662
  20
379.64392
  0
VERTEX
  10
184.97998
  20
379.51175
  0
VERTEX
  10
182.82425
  20
378.92618
  0
VERTEX
  10
182.27219
  20
378.77625
  0
VERTEX
  10
180.13631
  20
378.12189
  0
VERTEX
  10
179.58931
  20
377.95425
  0
VERTEX
  10
177.47557
  20
377.23181
  0
VERTEX
  10
176.9342
  20
377.04675
  0
VERTEX
  10
174.84468
  20
376.25687
  0
VERTEX
  10
174.30952
  20
376.05453
  0
VERTEX
  10
172.24648
  20
375.19803
  0
VERTEX
  10
171.71806
  20
374.97867
  0
VERTEX
  10
169.68347
  20
374.05646
  0
VERTEX
  10
169.1624
  20
373.82028
  0
VERTEX
  10
167.15842
  20
372.83328
  0
VERTEX
  10
166.64517
  20
372.58057
  0
VERTEX
  10
164.67387
  20
371.52985
  0
VERTEX
  10
164.16905
  20
371.26071
  0
VERTEX
  10
162.23248
  20
370.14737
  0
VERTEX
  10
161.73651
  20
369.86221
  0
VERTEX
  10
159.83661
  20
368.68729
  0
VERTEX
  10
159.35004
  20
368.38638
  0
VERTEX
  10
157.48877
  20
367.15118
  0
VERTEX
  10
157.01204
  20
366.83484
  0
VERTEX
  10
155.19138
  20
365.54053
  0
VERTEX
  10
154.46005
  20
365.07013
  0
VERTEX
  10
153.94391
  20
365.03302
  0
VERTEX
  10
153.47833
  20
365.25897
  0
VERTEX
  10
153.18811
  20
365.68744
  0
VERTEX
  10
153.15105
  20
366.20361
  0
VERTEX
  10
153.45995
  20
366.75455
  0
VERTEX
  10
155.22391
  20
368.31058
  0
VERTEX
  10
155.67567
  20
368.70911
  0
VERTEX
  10
157.48602
  20
370.21097
  0
VERTEX
  10
157.94966
  20
370.59561
  0
VERTEX
  10
159.80467
  20
372.0419
  0
VERTEX
  10
160.27975
  20
372.41235
  0
VERTEX
  10
162.17773
  20
373.80179
  0
VERTEX
  10
162.66382
  20
374.15765
  0
VERTEX
  10
164.60303
  20
375.48895
  0
VERTEX
  10
165.09969
  20
375.82993
  0
VERTEX
  10
167.07832
  20
377.10187
  0
VERTEX
  10
167.58508
  20
377.42764
  0
VERTEX
  10
169.60135
  20
378.63904
  0
VERTEX
  10
170.11774
  20
378.94928
  0
VERTEX
  10
172.1698
  20
380.099
  0
VERTEX
  10
172.69536
  20
380.39346
  0
VERTEX
  10
174.78131
  20
381.48053
  0
VERTEX
  10
175.31557
  20
381.75891
  0
VERTEX
  10
177.4335
  20
382.78226
  0
VERTEX
  10
177.97594
  20
383.04431
  0
VERTEX
  10
180.12389
  20
384.00302
  0
VERTEX
  10
180.67401
  20
384.24857
  0
VERTEX
  10
182.85007
  20
385.14172
  0
VERTEX
  10
183.77449
  20
385.51093
  0
VERTEX
  10
185.04216
  20
385.99585
  0
VERTEX
  10
186.68799
  20
386.59174
  0
VERTEX
  10
185.81319
  20
388.93378
  0
VERTEX
  10
183.7876
  20
388.19409
  0
VERTEX
  10
182.21582
  20
387.58765
  0
VERTEX
  10
181.57428
  20
387.3248
  0
VERTEX
  10
179.81755
  20
386.60129
  0
VERTEX
  10
178.07909
  20
385.83493
  0
VERTEX
  10
177.44597
  20
385.55237
  0
VERTEX
  10
176.93385
  20
385.31683
  0
VERTEX
  10
176.03488
  20
384.88986
  0
VERTEX
  10
176.1514
  20
386.82431
  0
VERTEX
  10
176.21417
  20
387.86594
  0
VERTEX
  10
176.1497
  20
388.427
  0
VERTEX
  10
175.89725
  20
388.93216
  0
VERTEX
  10
175.48721
  20
389.3205
  0
VERTEX
  10
174.96913
  20
389.54523
  0
VERTEX
  10
174.40544
  20
389.57916
  0
VERTEX
  10
173.86407
  20
389.41827
  0
VERTEX
  10
173.41042
  20
389.08197
  0
VERTEX
  10
173.09917
  20
388.61075
  0
VERTEX
  10
172.9678
  20
388.06149
  0
VERTEX
  10
172.81085
  20
385.45551
  0
VERTEX
  10
172.67561
  20
383.21045
  0
VERTEX
  10
171.74974
  20
382.72369
  0
VERTEX
  10
170.36667
  20
381.96503
  0
VERTEX
  10
169.81747
  20
381.65598
  0
VERTEX
  10
167.70667
  20
380.42819
  0
VERTEX
  10
167.16728
  20
380.10229
  0
VERTEX
  10
165.09521
  20
378.81036
  0
VERTEX
  10
164.56612
  20
378.46802
  0
VERTEX
  10
162.53458
  20
377.11307
  0
VERTEX
  10
162.01636
  20
376.75455
  0
VERTEX
  10
160.02734
  20
375.33795
  0
VERTEX
  10
159.52045
  20
374.96359
  0
VERTEX
  10
157.57584
  20
373.48663
  0
VERTEX
  10
157.08075
  20
373.09677
  0
VERTEX
  10
155.18233
  20
371.56088
  0
VERTEX
  10
154.69952
  20
371.15591
  0
VERTEX
  10
152.84912
  20
369.5625
  0
VERTEX
  10
152.37906
  20
369.14279
  0
VERTEX
  10
150.5784
  20
367.49341
  0
VERTEX
  10
150.12152
  20
367.05939
  0
VERTEX
  10
148.37228
  20
365.35556
  0
VERTEX
  10
147.92905
  20
364.90762
  0
VERTEX
  10
146.23288
  20
363.15097
  0
VERTEX
  10
145.80371
  20
362.68951
  0
VERTEX
  10
144.1622
  20
360.88165
  0
VERTEX
  10
143.7475
  20
360.40717
  0
VERTEX
  10
142.1622
  20
358.5498
  0
VERTEX
  10
141.76234
  20
358.06274
  0
VERTEX
  10
140.23479
  20
356.15765
  0
VERTEX
  10
139.85019
  20
355.65845
  0
VERTEX
  10
138.38174
  20
353.7074
  0
VERTEX
  10
138.01277
  20
353.19653
  0
VERTEX
  10
136.60486
  20
351.20139
  0
VERTEX
  10
136.25186
  20
350.67938
  0
VERTEX
  10
134.90578
  20
348.64197
  0
VERTEX
  10
134.56908
  20
348.10931
  0
VERTEX
  10
133.28613
  20
346.03162
  0
VERTEX
  10
132.96606
  20
345.48877
  0
VERTEX
  10
131.74747
  20
343.37268
  0
VERTEX
  10
131.44427
  20
342.82022
  0
VERTEX
  10
130.29112
  20
340.66772
  0
VERTEX
  10
130.00519
  20
340.10617
  0
VERTEX
  10
128.91858
  20
337.91937
  0
VERTEX
  10
128.65015
  20
337.34921
  0
VERTEX
  10
127.63118
  20
335.13013
  0
VERTEX
  10
127.38043
  20
334.55194
  0
VERTEX
  10
126.43001
  20
332.30261
  0
VERTEX
  10
126.19723
  20
331.71698
  0
VERTEX
  10
125.31622
  20
329.43954
  0
VERTEX
  10
125.1017
  20
328.84702
  0
VERTEX
  10
124.56997
  20
327.36224
  0
VERTEX
  10
124.27859
  20
326.49948
  0
VERTEX
  10
122.58932
  20
326.5119
  0
VERTEX
  10
120.51948
  20
326.52719
  0
VERTEX
  10
119.9626
  20
326.4332
  0
VERTEX
  10
119.47147
  20
326.15445
  0
VERTEX
  10
119.10528
  20
325.72452
  0
VERTEX
  10
118.90823
  20
325.19525
  0
VERTEX
  10
118.90408
  20
324.63055
  0
VERTEX
  10
119.09331
  20
324.09848
  0
VERTEX
  10
119.45313
  20
323.66321
  0
VERTEX
  10
119.94012
  20
323.37723
  0
VERTEX
  10
120.49552
  20
323.27505
  0
VERTEX
  10
121.53899
  20
323.2674
  0
VERTEX
  10
123.2484
  20
323.25476
  0
VERTEX
  10
122.9403
  20
322.21057
  0
VERTEX
  10
122.50986
  20
320.66528
  0
VERTEX
  10
122.35114
  20
320.05542
  0
VERTEX
  10
121.76902
  20
317.74493
  0
VERTEX
  10
121.62919
  20
317.13046
  0
VERTEX
  10
121.11649
  20
314.80365
  0
VERTEX
  10
120.99571
  20
314.18512
  0
VERTEX
  10
120.55285
  20
311.84393
  0
VERTEX
  10
120.45128
  20
311.22205
  0
VERTEX
  10
120.07873
  20
308.86865
  0
VERTEX
  10
119.99639
  20
308.2439
  0
VERTEX
  10
119.6944
  20
305.8804
  0
VERTEX
  10
119.63141
  20
305.25339
  0
VERTEX
  10
119.40027
  20
302.88196
  0
VERTEX
  10
119.35671
  20
302.2533
  0
VERTEX
  10
119.19665
  20
299.87598
  0
VERTEX
  10
119.17255
  20
299.24628
  0
VERTEX
  10
119.08371
  20
296.86526
  0
VERTEX
  10
119.06615
  20
294.48264
  0
VERTEX
  10
119.06152
  20
293.85248
  0
VERTEX
  10
119.11525
  20
291.4704
  0
VERTEX
  10
119.1301
  20
290.84039
  0
VERTEX
  10
119.2551
  20
288.461
  0
VERTEX
  10
119.28941
  20
287.83179
  0
VERTEX
  10
119.48558
  20
285.45715
  0
VERTEX
  10
119.53929
  20
284.82932
  0
VERTEX
  10
119.80645
  20
282.46161
  0
VERTEX
  10
119.87955
  20
281.83575
  0
VERTEX
  10
120.21741
  20
279.47717
  0
VERTEX
  10
120.30981
  20
278.85376
  0
VERTEX
  10
120.71812
  20
276.50635
  0
VERTEX
  10
120.82977
  20
275.88614
  0
VERTEX
  10
121.30814
  20
273.552
  0
VERTEX
  10
121.43888
  20
272.93552
  0
VERTEX
  10
121.98691
  20
270.6167
  0
VERTEX
  10
122.13663
  20
270.00458
  0
VERTEX
  10
122.61975
  20
268.1767
  0
VERTEX
  10
122.83693
  20
267.40448
  0
VERTEX
  10
121.12752
  20
267.41705
  0
VERTEX
  10
120.08405
  20
267.42474
  0
VERTEX
  10
119.52721
  20
267.33075
  0
VERTEX
  10
119.03604
  20
267.052
  0
VERTEX
  10
118.66985
  20
266.62204
  0
VERTEX
  10
118.47279
  20
266.09286
  0
VERTEX
  10
118.46865
  20
265.52814
  0
VERTEX
  10
118.65788
  20
264.99603
  0
VERTEX
  10
119.01769
  20
264.56079
  0
VERTEX
  10
119.50468
  20
264.27478
  0
VERTEX
  10
120.0601
  20
264.17261
  0
VERTEX
  10
122.12994
  20
264.15741
  0
VERTEX
  10
123.81921
  20
264.1449
  0
VERTEX
  10
124.09785
  20
263.27792
  0
VERTEX
  10
124.60766
  20
261.78552
  0
VERTEX
  10
124.8134
  20
261.18988
  0
VERTEX
  10
125.66077
  20
258.89972
  0
VERTEX
  10
125.88489
  20
258.31073
  0
VERTEX
  10
126.80206
  20
256.04767
  0
VERTEX
  10
127.04425
  20
255.46588
  0
VERTEX
  10
128.03043
  20
253.23196
  0
VERTEX
  10
128.29044
  20
252.65796
  0
VERTEX
  10
129.34473
  20
250.45532
  0
VERTEX
  10
129.62234
  20
249.88962
  0
VERTEX
  10
130.74364
  20
247.7204
  0
VERTEX
  10
131.03867
  20
247.16354
  0
VERTEX
  10
132.22595
  20
245.02974
  0
VERTEX
  10
132.53801
  20
244.48228
  0
VERTEX
  10
133.79016
  20
242.38586
  0
VERTEX
  10
134.11899
  20
241.84825
  0
VERTEX
  10
135.43491
  20
239.79123
  0
VERTEX
  10
135.7802
  20
239.26413
  0
VERTEX
  10
137.15854
  20
237.24841
  0
VERTEX
  10
137.51997
  20
236.73218
  0
VERTEX
  10
138.95947
  20
234.7597
  0
VERTEX
  10
139.33669
  20
234.25491
  0
VERTEX
  10
140.83603
  20
232.32751
  0
VERTEX
  10
141.22865
  20
231.83459
  0
VERTEX
  10
142.78642
  20
229.95409
  0
VERTEX
  10
143.19406
  20
229.47354
  0
VERTEX
  10
144.80876
  20
227.64172
  0
VERTEX
  10
145.23111
  20
227.17398
  0
VERTEX
  10
146.9012
  20
225.39249
  0
VERTEX
  10
147.33778
  20
224.93808
  0
VERTEX
  10
149.06171
  20
223.20869
  0
VERTEX
  10
149.51218
  20
222.76794
  0
VERTEX
  10
151.28833
  20
221.09219
  0
VERTEX
  10
151.75215
  20
220.66562
  0
VERTEX
  10
153.57889
  20
219.04518
  0
VERTEX
  10
154.05565
  20
218.63309
  0
VERTEX
  10
155.93124
  20
217.06943
  0
VERTEX
  10
156.42055
  20
216.67232
  0
VERTEX
  10
158.3432
  20
215.1669
  0
VERTEX
  10
158.84451
  20
214.78506
  0
VERTEX
  10
160.81244
  20
213.33932
  0
VERTEX
  10
161.32532
  20
212.97321
  0
VERTEX
  10
163.33667
  20
211.5885
  0
VERTEX
  10
163.86064
  20
211.23836
  0
VERTEX
  10
165.91348
  20
209.916
  0
VERTEX
  10
166.44797
  20
209.58223
  0
VERTEX
  10
168.54045
  20
208.32343
  0
VERTEX
  10
169.08505
  20
208.00638
  0
VERTEX
  10
170.4568
  20
207.22742
  0
VERTEX
  10
171.37541
  20
206.72705
  0
VERTEX
  10
171.47754
  20
204.48026
  0
VERTEX
  10
171.5961
  20
201.87222
  0
VERTEX
  10
171.71933
  20
201.32111
  0
VERTEX
  10
172.02362
  20
200.84534
  0
VERTEX
  10
172.47227
  20
200.50238
  0
VERTEX
  10
173.0112
  20
200.33356
  0
VERTEX
  10
173.57535
  20
200.35918
  0
VERTEX
  10
174.09671
  20
200.57626
  0
VERTEX
  10
174.51239
  20
200.95851
  0
VERTEX
  10
174.77223
  20
201.45993
  0
VERTEX
  10
174.84497
  20
202.01996
  0
VERTEX
  10
174.79756
  20
203.06241
  0
VERTEX
  10
174.70955
  20
204.99832
  0
VERTEX
  10
175.60216
  20
204.55817
  0
VERTEX
  10
176.5204
  20
204.12244
  0
VERTEX
  10
177.09203
  20
203.85712
  0
VERTEX
  10
178.8513
  20
203.06186
  0
VERTEX
  10
179.43086
  20
202.81433
  0
VERTEX
  10
181.57404
  20
201.91638
  0
VERTEX
  10
182.83479
  20
201.41367
  0
VERTEX
  10
184.47176
  20
200.79393
  0
VERTEX
  10
185.33644
  20
203.1396
  0
VERTEX
  10
183.4994
  20
203.83972
  0
VERTEX
  10
182.07414
  20
204.40915
  0
VERTEX
  10
179.91151
  20
205.33429
  0
VERTEX
  10
179.35764
  20
205.57121
  0
VERTEX
  10
177.22401
  20
206.56143
  0
VERTEX
  10
176.67758
  20
206.81508
  0
VERTEX
  10
174.57494
  20
207.86949
  0
VERTEX
  10
174.03645
  20
208.13954
  0
VERTEX
  10
171.96674
  20
209.25717
  0
VERTEX
  10
171.43665
  20
209.54343
  0
VERTEX
  10
169.40173
  20
210.7233
  0
VERTEX
  10
168.88058
  20
211.02542
  0
VERTEX
  10
166.88235
  20
212.26645
  0
VERTEX
  10
166.37059
  20
212.58426
  0
VERTEX
  10
164.41092
  20
213.88519
  0
VERTEX
  10
163.90903
  20
214.21841
  0
VERTEX
  10
161.98962
  20
215.57816
  0
VERTEX
  10
161.49808
  20
215.92639
  0
VERTEX
  10
159.62079
  20
217.34366
  0
VERTEX
  10
159.13998
  20
217.70659
  0
VERTEX
  10
157.30652
  20
219.18013
  0
VERTEX
  10
156.83691
  20
219.5575
  0
VERTEX
  10
155.04886
  20
221.08585
  0
VERTEX
  10
154.59097
  20
221.47733
  0
VERTEX
  10
152.85013
  20
223.05916
  0
VERTEX
  10
152.21912
  20
223.69943
  0
VERTEX
  10
152.08823
  20
224.20012
  0
VERTEX
  10
152.2251
  20
224.69914
  0
VERTEX
  10
152.59323
  20
225.06287
  0
VERTEX
  10
153.09384
  20
225.1938
  0
VERTEX
  10
153.69209
  20
224.99097
  0
VERTEX
  10
155.4935
  20
223.67001
  0
VERTEX
  10
155.95483
  20
223.33171
  0
VERTEX
  10
157.7977
  20
222.06918
  0
VERTEX
  10
158.26968
  20
221.74585
  0
VERTEX
  10
160.15205
  20
220.54306
  0
VERTEX
  10
160.63412
  20
220.23502
  0
VERTEX
  10
162.55409
  20
219.09322
  0
VERTEX
  10
163.04584
  20
218.80083
  0
VERTEX
  10
165.00142
  20
217.72119
  0
VERTEX
  10
165.50226
  20
217.44466
  0
VERTEX
  10
167.49147
  20
216.42824
  0
VERTEX
  10
168.00092
  20
216.16794
  0
VERTEX
  10
170.02171
  20
215.21588
  0
VERTEX
  10
170.53926
  20
214.97203
  0
VERTEX
  10
172.58951
  20
214.08527
  0
VERTEX
  10
173.11459
  20
213.85809
  0
VERTEX
  10
175.19225
  20
213.03751
  0
VERTEX
  10
175.72437
  20
212.82733
  0
VERTEX
  10
177.82721
  20
212.07379
  0
VERTEX
  10
178.3658
  20
211.88075
  0
VERTEX
  10
180.49179
  20
211.19502
  0
VERTEX
  10
181.03627
  20
211.01938
  0
VERTEX
  10
183.18314
  20
210.40215
  0
VERTEX
  10
183.73296
  20
210.24408
  0
VERTEX
  10
184.28755
  20
210.10371
  0
VERTEX
  10
186.78455
  20
209.47955
  0
VERTEX
  10
187.3965
  20
209.34201
  0
VERTEX
  10
188.48833
  20
209.10266
  0
VERTEX
  10
189.26416
  20
208.9406
  0
VERTEX
  10
189.82556
  20
208.83209
  0
VERTEX
  10
191.54852
  20
208.51262
  0
VERTEX
  10
192.11061
  20
208.41571
  0
VERTEX
  10
192.86082
  20
208.29648
  0
VERTEX
  10
193.96573
  20
208.12755
  0
VERTEX
  10
194.57614
  20
208.03879
  0
VERTEX
  10
195.16245
  20
207.96103
  0
VERTEX
  10
196.69894
  20
207.77643
  0
VERTEX
  10
197.7751
  20
207.65665
  0
VERTEX
  10
198.52827
  20
207.5876
  0
VERTEX
  10
199.64172
  20
207.48987
  0
VERTEX
  10
200.16704
  20
207.44823
  0
VERTEX
  10
200.70883
  20
207.41075
  0
VERTEX
  10
201.25018
  20
207.37881
  0
VERTEX
  10
202.34178
  20
207.31821
  0
VERTEX
  10
203.03584
  20
207.28539
  0
VERTEX
  10
203.86034
  20
207.2585
  0
VERTEX
  10
205.5585
  20
207.22096
  0
VERTEX
  10
206.24994
  20
207.21423
  0
VERTEX
  10
206.9368
  20
207.2092
  0
VERTEX
  10
207.54158
  20
207.20474
  0
VERTEX
  10
209.19888
  20
207.19254
  0
VERTEX
  10
210.1144
  20
207.18578
  0
VERTEX
  10
211.90237
  20
207.17261
  0
VERTEX
  10
212.83798
  20
207.16571
  0
VERTEX
  10
230.01498
  20
207.03915
  0
VERTEX
  10
240.93044
  20
206.84866
  0
VERTEX
  10
241.56793
  20
206.80324
  0
VERTEX
  10
242.15187
  20
206.75751
  0
VERTEX
  10
242.68817
  20
206.71153
  0
VERTEX
  10
243.18277
  20
206.66537
  0
VERTEX
  10
244.0705
  20
206.57272
  0
VERTEX
  10
244.86246
  20
206.48007
  0
VERTEX
  10
245.60605
  20
206.38786
  0
VERTEX
  10
246.34862
  20
206.29657
  0
VERTEX
  10
247.13759
  20
206.20668
  0
VERTEX
  10
248.02034
  20
206.11867
  0
VERTEX
  10
248.21112
  20
206.31744
  0
VERTEX
  10
248.39671
  20
206.46593
  0
VERTEX
  10
248.57515
  20
206.57924
  0
VERTEX
  10
248.74445
  20
206.67245
  0
VERTEX
  10
249.09248
  20
206.72778
  0
VERTEX
  10
249.45639
  20
206.70255
  0
VERTEX
  10
249.63206
  20
206.65823
  0
VERTEX
  10
249.79703
  20
206.59198
  0
VERTEX
  10
249.94635
  20
206.50323
  0
VERTEX
  10
250.07518
  20
206.39139
  0
VERTEX
  10
250.16675
  20
206.25659
  0
VERTEX
  10
250.23904
  20
206.10184
  0
VERTEX
  10
250.29019
  20
205.93375
  0
VERTEX
  10
250.3183
  20
205.75888
  0
VERTEX
  10
250.32149
  20
205.58383
  0
VERTEX
  10
250.29784
  20
205.41524
  0
VERTEX
  10
250.24545
  20
205.25964
  0
VERTEX
  10
250.16248
  20
205.1237
  0
VERTEX
  10
249.94315
  20
204.90411
  0
VERTEX
  10
249.73273
  20
204.74472
  0
VERTEX
  10
249.52562
  20
204.64166
  0
VERTEX
  10
249.31619
  20
204.59108
  0
VERTEX
  10
249.09885
  20
204.58913
  0
VERTEX
  10
248.86795
  20
204.63193
  0
VERTEX
  10
248.61789
  20
204.71562
  0
VERTEX
  10
248.34309
  20
204.83638
  0
VERTEX
  10
248.20523
  20
204.9494
  0
VERTEX
  10
248.0972
  20
205.07358
  0
VERTEX
  10
248.02342
  20
205.21686
  0
VERTEX
  10
247.98839
  20
205.38721
  0
VERTEX
  10
247.43893
  20
205.35864
  0
VERTEX
  10
246.88934
  20
205.33455
  0
VERTEX
  10
245.96252
  20
205.31451
  0
VERTEX
  10
245.02853
  20
205.25674
  0
VERTEX
  10
244.51018
  20
205.20569
  0
VERTEX
  10
243.93164
  20
205.13557
  0
VERTEX
  10
243.61371
  20
205.09236
  0
VERTEX
  10
243.27344
  20
205.04318
  0
VERTEX
  10
242.90837
  20
204.98761
  0
VERTEX
  10
242.51611
  20
204.92529
  0
VERTEX
  10
242.2514
  20
204.86574
  0
VERTEX
  10
241.91089
  20
204.74516
  0
VERTEX
  10
241.51758
  20
204.55957
  0
VERTEX
  10
241.09442
  20
204.30493
  0
VERTEX
  10
240.89383
  20
204.13866
  0
VERTEX
  10
240.73608
  20
203.94717
  0
VERTEX
  10
240.62338
  20
203.74345
  0
VERTEX
  10
240.55795
  20
203.54048
  0
VERTEX
  10
240.54193
  20
203.35124
  0
VERTEX
  10
240.57758
  20
203.18872
  0
VERTEX
  10
240.66708
  20
203.06589
  0
VERTEX
  10
240.81262
  20
202.99573
  0
VERTEX
  10
241.44469
  20
202.85239
  0
VERTEX
  10
242.04138
  20
202.71674
  0
VERTEX
  10
242.60564
  20
202.58806
  0
VERTEX
  10
243.14035
  20
202.4657
  0
VERTEX
  10
244.13275
  20
202.23715
  0
VERTEX
  10
245.04181
  20
202.0256
  0
VERTEX
  10
246.70277
  20
201.63173
  0
VERTEX
  10
248.30908
  20
201.24033
  0
VERTEX
  10
249.1498
  20
201.03189
  0
VERTEX
  10
250.04651
  20
200.80768
  0
VERTEX
  10
250.52313
  20
200.68796
  0
VERTEX
  10
251.02245
  20
200.56223
  0
VERTEX
  10
251.54739
  20
200.42981
  0
VERTEX
  10
252.10085
  20
200.29005
  0
VERTEX
  10
252.68573
  20
200.14224
  0
VERTEX
  10
253.30493
  20
199.9857
  0
VERTEX
  10
253.96136
  20
199.81975
  0
VERTEX
  10
254.65793
  20
199.64371
  0
VERTEX
  10
255.39752
  20
199.45688
  0
VERTEX
  10
256.18307
  20
199.25862
  0
VERTEX
  10
257.01743
  20
199.0482
  0
VERTEX
  10
257.90353
  20
198.82495
  0
VERTEX
  10
258.40149
  20
198.73859
  0
VERTEX
  10
258.8891
  20
198.7289
  0
VERTEX
  10
259.36349
  20
198.79068
  0
VERTEX
  10
259.82172
  20
198.91873
  0
VERTEX
  10
260.26086
  20
199.10785
  0
VERTEX
  10
260.67804
  20
199.35284
  0
VERTEX
  10
261.07028
  20
199.6485
  0
VERTEX
  10
261.43466
  20
199.98959
  0
VERTEX
  10
261.76828
  20
200.37094
  0
VERTEX
  10
262.06818
  20
200.78735
  0
VERTEX
  10
262.33145
  20
201.23363
  0
VERTEX
  10
262.55518
  20
201.70454
  0
VERTEX
  10
262.73642
  20
202.19492
  0
VERTEX
  10
262.87225
  20
202.69951
  0
VERTEX
  10
262.95978
  20
203.21317
  0
VERTEX
  10
262.99606
  20
203.73065
  0
VERTEX
  10
262.9798
  20
204.24226
  0
VERTEX
  10
262.9133
  20
204.74005
  0
VERTEX
  10
262.79907
  20
205.22144
  0
VERTEX
  10
262.63956
  20
205.68387
  0
VERTEX
  10
262.43723
  20
206.1248
  0
VERTEX
  10
262.19452
  20
206.54166
  0
VERTEX
  10
261.91391
  20
206.93188
  0
VERTEX
  10
261.5979
  20
207.29292
  0
VERTEX
  10
261.24893
  20
207.62221
  0
VERTEX
  10
260.86945
  20
207.91719
  0
VERTEX
  10
260.46194
  20
208.17531
  0
VERTEX
  10
260.0289
  20
208.39398
  0
VERTEX
  10
259.57275
  20
208.57068
  0
VERTEX
  10
259.09595
  20
208.70282
  0
VERTEX
  10
258.60098
  20
208.78784
  0
VERTEX
  10
258.09033
  20
208.8232
  0
VERTEX
  10
240.63579
  20
209.46097
  0
SEQEND
  0
POLYLINE
  62
0
  70
1
  0
VERTEX
  10
260.46194
  20
203.84952
  0
VERTEX
  10
260.4538
  20
204.10338
  0
VERTEX
  10
260.42059
  20
204.35052
  0
VERTEX
  10
260.36359
  20
204.58965
  0
VERTEX
  10
260.28406
  20
204.81949
  0
VERTEX
  10
260.06226
  20
205.24609
  0
VERTEX
  10
259.76508
  20
205.62003
  0
VERTEX
  10
259.4025
  20
205.93095
  0
VERTEX
  10
258.9845
  20
206.16858
  0
VERTEX
  10
258.75778
  20
206.25665
  0
VERTEX
  10
258.52094
  20
206.32254
  0
VERTEX
  10
258.27521
  20
206.36496
  0
VERTEX
  10
258.02182
  20
206.38257
  0
VERTEX
  10
257.76794
  20
206.37442
  0
VERTEX
  10
257.52081
  20
206.34125
  0
VERTEX
  10
257.28168
  20
206.28424
  0
VERTEX
  10
257.05182
  20
206.20468
  0
VERTEX
  10
256.62521
  20
205.98286
  0
VERTEX
  10
256.25128
  20
205.68568
  0
VERTEX
  10
255.94034
  20
205.32312
  0
VERTEX
  10
255.7027
  20
204.90509
  0
VERTEX
  10
255.61459
  20
204.67841
  0
VERTEX
  10
255.54871
  20
204.44156
  0
VERTEX
  10
255.50629
  20
204.19583
  0
VERTEX
  10
255.48868
  20
203.94244
  0
VERTEX
  10
255.49683
  20
203.68858
  0
VERTEX
  10
255.53001
  20
203.44144
  0
VERTEX
  10
255.58701
  20
203.2023
  0
VERTEX
  10
255.66658
  20
202.97244
  0
VERTEX
  10
255.88843
  20
202.54582
  0
VERTEX
  10
256.18561
  20
202.17188
  0
VERTEX
  10
256.54819
  20
201.86093
  0
VERTEX
  10
256.96625
  20
201.62329
  0
VERTEX
  10
257.19296
  20
201.53519
  0
VERTEX
  10
257.42981
  20
201.46931
  0
VERTEX
  10
257.67554
  20
201.42691
  0
VERTEX
  10
257.92889
  20
201.4093
  0
VERTEX
  10
258.18277
  20
201.41745
  0
VERTEX
  10
258.4299
  20
201.45064
  0
VERTEX
  10
258.66904
  20
201.50763
  0
VERTEX
  10
258.89886
  20
201.5872
  0
VERTEX
  10
259.32547
  20
201.80905
  0
VERTEX
  10
259.6994
  20
202.10623
  0
VERTEX
  10
260.01035
  20
202.46881
  0
VERTEX
  10
260.24796
  20
202.88686
  0
VERTEX
  10
260.33603
  20
203.11356
  0
VERTEX
  10
260.40192
  20
203.3504
  0
VERTEX
  10
260.44434
  20
203.59613
  0
VERTEX
  10
260.46194
  20
203.84952
  0
SEQEND
  0
ENDSEC
  0
EOF
