  0
SECTION
  2
HEADER
  9
$ACADVER
  1
AC1014
  9
$HANDSEED
  5
FFFF
  9
$MEASUREMENT
 70
     1
  0
ENDSEC
  0
SECTION
  2
TABLES
  0
TABLE
  2
VPORT
  5
8
330
0
100
AcDbSymbolTable
 70
     4
  0
VPORT
  5
2E
330
8
100
AcDbSymbolTableRecord
100
AcDbViewportTableRecord
  2
*ACTIVE
 70
     0
 10
0.0
 20
0.0
 11
1.0
 21
1.0
 12
210.0
 22
148.5
 13
0.0
 23
0.0
 14
10.0
 24
10.0
 15
10.0
 25
10.0
 16
0.0
 26
0.0
 36
1.0
 17
0.0
 27
0.0
 37
0.0
 40
341.0
 41
1.24
 42
50.0
 43
0.0
 44
0.0
 50
0.0
 51
0.0
 71
     0
 72
   100
 73
     1
 74
     3
 75
     0
 76
     0
 77
     0
 78
     0
  0
ENDTAB
  0
TABLE
  2
LTYPE
  5
5
330
0
100
AcDbSymbolTable
 70
     1
  0
LTYPE
  5
14
330
5
100
AcDbSymbolTableRecord
100
AcDbLinetypeTableRecord
  2
BYBLOCK
 70
     0
  3

 72
    65
 73
     0
 40
0.0
  0
LTYPE
  5
15
330
5
100
AcDbSymbolTableRecord
100
AcDbLinetypeTableRecord
  2
BYLAYER
 70
     0
  3

 72
    65
 73
     0
 40
0.0
  0
LTYPE
  5
16
330
5
100
AcDbSymbolTableRecord
100
AcDbLinetypeTableRecord
  2
CONTINUOUS
 70
     0
  3
Solid line
 72
    65
 73
     0
 40
0.0
  0
ENDTAB
  0
TABLE
  2
LAYER
  5
2
100
AcDbSymbolTable
 70
2
  0
LAYER
  5
50
100
AcDbSymbolTableRecord
100
AcDbLayerTableRecord
  2
0
 70
0
  6
CONTINUOUS
  0
LAYER
  5
51
100
AcDbSymbolTableRecord
100
AcDbLayerTableRecord
  2
Layer_1
 70
0
  6
CONTINUOUS
  0
ENDTAB
  0
TABLE
  2
STYLE
  5
3
330
0
100
AcDbSymbolTable
 70
     1
  0
STYLE
  5
11
330
3
100
AcDbSymbolTableRecord
100
AcDbTextStyleTableRecord
  2
STANDARD
 70
     0
 40
0.0
 41
1.0
 50
0.0
 71
     0
 42
2.5
  3
txt
  4

  0
ENDTAB
  0
TABLE
  2
VIEW
  5
6
330
0
100
AcDbSymbolTable
 70
     0
  0
ENDTAB
  0
TABLE
  2
UCS
  5
7
330
0
100
AcDbSymbolTable
 70
     0
  0
ENDTAB
  0
TABLE
  2
APPID
  5
9
330
0
100
AcDbSymbolTable
 70
     2
  0
APPID
  5
12
330
9
100
AcDbSymbolTableRecord
100
AcDbRegAppTableRecord
  2
ACAD
 70
     0
  0
ENDTAB
  0
TABLE
  2
DIMSTYLE
  5
A
330
0
100
AcDbSymbolTable
 70
     1
  0
DIMSTYLE
105
27
330
A
100
AcDbSymbolTableRecord
100
AcDbDimStyleTableRecord
  2
ISO-25
 70
     0
  3

  4

  5

  6

  7

 40
1.0
 41
2.5
 42
0.625
 43
3.75
 44
1.25
 45
0.0
 46
0.0
 47
0.0
 48
0.0
140
2.5
141
2.5
142
0.0
143
0.03937007874016
144
1.0
145
0.0
146
1.0
147
0.625
 71
     0
 72
     0
 73
     0
 74
     0
 75
     0
 76
     0
 77
     1
 78
     8
170
     0
171
     3
172
     1
173
     0
174
     0
175
     0
176
     0
177
     0
178
     0
270
     2
271
     2
272
     2
273
     2
274
     3
340
11
275
     0
280
     0
281
     0
282
     0
283
     0
284
     8
285
     0
286
     0
287
     3
288
     0
  0
ENDTAB
  0
TABLE
  2
BLOCK_RECORD
  5
1
330
0
100
AcDbSymbolTable
 70
     1
  0
BLOCK_RECORD
  5
1F
330
1
100
AcDbSymbolTableRecord
100
AcDbBlockTableRecord
  2
*MODEL_SPACE
  0
BLOCK_RECORD
  5
1B
330
1
100
AcDbSymbolTableRecord
100
AcDbBlockTableRecord
  2
*PAPER_SPACE
  0
ENDTAB
  0
ENDSEC
  0
SECTION
  2
BLOCKS
  0
BLOCK
  5
20
330
1F
100
AcDbEntity
  8
0
100
AcDbBlockBegin
  2
*MODEL_SPACE
 70
     0
 10
0.0
 20
0.0
 30
0.0
  3
*MODEL_SPACE
  1

  0
ENDBLK
  5
21
330
1F
100
AcDbEntity
  8
0
100
AcDbBlockEnd
  0
BLOCK
  5
1C
330
1B
100
AcDbEntity
 67
     1
  8
0
100
AcDbBlockBegin
  2
*PAPER_SPACE
  1

  0
ENDBLK
  5
1D
330
1B
100
AcDbEntity
 67
     1
  8
0
100
AcDbBlockEnd
  0
ENDSEC
  0
SECTION
  2
ENTITIES
  0
SPLINE
  5
100
100
AcDbEntity
  8
Layer_1
 62
6
100
AcDbSpline
 70
0
 71
3
 72
10
 73
6
 74
4
 40
0.000000
 40
0.000000
 40
0.000000
 40
0.000000
 40
2.738357
 40
5.483083
 40
8.235854
 40
8.235854
 40
8.235854
 40
8.235854
 10
362.405663
 20
618.514544
 30
0.0
 10
361.898817
 20
619.273826
 30
0.0
 10
360.883947
 20
620.794155
 30
0.0
 10
359.499274
 20
623.167360
 30
0.0
 10
358.673665
 20
624.803623
 30
0.0
 10
358.260257
 20
625.622951
 30
0.0
 11
362.405663
 21
618.514544
 31
0.0
 11
360.908325
 21
620.807267
 31
0.0
 11
359.525222
 21
623.178036
 31
0.0
 11
358.260257
 21
625.622951
 31
0.0
  0
SPLINE
  5
101
100
AcDbEntity
  8
Layer_1
 62
6
100
AcDbSpline
 70
0
 71
3
 72
13
 73
9
 74
7
 40
0.000000
 40
0.000000
 40
0.000000
 40
0.000000
 40
1.472959
 40
2.954211
 40
4.444296
 40
5.738984
 40
7.026952
 40
8.308555
 40
8.308555
 40
8.308555
 40
8.308555
 10
353.006067
 20
644.902397
 30
0.0
 10
352.970319
 20
645.392110
 30
0.0
 10
352.898621
 20
646.374294
 30
0.0
 10
352.841218
 20
647.854879
 30
0.0
 10
352.821404
 20
649.276897
 30
0.0
 10
352.837848
 20
650.634483
 30
0.0
 10
352.881227
 20
651.922014
 30
0.0
 10
352.935396
 20
652.776862
 30
0.0
 10
352.962413
 20
653.203228
 30
0.0
 11
353.006067
 21
644.902397
 31
0.0
 11
352.907160
 21
646.372032
 31
0.0
 11
352.847440
 21
647.852079
 31
0.0
 11
352.827419
 21
649.342029
 31
0.0
 11
352.842540
 21
650.636629
 31
0.0
 11
352.887661
 21
651.923807
 31
0.0
 11
352.962413
 21
653.203228
 31
0.0
  0
SPLINE
  5
102
100
AcDbEntity
  8
Layer_1
 62
6
100
AcDbSpline
 70
0
 71
3
 72
10
 73
6
 74
4
 40
0.000000
 40
0.000000
 40
0.000000
 40
0.000000
 40
2.843591
 40
5.678213
 40
8.505746
 40
8.505746
 40
8.505746
 40
8.505746
 10
357.971347
 20
672.456633
 30
0.0
 10
358.388323
 20
673.308010
 30
0.0
 10
359.220961
 20
675.008079
 30
0.0
 10
360.626927
 20
677.473136
 30
0.0
 10
361.662620
 20
679.051294
 30
0.0
 10
362.179817
 20
679.839385
 30
0.0
 11
357.971347
 21
672.456633
 31
0.0
 11
359.248847
 21
674.997106
 31
0.0
 11
360.653102
 21
677.459452
 31
0.0
 11
362.179817
 21
679.839385
 31
0.0
  0
SPLINE
  5
103
100
AcDbEntity
  8
Layer_1
 62
6
100
AcDbSpline
 70
0
 71
3
 72
10
 73
6
 74
4
 40
0.000000
 40
0.000000
 40
0.000000
 40
0.000000
 40
2.980357
 40
5.967877
 40
8.964688
 40
8.964688
 40
8.964688
 40
8.964688
 10
375.705302
 20
693.667999
 30
0.0
 10
376.524151
 20
694.230801
 30
0.0
 10
378.163818
 20
695.357760
 30
0.0
 10
380.734933
 20
696.886448
 30
0.0
 10
382.513562
 20
697.790287
 30
0.0
 10
383.404257
 20
698.242908
 30
0.0
 11
375.705302
 21
693.667999
 31
0.0
 11
378.179794
 21
695.329149
 31
0.0
 11
380.747793
 21
696.855797
 31
0.0
 11
383.404257
 21
698.242908
 31
0.0
  0
SPLINE
  5
104
100
AcDbEntity
  8
Layer_1
 62
6
100
AcDbSpline
 70
0
 71
3
 72
13
 73
9
 74
7
 40
0.000000
 40
0.000000
 40
0.000000
 40
0.000000
 40
1.348736
 40
2.704485
 40
4.067662
 40
5.491941
 40
6.908129
 40
8.316700
 40
8.316700
 40
8.316700
 40
8.316700
 10
403.132861
 20
703.561955
 30
0.0
 10
403.581464
 20
703.591901
 30
0.0
 10
404.481003
 20
703.651948
 30
0.0
 10
405.836243
 20
703.700007
 30
0.0
 10
407.217318
 20
703.717605
 30
0.0
 10
408.618541
 20
703.698959
 30
0.0
 10
410.034149
 20
703.646525
 30
0.0
 10
410.973503
 20
703.580971
 30
0.0
 10
411.441914
 20
703.548283
 30
0.0
 11
403.132861
 21
703.561955
 31
0.0
 11
404.479050
 21
703.644805
 31
0.0
 11
405.833877
 21
703.694804
 31
0.0
 11
407.196951
 21
703.711557
 31
0.0
 11
408.621112
 21
703.693278
 31
0.0
 11
410.036249
 21
703.638716
 31
0.0
 11
411.441914
 21
703.548283
 31
0.0
  0
SPLINE
  5
105
100
AcDbEntity
  8
Layer_1
 62
6
100
AcDbSpline
 70
0
 71
3
 72
10
 73
6
 74
4
 40
0.000000
 40
0.000000
 40
0.000000
 40
0.000000
 40
2.735974
 40
5.463928
 40
8.185511
 40
8.185511
 40
8.185511
 40
8.185511
 10
430.820054
 20
698.325208
 30
0.0
 10
431.635228
 20
697.916004
 30
0.0
 10
433.263187
 20
697.098796
 30
0.0
 10
435.625193
 20
695.728327
 30
0.0
 10
437.139024
 20
694.723883
 30
0.0
 10
437.895055
 20
694.222248
 30
0.0
 11
430.820054
 21
698.325208
 31
0.0
 11
433.252716
 21
697.073126
 31
0.0
 11
435.612326
 21
695.704194
 31
0.0
 11
437.895055
 21
694.222248
 31
0.0
  0
SPLINE
  5
106
100
AcDbEntity
  8
Layer_1
 62
6
100
AcDbSpline
 70
0
 71
3
 72
10
 73
6
 74
4
 40
0.000000
 40
0.000000
 40
0.000000
 40
0.000000
 40
3.061519
 40
6.131068
 40
9.211003
 40
9.211003
 40
9.211003
 40
9.211003
 10
451.853032
 20
680.364665
 30
0.0
 10
452.421900
 20
679.517215
 30
0.0
 10
453.561128
 20
677.820092
 30
0.0
 10
455.097957
 20
675.158287
 30
0.0
 10
455.999820
 20
673.317119
 30
0.0
 10
456.451513
 20
672.394979
 30
0.0
 11
451.853032
 21
680.364665
 31
0.0
 11
453.530643
 21
677.803703
 31
0.0
 11
455.065288
 21
675.145322
 31
0.0
 11
456.451513
 21
672.394979
 31
0.0
  0
SPLINE
  5
107
100
AcDbEntity
  8
Layer_1
 62
6
100
AcDbSpline
 70
0
 71
3
 72
13
 73
9
 74
7
 40
0.000000
 40
0.000000
 40
0.000000
 40
0.000000
 40
1.176152
 40
2.357699
 40
3.544916
 40
4.816365
 40
6.081332
 40
7.340155
 40
7.340155
 40
7.340155
 40
7.340155
 10
461.452922
 20
652.884583
 30
0.0
 10
461.475670
 20
652.493177
 30
0.0
 10
461.521269
 20
651.708571
 30
0.0
 10
461.557726
 20
650.527360
 30
0.0
 10
461.571185
 20
649.313951
 30
0.0
 10
461.556440
 20
648.072734
 30
0.0
 10
461.514635
 20
646.808180
 30
0.0
 10
461.462355
 20
645.968505
 30
0.0
 10
461.436278
 20
645.549690
 30
0.0
 11
461.452922
 21
652.884583
 31
0.0
 11
461.515851
 21
651.710115
 31
0.0
 11
461.553785
 21
650.529178
 31
0.0
 11
461.566484
 21
649.342029
 31
0.0
 11
461.551918
 21
648.070663
 31
0.0
 11
461.508417
 21
646.806444
 31
0.0
 11
461.436278
 21
645.549690
 31
0.0
  0
SPLINE
  5
108
100
AcDbEntity
  8
Layer_1
 62
6
100
AcDbSpline
 70
0
 71
3
 72
10
 73
6
 74
4
 40
0.000000
 40
0.000000
 40
0.000000
 40
0.000000
 40
2.627839
 40
5.248327
 40
7.862924
 40
7.862924
 40
7.862924
 40
7.862924
 10
456.098250
 20
625.550190
 30
0.0
 10
455.702983
 20
624.768372
 30
0.0
 10
454.913553
 20
623.206922
 30
0.0
 10
453.596115
 20
620.938766
 30
0.0
 10
452.633961
 20
619.482700
 30
0.0
 10
452.153425
 20
618.755487
 30
0.0
 11
456.098250
 21
625.550190
 31
0.0
 11
454.889902
 21
623.216645
 31
0.0
 11
453.573827
 21
620.950612
 31
0.0
 11
452.153425
 21
618.755487
 31
0.0
  0
SPLINE
  5
109
100
AcDbEntity
  8
Layer_1
 62
6
100
AcDbSpline
 70
0
 71
3
 72
10
 73
6
 74
4
 40
0.000000
 40
0.000000
 40
0.000000
 40
0.000000
 40
2.871003
 40
5.749163
 40
8.636430
 40
8.636430
 40
8.636430
 40
8.636430
 10
437.931313
 20
604.486668
 30
0.0
 10
437.133754
 20
603.957497
 30
0.0
 10
435.536649
 20
602.897837
 30
0.0
 10
433.039497
 20
601.460024
 30
0.0
 10
431.315959
 20
600.609202
 30
0.0
 10
430.452829
 20
600.183119
 30
0.0
 11
437.931313
 21
604.486668
 31
0.0
 11
435.522373
 21
602.924724
 31
0.0
 11
433.028047
 21
601.488709
 31
0.0
 11
430.452829
 21
600.183119
 31
0.0
  0
SPLINE
  5
10a
100
AcDbEntity
  8
Layer_1
 62
6
100
AcDbSpline
 70
0
 71
3
 72
13
 73
9
 74
7
 40
0.000000
 40
0.000000
 40
0.000000
 40
0.000000
 40
1.394952
 40
2.797379
 40
4.207744
 40
5.572813
 40
6.930432
 40
8.281019
 40
8.281019
 40
8.281019
 40
8.281019
 10
411.400740
 20
595.132592
 30
0.0
 10
410.936836
 20
595.100542
 30
0.0
 10
410.006543
 20
595.036272
 30
0.0
 10
408.604678
 20
594.984848
 30
0.0
 10
407.212050
 20
594.966490
 30
0.0
 10
405.834359
 20
594.984077
 30
0.0
 10
404.477252
 20
595.032281
 30
0.0
 10
403.576480
 20
595.092487
 30
0.0
 10
403.127263
 20
595.122511
 30
0.0
 11
411.400740
 21
595.132592
 31
0.0
 11
410.008608
 21
595.043925
 31
0.0
 11
408.607202
 21
594.990418
 31
0.0
 11
407.196951
 21
594.972490
 31
0.0
 11
405.831986
 21
594.989296
 31
0.0
 11
404.475293
 21
595.039440
 31
0.0
 11
403.127263
 21
595.122511
 31
0.0
  0
LWPOLYLINE
  5
10b
100
AcDbEntity
  8
Layer_1
 62
6
100
AcDbPolyline
 90
2
 70
0
 10
411.398404
 20
723.536196
 30
0.0
 10
411.398404
 20
703.387204
 30
0.0
  0
LWPOLYLINE
  5
10c
100
AcDbEntity
  8
Layer_1
 62
6
100
AcDbPolyline
 90
2
 70
0
 10
411.398404
 20
595.046692
 30
0.0
 10
411.398404
 20
575.041692
 30
0.0
  0
LWPOLYLINE
  5
10d
100
AcDbEntity
  8
Layer_1
 62
6
100
AcDbPolyline
 90
2
 70
0
 10
403.002244
 20
575.041692
 30
0.0
 10
403.002244
 20
594.714356
 30
0.0
  0
LWPOLYLINE
  5
10e
100
AcDbEntity
  8
Layer_1
 62
6
100
AcDbPolyline
 90
2
 70
0
 10
403.002244
 20
703.387204
 30
0.0
 10
403.002244
 20
723.536196
 30
0.0
  0
LWPOLYLINE
  5
10f
100
AcDbEntity
  8
Layer_1
 62
6
100
AcDbPolyline
 90
2
 70
0
 10
373.712344
 20
715.687986
 30
0.0
 10
383.587004
 20
698.584573
 30
0.0
  0
LWPOLYLINE
  5
110
100
AcDbEntity
  8
Layer_1
 62
6
100
AcDbPolyline
 90
2
 70
0
 10
437.832236
 20
604.629075
 30
0.0
 10
447.959600
 20
587.087966
 30
0.0
  0
LWPOLYLINE
  5
111
100
AcDbEntity
  8
Layer_1
 62
6
100
AcDbPolyline
 90
2
 70
0
 10
440.688306
 20
582.889882
 30
0.0
 10
430.543046
 20
600.461988
 30
0.0
  0
LWPOLYLINE
  5
112
100
AcDbEntity
  8
Layer_1
 62
6
100
AcDbPolyline
 90
2
 70
0
 10
376.502538
 20
694.062893
 30
0.0
 10
366.441050
 20
711.489902
 30
0.0
  0
LWPOLYLINE
  5
113
100
AcDbEntity
  8
Layer_1
 62
6
100
AcDbPolyline
 90
2
 70
0
 10
344.999340
 20
690.048219
 30
0.0
 10
362.518840
 20
679.933331
 30
0.0
  0
LWPOLYLINE
  5
114
100
AcDbEntity
  8
Layer_1
 62
6
100
AcDbPolyline
 90
2
 70
0
 10
456.225088
 20
625.832003
 30
0.0
 10
473.599359
 20
615.800963
 30
0.0
  0
LWPOLYLINE
  5
115
100
AcDbEntity
  8
Layer_1
 62
6
100
AcDbPolyline
 90
2
 70
0
 10
469.401277
 20
608.529672
 30
0.0
 10
451.847310
 20
618.664460
 30
0.0
  0
LWPOLYLINE
  5
116
100
AcDbEntity
  8
Layer_1
 62
6
100
AcDbPolyline
 90
2
 70
0
 10
357.958600
 20
672.871132
 30
0.0
 10
340.801258
 20
682.776928
 30
0.0
  0
LWPOLYLINE
  5
117
100
AcDbEntity
  8
Layer_1
 62
6
100
AcDbPolyline
 90
2
 70
0
 10
461.280316
 20
653.487028
 30
0.0
 10
481.447580
 20
653.487028
 30
0.0
  0
LWPOLYLINE
  5
118
100
AcDbEntity
  8
Layer_1
 62
6
100
AcDbPolyline
 90
2
 70
0
 10
481.447580
 20
645.090860
 30
0.0
 10
460.947980
 20
645.090860
 30
0.0
  0
LWPOLYLINE
  5
119
100
AcDbEntity
  8
Layer_1
 62
6
100
AcDbPolyline
 90
2
 70
0
 10
352.275132
 20
645.090860
 30
0.0
 10
332.953068
 20
645.090860
 30
0.0
  0
LWPOLYLINE
  5
11a
100
AcDbEntity
  8
Layer_1
 62
6
100
AcDbPolyline
 90
2
 70
0
 10
332.953068
 20
653.487028
 30
0.0
 10
353.272132
 20
653.487028
 30
0.0
  0
LWPOLYLINE
  5
11b
100
AcDbEntity
  8
Layer_1
 62
6
100
AcDbPolyline
 90
2
 70
0
 10
362.024785
 20
618.359289
 30
0.0
 10
344.999363
 20
608.529657
 30
0.0
  0
LWPOLYLINE
  5
11c
100
AcDbEntity
  8
Layer_1
 62
6
100
AcDbPolyline
 90
2
 70
0
 10
340.801279
 20
615.800952
 30
0.0
 10
357.608449
 20
625.504576
 30
0.0
  0
LWPOLYLINE
  5
11d
100
AcDbEntity
  8
Layer_1
 62
6
100
AcDbPolyline
 90
2
 70
0
 10
451.497158
 20
679.711248
 30
0.0
 10
469.401291
 20
690.048204
 30
0.0
  0
LWPOLYLINE
  5
11e
100
AcDbEntity
  8
Layer_1
 62
6
100
AcDbPolyline
 90
2
 70
0
 10
473.599375
 20
682.776909
 30
0.0
 10
456.057400
 20
672.649045
 30
0.0
  0
LWPOLYLINE
  5
11f
100
AcDbEntity
  8
Layer_1
 62
6
100
AcDbPolyline
 90
2
 70
0
 10
384.039438
 20
600.776981
 30
0.0
 10
373.712326
 20
582.889898
 30
0.0
  0
LWPOLYLINE
  5
120
100
AcDbEntity
  8
Layer_1
 62
6
100
AcDbPolyline
 90
2
 70
0
 10
366.441038
 20
587.087978
 30
0.0
 10
376.440182
 20
604.407003
 30
0.0
  0
LWPOLYLINE
  5
121
100
AcDbEntity
  8
Layer_1
 62
6
100
AcDbPolyline
 90
2
 70
0
 10
430.336785
 20
697.758658
 30
0.0
 10
440.688291
 20
715.687991
 30
0.0
  0
SPLINE
  5
122
100
AcDbEntity
  8
Layer_1
 62
6
100
AcDbSpline
 70
0
 71
3
 72
10
 73
6
 74
4
 40
0.000000
 40
0.000000
 40
0.000000
 40
0.000000
 40
2.862699
 40
5.716457
 40
8.563175
 40
8.563175
 40
8.563175
 40
8.563175
 10
383.903347
 20
600.201003
 30
0.0
 10
383.047833
 20
600.624004
 30
0.0
 10
381.339477
 20
601.468686
 30
0.0
 10
378.863677
 20
602.894510
 30
0.0
 10
377.279632
 20
603.944488
 30
0.0
 10
376.488588
 20
604.468828
 30
0.0
 11
383.903347
 21
600.201003
 31
0.0
 11
381.350750
 21
601.496877
 31
0.0
 11
378.877703
 21
602.920948
 31
0.0
 11
376.488588
 21
604.468828
 31
0.0
  0
SPLINE
  5
123
100
AcDbEntity
  8
Layer_1
 62
6
100
AcDbSpline
 70
0
 71
3
 72
10
 73
6
 74
4
 40
0.000000
 40
0.000000
 40
0.000000
 40
0.000000
 40
9.855101
 40
19.852726
 40
30.062226
 40
30.062226
 40
30.062226
 40
30.062226
 10
340.769188
 20
616.383405
 30
0.0
 10
339.424570
 20
619.384093
 30
0.0
 10
336.715888
 20
625.428866
 30
0.0
 10
334.128969
 20
635.173564
 30
0.0
 10
333.490667
 20
641.886065
 30
0.0
 10
333.168170
 20
645.277506
 30
0.0
 11
340.769188
 21
616.383405
 31
0.0
 11
336.981834
 21
625.481700
 31
0.0
 11
334.416603
 21
635.144624
 31
0.0
 11
333.168170
 21
645.277506
 31
0.0
  0
SPLINE
  5
124
100
AcDbEntity
  8
Layer_1
 62
6
100
AcDbSpline
 70
0
 71
3
 72
10
 73
6
 74
4
 40
0.000000
 40
0.000000
 40
0.000000
 40
0.000000
 40
10.030854
 40
19.858775
 40
29.549404
 40
29.549404
 40
29.549404
 40
29.549404
 10
333.192549
 20
653.835747
 30
0.0
 10
333.526255
 20
657.166077
 30
0.0
 10
334.186915
 20
663.759361
 30
0.0
 10
336.750814
 20
673.330107
 30
0.0
 10
339.411007
 20
679.274195
 30
0.0
 10
340.731748
 20
682.225334
 30
0.0
 11
333.192549
 21
653.835747
 31
0.0
 11
334.464726
 21
663.785600
 31
0.0
 11
337.007797
 21
673.278799
 31
0.0
 11
340.731748
 21
682.225334
 31
0.0
  0
SPLINE
  5
125
100
AcDbEntity
  8
Layer_1
 62
6
100
AcDbSpline
 70
0
 71
3
 72
10
 73
6
 74
4
 40
0.000000
 40
0.000000
 40
0.000000
 40
0.000000
 40
10.160045
 40
20.302285
 40
30.462251
 40
30.462251
 40
30.462251
 40
30.462251
 10
345.161425
 20
689.954054
 30
0.0
 10
347.135559
 20
692.710048
 30
0.0
 10
351.080368
 20
698.217206
 30
0.0
 10
358.303581
 20
705.442722
 30
0.0
 10
363.809441
 20
709.389296
 30
0.0
 10
366.564774
 20
711.364306
 30
0.0
 11
345.161425
 21
689.954054
 31
0.0
 11
351.301527
 21
698.048847
 31
0.0
 11
358.472025
 21
705.221641
 31
0.0
 11
366.564774
 21
711.364306
 31
0.0
  0
SPLINE
  5
126
100
AcDbEntity
  8
Layer_1
 62
6
100
AcDbSpline
 70
0
 71
3
 72
10
 73
6
 74
4
 40
0.000000
 40
0.000000
 40
0.000000
 40
0.000000
 40
9.818119
 40
19.776177
 40
29.942313
 40
29.942313
 40
29.942313
 40
29.942313
 10
374.037540
 20
715.669621
 30
0.0
 10
377.022654
 20
717.018718
 30
0.0
 10
383.035428
 20
719.736141
 30
0.0
 10
392.730861
 20
722.349782
 30
0.0
 10
399.412861
 20
723.015239
 30
0.0
 10
402.788406
 20
723.351408
 30
0.0
 11
374.037540
 21
715.669621
 31
0.0
 11
383.089209
 21
719.472613
 31
0.0
 11
392.704060
 21
722.064439
 31
0.0
 11
402.788406
 21
723.351408
 31
0.0
  0
SPLINE
  5
127
100
AcDbEntity
  8
Layer_1
 62
6
100
AcDbSpline
 70
0
 71
3
 72
10
 73
6
 74
4
 40
0.000000
 40
0.000000
 40
0.000000
 40
0.000000
 40
10.001601
 40
19.801727
 40
29.465425
 40
29.465425
 40
29.465425
 40
29.465425
 10
411.763547
 20
723.342364
 30
0.0
 10
415.083856
 20
723.006761
 30
0.0
 10
421.657589
 20
722.342315
 30
0.0
 10
431.199781
 20
719.781915
 30
0.0
 10
437.127283
 20
717.129442
 30
0.0
 10
440.070259
 20
715.812502
 30
0.0
 11
411.763547
 21
723.342364
 31
0.0
 11
421.683383
 21
722.066097
 31
0.0
 11
431.148707
 21
719.526389
 31
0.0
 11
440.070259
 21
715.812502
 31
0.0
  0
SPLINE
  5
128
100
AcDbEntity
  8
Layer_1
 62
6
100
AcDbSpline
 70
0
 71
3
 72
10
 73
6
 74
4
 40
0.000000
 40
0.000000
 40
0.000000
 40
0.000000
 40
10.176560
 40
20.334871
 40
30.510638
 40
30.510638
 40
30.510638
 40
30.510638
 10
447.704857
 20
711.446025
 30
0.0
 10
450.468513
 20
709.473112
 30
0.0
 10
455.990869
 20
705.530823
 30
0.0
 10
463.237665
 20
698.305671
 30
0.0
 10
467.196421
 20
692.795440
 30
0.0
 10
469.177499
 20
690.037959
 30
0.0
 11
447.704857
 21
711.446025
 31
0.0
 11
455.822395
 21
705.308602
 31
0.0
 11
463.016159
 21
698.136361
 31
0.0
 11
469.177499
 21
690.037959
 31
0.0
  0
SPLINE
  5
129
100
AcDbEntity
  8
Layer_1
 62
6
100
AcDbSpline
 70
0
 71
3
 72
10
 73
6
 74
4
 40
0.000000
 40
0.000000
 40
0.000000
 40
0.000000
 40
10.066824
 40
20.280875
 40
30.715895
 40
30.715895
 40
30.715895
 40
30.715895
 10
473.413070
 20
682.723276
 30
0.0
 10
474.803612
 20
679.665659
 30
0.0
 10
477.605032
 20
673.505709
 30
0.0
 10
480.269457
 20
663.551945
 30
0.0
 10
480.911074
 20
656.691300
 30
0.0
 10
481.235316
 20
653.224269
 30
0.0
 11
473.413070
 21
682.723276
 31
0.0
 11
477.327921
 21
673.448855
 31
0.0
 11
479.969015
 21
663.582170
 31
0.0
 11
481.235316
 21
653.224269
 31
0.0
  0
SPLINE
  5
12a
100
AcDbEntity
  8
Layer_1
 62
6
100
AcDbSpline
 70
0
 71
3
 72
10
 73
6
 74
4
 40
0.000000
 40
0.000000
 40
0.000000
 40
0.000000
 40
10.097541
 40
19.989711
 40
29.743359
 40
29.743359
 40
29.743359
 40
29.743359
 10
481.202955
 20
644.876430
 30
0.0
 10
480.867383
 20
641.523877
 30
0.0
 10
480.203065
 20
634.886957
 30
0.0
 10
477.612788
 20
625.255155
 30
0.0
 10
474.923240
 20
619.277613
 30
0.0
 10
473.587948
 20
616.309915
 30
0.0
 11
481.202955
 21
644.876430
 31
0.0
 11
479.921547
 21
634.860527
 31
0.0
 11
477.352601
 21
625.307750
 31
0.0
 11
473.587948
 21
616.309915
 31
0.0
  0
SPLINE
  5
12b
100
AcDbEntity
  8
Layer_1
 62
6
100
AcDbSpline
 70
0
 71
3
 72
10
 73
6
 74
4
 40
0.000000
 40
0.000000
 40
0.000000
 40
0.000000
 40
10.093413
 40
20.170082
 40
30.264840
 40
30.264840
 40
30.264840
 40
30.264840
 10
469.065136
 20
608.476492
 30
0.0
 10
467.093532
 20
605.746122
 30
0.0
 10
463.153593
 20
600.289912
 30
0.0
 10
455.958156
 20
593.131439
 30
0.0
 10
450.481209
 20
589.219593
 30
0.0
 10
447.740280
 20
587.261917
 30
0.0
 11
469.065136
 21
608.476492
 31
0.0
 11
462.936097
 21
600.457024
 31
0.0
 11
455.792460
 21
593.350146
 31
0.0
 11
447.740280
 21
587.261917
 31
0.0
  0
SPLINE
  5
12c
100
AcDbEntity
  8
Layer_1
 62
6
100
AcDbSpline
 70
0
 71
3
 72
10
 73
6
 74
4
 40
0.000000
 40
0.000000
 40
0.000000
 40
0.000000
 40
9.909547
 40
19.959555
 40
30.219610
 40
30.219610
 40
30.219610
 40
30.219610
 10
440.766724
 20
583.221986
 30
0.0
 10
437.761796
 20
581.842660
 30
0.0
 10
431.709348
 20
579.064457
 30
0.0
 10
421.934687
 20
576.383397
 30
0.0
 10
415.192754
 20
575.692752
 30
0.0
 10
411.786925
 20
575.343859
 30
0.0
 11
440.766724
 21
583.221986
 31
0.0
 11
431.652467
 21
579.332327
 31
0.0
 11
421.960375
 21
576.674127
 31
0.0
 11
411.786925
 21
575.343859
 31
0.0
  0
SPLINE
  5
12d
100
AcDbEntity
  8
Layer_1
 62
6
100
AcDbSpline
 70
0
 71
3
 72
10
 73
6
 74
4
 40
0.000000
 40
0.000000
 40
0.000000
 40
0.000000
 40
10.108593
 40
20.013274
 40
29.780745
 40
29.780745
 40
29.780745
 40
29.780745
 10
402.452392
 20
575.352902
 30
0.0
 10
399.097459
 20
575.701586
 30
0.0
 10
392.455268
 20
576.391922
 30
0.0
 10
382.821754
 20
579.024422
 30
0.0
 10
376.847655
 20
581.742928
 30
0.0
 10
373.881440
 20
583.092700
 30
0.0
 11
402.452392
 21
575.352902
 31
0.0
 11
392.430521
 21
576.674169
 31
0.0
 11
382.876101
 21
579.284870
 31
0.0
 11
373.881440
 21
583.092700
 31
0.0
  0
LWPOLYLINE
  5
12e
100
AcDbEntity
  8
Layer_1
 62
6
100
AcDbPolyline
 90
2
 70
0
 10
447.959578
 20
711.489911
 30
0.0
 10
437.936039
 20
694.128632
 30
0.0
  0
SPLINE
  5
12f
100
AcDbEntity
  8
Layer_1
 62
6
100
AcDbSpline
 70
0
 71
3
 72
10
 73
6
 74
4
 40
0.000000
 40
0.000000
 40
0.000000
 40
0.000000
 40
10.173654
 40
20.328731
 40
30.500898
 40
30.500898
 40
30.500898
 40
30.500898
 10
366.767311
 20
587.187115
 30
0.0
 10
364.001943
 20
589.155955
 30
0.0
 10
358.476257
 20
593.090039
 30
0.0
 10
351.222331
 20
600.303343
 30
0.0
 10
347.257340
 20
605.806272
 30
0.0
 10
345.273178
 20
608.560049
 30
0.0
 11
366.767311
 21
587.187115
 31
0.0
 11
358.644267
 21
593.312422
 31
0.0
 11
351.443372
 21
600.472919
 31
0.0
 11
345.273178
 21
608.560049
 31
0.0
  0
SPLINE
  5
130
100
AcDbEntity
  8
Layer_1
 62
5
100
AcDbSpline
 70
0
 71
3
 72
10
 73
6
 74
4
 40
0.000000
 40
0.000000
 40
0.000000
 40
0.000000
 40
2.738357
 40
5.483083
 40
8.235854
 40
8.235854
 40
8.235854
 40
8.235854
 10
313.796059
 20
391.535984
 30
0.0
 10
313.289213
 20
392.295266
 30
0.0
 10
312.274343
 20
393.815595
 30
0.0
 10
310.889670
 20
396.188800
 30
0.0
 10
310.064061
 20
397.825063
 30
0.0
 10
309.650653
 20
398.644391
 30
0.0
 11
313.796059
 21
391.535984
 31
0.0
 11
312.298721
 21
393.828707
 31
0.0
 11
310.915618
 21
396.199476
 31
0.0
 11
309.650653
 21
398.644391
 31
0.0
  0
SPLINE
  5
131
100
AcDbEntity
  8
Layer_1
 62
5
100
AcDbSpline
 70
0
 71
3
 72
13
 73
9
 74
7
 40
0.000000
 40
0.000000
 40
0.000000
 40
0.000000
 40
1.472959
 40
2.954211
 40
4.444296
 40
5.738984
 40
7.026952
 40
8.308555
 40
8.308555
 40
8.308555
 40
8.308555
 10
304.396463
 20
417.923837
 30
0.0
 10
304.360715
 20
418.413550
 30
0.0
 10
304.289017
 20
419.395734
 30
0.0
 10
304.231614
 20
420.876319
 30
0.0
 10
304.211800
 20
422.298337
 30
0.0
 10
304.228244
 20
423.655923
 30
0.0
 10
304.271623
 20
424.943454
 30
0.0
 10
304.325792
 20
425.798302
 30
0.0
 10
304.352809
 20
426.224668
 30
0.0
 11
304.396463
 21
417.923837
 31
0.0
 11
304.297556
 21
419.393472
 31
0.0
 11
304.237836
 21
420.873519
 31
0.0
 11
304.217815
 21
422.363469
 31
0.0
 11
304.232936
 21
423.658069
 31
0.0
 11
304.278057
 21
424.945247
 31
0.0
 11
304.352809
 21
426.224668
 31
0.0
  0
SPLINE
  5
132
100
AcDbEntity
  8
Layer_1
 62
5
100
AcDbSpline
 70
0
 71
3
 72
10
 73
6
 74
4
 40
0.000000
 40
0.000000
 40
0.000000
 40
0.000000
 40
2.843591
 40
5.678213
 40
8.505746
 40
8.505746
 40
8.505746
 40
8.505746
 10
309.361743
 20
445.478073
 30
0.0
 10
309.778719
 20
446.329450
 30
0.0
 10
310.611357
 20
448.029519
 30
0.0
 10
312.017323
 20
450.494576
 30
0.0
 10
313.053016
 20
452.072734
 30
0.0
 10
313.570213
 20
452.860825
 30
0.0
 11
309.361743
 21
445.478073
 31
0.0
 11
310.639243
 21
448.018546
 31
0.0
 11
312.043498
 21
450.480892
 31
0.0
 11
313.570213
 21
452.860825
 31
0.0
  0
SPLINE
  5
133
100
AcDbEntity
  8
Layer_1
 62
5
100
AcDbSpline
 70
0
 71
3
 72
10
 73
6
 74
4
 40
0.000000
 40
0.000000
 40
0.000000
 40
0.000000
 40
2.980357
 40
5.967877
 40
8.964688
 40
8.964688
 40
8.964688
 40
8.964688
 10
327.095698
 20
466.689439
 30
0.0
 10
327.914547
 20
467.252241
 30
0.0
 10
329.554214
 20
468.379200
 30
0.0
 10
332.125329
 20
469.907888
 30
0.0
 10
333.903958
 20
470.811727
 30
0.0
 10
334.794653
 20
471.264348
 30
0.0
 11
327.095698
 21
466.689439
 31
0.0
 11
329.570190
 21
468.350589
 31
0.0
 11
332.138189
 21
469.877237
 31
0.0
 11
334.794653
 21
471.264348
 31
0.0
  0
SPLINE
  5
134
100
AcDbEntity
  8
Layer_1
 62
5
100
AcDbSpline
 70
0
 71
3
 72
13
 73
9
 74
7
 40
0.000000
 40
0.000000
 40
0.000000
 40
0.000000
 40
1.348736
 40
2.704485
 40
4.067662
 40
5.491941
 40
6.908129
 40
8.316700
 40
8.316700
 40
8.316700
 40
8.316700
 10
354.523257
 20
476.583395
 30
0.0
 10
354.971860
 20
476.613341
 30
0.0
 10
355.871399
 20
476.673388
 30
0.0
 10
357.226639
 20
476.721447
 30
0.0
 10
358.607714
 20
476.739045
 30
0.0
 10
360.008937
 20
476.720399
 30
0.0
 10
361.424545
 20
476.667965
 30
0.0
 10
362.363899
 20
476.602411
 30
0.0
 10
362.832310
 20
476.569723
 30
0.0
 11
354.523257
 21
476.583395
 31
0.0
 11
355.869446
 21
476.666245
 31
0.0
 11
357.224273
 21
476.716244
 31
0.0
 11
358.587347
 21
476.732997
 31
0.0
 11
360.011508
 21
476.714718
 31
0.0
 11
361.426645
 21
476.660156
 31
0.0
 11
362.832310
 21
476.569723
 31
0.0
  0
SPLINE
  5
135
100
AcDbEntity
  8
Layer_1
 62
5
100
AcDbSpline
 70
0
 71
3
 72
10
 73
6
 74
4
 40
0.000000
 40
0.000000
 40
0.000000
 40
0.000000
 40
2.735974
 40
5.463928
 40
8.185511
 40
8.185511
 40
8.185511
 40
8.185511
 10
382.210450
 20
471.346648
 30
0.0
 10
383.025624
 20
470.937444
 30
0.0
 10
384.653583
 20
470.120236
 30
0.0
 10
387.015589
 20
468.749767
 30
0.0
 10
388.529420
 20
467.745323
 30
0.0
 10
389.285451
 20
467.243688
 30
0.0
 11
382.210450
 21
471.346648
 31
0.0
 11
384.643112
 21
470.094566
 31
0.0
 11
387.002722
 21
468.725634
 31
0.0
 11
389.285451
 21
467.243688
 31
0.0
  0
SPLINE
  5
136
100
AcDbEntity
  8
Layer_1
 62
5
100
AcDbSpline
 70
0
 71
3
 72
10
 73
6
 74
4
 40
0.000000
 40
0.000000
 40
0.000000
 40
0.000000
 40
3.061519
 40
6.131068
 40
9.211003
 40
9.211003
 40
9.211003
 40
9.211003
 10
403.243428
 20
453.386105
 30
0.0
 10
403.812296
 20
452.538655
 30
0.0
 10
404.951524
 20
450.841532
 30
0.0
 10
406.488353
 20
448.179727
 30
0.0
 10
407.390216
 20
446.338559
 30
0.0
 10
407.841909
 20
445.416419
 30
0.0
 11
403.243428
 21
453.386105
 31
0.0
 11
404.921039
 21
450.825143
 31
0.0
 11
406.455684
 21
448.166762
 31
0.0
 11
407.841909
 21
445.416419
 31
0.0
  0
SPLINE
  5
137
100
AcDbEntity
  8
Layer_1
 62
5
100
AcDbSpline
 70
0
 71
3
 72
13
 73
9
 74
7
 40
0.000000
 40
0.000000
 40
0.000000
 40
0.000000
 40
1.176152
 40
2.357699
 40
3.544916
 40
4.816365
 40
6.081332
 40
7.340155
 40
7.340155
 40
7.340155
 40
7.340155
 10
412.843318
 20
425.906023
 30
0.0
 10
412.866066
 20
425.514617
 30
0.0
 10
412.911665
 20
424.730011
 30
0.0
 10
412.948122
 20
423.548800
 30
0.0
 10
412.961581
 20
422.335391
 30
0.0
 10
412.946836
 20
421.094174
 30
0.0
 10
412.905031
 20
419.829620
 30
0.0
 10
412.852751
 20
418.989945
 30
0.0
 10
412.826674
 20
418.571130
 30
0.0
 11
412.843318
 21
425.906023
 31
0.0
 11
412.906247
 21
424.731555
 31
0.0
 11
412.944181
 21
423.550618
 31
0.0
 11
412.956880
 21
422.363469
 31
0.0
 11
412.942314
 21
421.092103
 31
0.0
 11
412.898813
 21
419.827884
 31
0.0
 11
412.826674
 21
418.571130
 31
0.0
  0
SPLINE
  5
138
100
AcDbEntity
  8
Layer_1
 62
5
100
AcDbSpline
 70
0
 71
3
 72
10
 73
6
 74
4
 40
0.000000
 40
0.000000
 40
0.000000
 40
0.000000
 40
2.627839
 40
5.248327
 40
7.862924
 40
7.862924
 40
7.862924
 40
7.862924
 10
407.488646
 20
398.571630
 30
0.0
 10
407.093379
 20
397.789812
 30
0.0
 10
406.303949
 20
396.228362
 30
0.0
 10
404.986511
 20
393.960206
 30
0.0
 10
404.024357
 20
392.504140
 30
0.0
 10
403.543821
 20
391.776927
 30
0.0
 11
407.488646
 21
398.571630
 31
0.0
 11
406.280298
 21
396.238085
 31
0.0
 11
404.964223
 21
393.972052
 31
0.0
 11
403.543821
 21
391.776927
 31
0.0
  0
SPLINE
  5
139
100
AcDbEntity
  8
Layer_1
 62
5
100
AcDbSpline
 70
0
 71
3
 72
10
 73
6
 74
4
 40
0.000000
 40
0.000000
 40
0.000000
 40
0.000000
 40
2.871003
 40
5.749163
 40
8.636430
 40
8.636430
 40
8.636430
 40
8.636430
 10
389.321709
 20
377.508108
 30
0.0
 10
388.524150
 20
376.978937
 30
0.0
 10
386.927045
 20
375.919277
 30
0.0
 10
384.429893
 20
374.481464
 30
0.0
 10
382.706355
 20
373.630642
 30
0.0
 10
381.843225
 20
373.204559
 30
0.0
 11
389.321709
 21
377.508108
 31
0.0
 11
386.912769
 21
375.946164
 31
0.0
 11
384.418443
 21
374.510149
 31
0.0
 11
381.843225
 21
373.204559
 31
0.0
  0
SPLINE
  5
13a
100
AcDbEntity
  8
Layer_1
 62
5
100
AcDbSpline
 70
0
 71
3
 72
13
 73
9
 74
7
 40
0.000000
 40
0.000000
 40
0.000000
 40
0.000000
 40
1.394952
 40
2.797379
 40
4.207744
 40
5.572813
 40
6.930432
 40
8.281019
 40
8.281019
 40
8.281019
 40
8.281019
 10
362.791136
 20
368.154032
 30
0.0
 10
362.327232
 20
368.121982
 30
0.0
 10
361.396939
 20
368.057712
 30
0.0
 10
359.995074
 20
368.006288
 30
0.0
 10
358.602446
 20
367.987930
 30
0.0
 10
357.224755
 20
368.005517
 30
0.0
 10
355.867648
 20
368.053721
 30
0.0
 10
354.966876
 20
368.113927
 30
0.0
 10
354.517659
 20
368.143951
 30
0.0
 11
362.791136
 21
368.154032
 31
0.0
 11
361.399004
 21
368.065365
 31
0.0
 11
359.997598
 21
368.011858
 31
0.0
 11
358.587347
 21
367.993930
 31
0.0
 11
357.222382
 21
368.010736
 31
0.0
 11
355.865689
 21
368.060880
 31
0.0
 11
354.517659
 21
368.143951
 31
0.0
  0
LWPOLYLINE
  5
13b
100
AcDbEntity
  8
Layer_1
 62
7
100
AcDbPolyline
 90
5
 70
1
 10
402.701096
 20
642.133052
 30
0.0
 10
402.701096
 20
656.205208
 30
0.0
 10
411.103961
 20
656.205208
 30
0.0
 10
411.103961
 20
642.133052
 30
0.0
 10
402.701096
 20
642.133052
 30
0.0
  0
LWPOLYLINE
  5
13c
100
AcDbEntity
  8
Layer_1
 62
5
100
AcDbPolyline
 90
2
 70
0
 10
362.788800
 20
496.557636
 30
0.0
 10
362.788800
 20
476.408644
 30
0.0
  0
LWPOLYLINE
  5
13d
100
AcDbEntity
  8
Layer_1
 62
5
100
AcDbPolyline
 90
2
 70
0
 10
362.788800
 20
368.068132
 30
0.0
 10
362.788800
 20
348.063132
 30
0.0
  0
LWPOLYLINE
  5
13e
100
AcDbEntity
  8
Layer_1
 62
5
100
AcDbPolyline
 90
2
 70
0
 10
354.392640
 20
348.063132
 30
0.0
 10
354.392640
 20
367.735796
 30
0.0
  0
LWPOLYLINE
  5
13f
100
AcDbEntity
  8
Layer_1
 62
5
100
AcDbPolyline
 90
2
 70
0
 10
354.392640
 20
476.408644
 30
0.0
 10
354.392640
 20
496.557636
 30
0.0
  0
LWPOLYLINE
  5
140
100
AcDbEntity
  8
Layer_1
 62
5
100
AcDbPolyline
 90
2
 70
0
 10
325.102740
 20
488.709426
 30
0.0
 10
334.977400
 20
471.606013
 30
0.0
  0
LWPOLYLINE
  5
141
100
AcDbEntity
  8
Layer_1
 62
5
100
AcDbPolyline
 90
2
 70
0
 10
389.222632
 20
377.650515
 30
0.0
 10
399.349996
 20
360.109406
 30
0.0
  0
LWPOLYLINE
  5
142
100
AcDbEntity
  8
Layer_1
 62
5
100
AcDbPolyline
 90
2
 70
0
 10
392.078702
 20
355.911322
 30
0.0
 10
381.933442
 20
373.483428
 30
0.0
  0
LWPOLYLINE
  5
143
100
AcDbEntity
  8
Layer_1
 62
5
100
AcDbPolyline
 90
2
 70
0
 10
327.892934
 20
467.084333
 30
0.0
 10
317.831446
 20
484.511342
 30
0.0
  0
LWPOLYLINE
  5
144
100
AcDbEntity
  8
Layer_1
 62
5
100
AcDbPolyline
 90
2
 70
0
 10
296.389736
 20
463.069659
 30
0.0
 10
313.909236
 20
452.954771
 30
0.0
  0
LWPOLYLINE
  5
145
100
AcDbEntity
  8
Layer_1
 62
5
100
AcDbPolyline
 90
2
 70
0
 10
407.615484
 20
398.853443
 30
0.0
 10
424.989755
 20
388.822403
 30
0.0
  0
LWPOLYLINE
  5
146
100
AcDbEntity
  8
Layer_1
 62
5
100
AcDbPolyline
 90
2
 70
0
 10
420.791673
 20
381.551112
 30
0.0
 10
403.237706
 20
391.685900
 30
0.0
  0
LWPOLYLINE
  5
147
100
AcDbEntity
  8
Layer_1
 62
5
100
AcDbPolyline
 90
2
 70
0
 10
309.348996
 20
445.892572
 30
0.0
 10
292.191654
 20
455.798368
 30
0.0
  0
LWPOLYLINE
  5
148
100
AcDbEntity
  8
Layer_1
 62
5
100
AcDbPolyline
 90
2
 70
0
 10
412.670712
 20
426.508468
 30
0.0
 10
432.837976
 20
426.508468
 30
0.0
  0
LWPOLYLINE
  5
149
100
AcDbEntity
  8
Layer_1
 62
5
100
AcDbPolyline
 90
2
 70
0
 10
432.837976
 20
418.112300
 30
0.0
 10
412.338376
 20
418.112300
 30
0.0
  0
LWPOLYLINE
  5
14a
100
AcDbEntity
  8
Layer_1
 62
5
100
AcDbPolyline
 90
2
 70
0
 10
303.665528
 20
418.112300
 30
0.0
 10
284.343464
 20
418.112300
 30
0.0
  0
LWPOLYLINE
  5
14b
100
AcDbEntity
  8
Layer_1
 62
5
100
AcDbPolyline
 90
2
 70
0
 10
284.343464
 20
426.508468
 30
0.0
 10
304.662528
 20
426.508468
 30
0.0
  0
LWPOLYLINE
  5
14c
100
AcDbEntity
  8
Layer_1
 62
5
100
AcDbPolyline
 90
2
 70
0
 10
313.415181
 20
391.380729
 30
0.0
 10
296.389759
 20
381.551097
 30
0.0
  0
LWPOLYLINE
  5
14d
100
AcDbEntity
  8
Layer_1
 62
5
100
AcDbPolyline
 90
2
 70
0
 10
292.191675
 20
388.822392
 30
0.0
 10
308.998845
 20
398.526016
 30
0.0
  0
LWPOLYLINE
  5
14e
100
AcDbEntity
  8
Layer_1
 62
5
100
AcDbPolyline
 90
2
 70
0
 10
402.887554
 20
452.732688
 30
0.0
 10
420.791687
 20
463.069644
 30
0.0
  0
LWPOLYLINE
  5
14f
100
AcDbEntity
  8
Layer_1
 62
5
100
AcDbPolyline
 90
2
 70
0
 10
424.989771
 20
455.798349
 30
0.0
 10
407.447796
 20
445.670485
 30
0.0
  0
LWPOLYLINE
  5
150
100
AcDbEntity
  8
Layer_1
 62
5
100
AcDbPolyline
 90
2
 70
0
 10
335.429834
 20
373.798421
 30
0.0
 10
325.102722
 20
355.911338
 30
0.0
  0
LWPOLYLINE
  5
151
100
AcDbEntity
  8
Layer_1
 62
5
100
AcDbPolyline
 90
2
 70
0
 10
317.831434
 20
360.109418
 30
0.0
 10
327.830578
 20
377.428443
 30
0.0
  0
LWPOLYLINE
  5
152
100
AcDbEntity
  8
Layer_1
 62
5
100
AcDbPolyline
 90
2
 70
0
 10
381.727181
 20
470.780098
 30
0.0
 10
392.078687
 20
488.709431
 30
0.0
  0
SPLINE
  5
153
100
AcDbEntity
  8
Layer_1
 62
5
100
AcDbSpline
 70
0
 71
3
 72
10
 73
6
 74
4
 40
0.000000
 40
0.000000
 40
0.000000
 40
0.000000
 40
2.862699
 40
5.716457
 40
8.563175
 40
8.563175
 40
8.563175
 40
8.563175
 10
335.293743
 20
373.222443
 30
0.0
 10
334.438229
 20
373.645444
 30
0.0
 10
332.729873
 20
374.490126
 30
0.0
 10
330.254073
 20
375.915950
 30
0.0
 10
328.670028
 20
376.965928
 30
0.0
 10
327.878984
 20
377.490268
 30
0.0
 11
335.293743
 21
373.222443
 31
0.0
 11
332.741146
 21
374.518317
 31
0.0
 11
330.268099
 21
375.942388
 31
0.0
 11
327.878984
 21
377.490268
 31
0.0
  0
SPLINE
  5
154
100
AcDbEntity
  8
Layer_1
 62
5
100
AcDbSpline
 70
0
 71
3
 72
10
 73
6
 74
4
 40
0.000000
 40
0.000000
 40
0.000000
 40
0.000000
 40
9.855101
 40
19.852726
 40
30.062226
 40
30.062226
 40
30.062226
 40
30.062226
 10
292.159584
 20
389.404845
 30
0.0
 10
290.814966
 20
392.405533
 30
0.0
 10
288.106284
 20
398.450306
 30
0.0
 10
285.519365
 20
408.195004
 30
0.0
 10
284.881063
 20
414.907505
 30
0.0
 10
284.558566
 20
418.298946
 30
0.0
 11
292.159584
 21
389.404845
 31
0.0
 11
288.372230
 21
398.503140
 31
0.0
 11
285.806999
 21
408.166064
 31
0.0
 11
284.558566
 21
418.298946
 31
0.0
  0
SPLINE
  5
155
100
AcDbEntity
  8
Layer_1
 62
5
100
AcDbSpline
 70
0
 71
3
 72
10
 73
6
 74
4
 40
0.000000
 40
0.000000
 40
0.000000
 40
0.000000
 40
10.030854
 40
19.858775
 40
29.549404
 40
29.549404
 40
29.549404
 40
29.549404
 10
284.582945
 20
426.857187
 30
0.0
 10
284.916651
 20
430.187517
 30
0.0
 10
285.577311
 20
436.780801
 30
0.0
 10
288.141210
 20
446.351547
 30
0.0
 10
290.801403
 20
452.295635
 30
0.0
 10
292.122144
 20
455.246774
 30
0.0
 11
284.582945
 21
426.857187
 31
0.0
 11
285.855122
 21
436.807040
 31
0.0
 11
288.398193
 21
446.300239
 31
0.0
 11
292.122144
 21
455.246774
 31
0.0
  0
SPLINE
  5
156
100
AcDbEntity
  8
Layer_1
 62
5
100
AcDbSpline
 70
0
 71
3
 72
10
 73
6
 74
4
 40
0.000000
 40
0.000000
 40
0.000000
 40
0.000000
 40
10.160045
 40
20.302285
 40
30.462251
 40
30.462251
 40
30.462251
 40
30.462251
 10
296.551821
 20
462.975494
 30
0.0
 10
298.525955
 20
465.731488
 30
0.0
 10
302.470764
 20
471.238646
 30
0.0
 10
309.693977
 20
478.464162
 30
0.0
 10
315.199837
 20
482.410736
 30
0.0
 10
317.955170
 20
484.385746
 30
0.0
 11
296.551821
 21
462.975494
 31
0.0
 11
302.691923
 21
471.070287
 31
0.0
 11
309.862421
 21
478.243081
 31
0.0
 11
317.955170
 21
484.385746
 31
0.0
  0
SPLINE
  5
157
100
AcDbEntity
  8
Layer_1
 62
5
100
AcDbSpline
 70
0
 71
3
 72
10
 73
6
 74
4
 40
0.000000
 40
0.000000
 40
0.000000
 40
0.000000
 40
9.818119
 40
19.776177
 40
29.942313
 40
29.942313
 40
29.942313
 40
29.942313
 10
325.427936
 20
488.691061
 30
0.0
 10
328.413050
 20
490.040158
 30
0.0
 10
334.425824
 20
492.757581
 30
0.0
 10
344.121257
 20
495.371222
 30
0.0
 10
350.803257
 20
496.036679
 30
0.0
 10
354.178802
 20
496.372848
 30
0.0
 11
325.427936
 21
488.691061
 31
0.0
 11
334.479605
 21
492.494053
 31
0.0
 11
344.094456
 21
495.085879
 31
0.0
 11
354.178802
 21
496.372848
 31
0.0
  0
SPLINE
  5
158
100
AcDbEntity
  8
Layer_1
 62
5
100
AcDbSpline
 70
0
 71
3
 72
10
 73
6
 74
4
 40
0.000000
 40
0.000000
 40
0.000000
 40
0.000000
 40
10.001601
 40
19.801727
 40
29.465425
 40
29.465425
 40
29.465425
 40
29.465425
 10
363.153943
 20
496.363804
 30
0.0
 10
366.474252
 20
496.028201
 30
0.0
 10
373.047985
 20
495.363755
 30
0.0
 10
382.590177
 20
492.803355
 30
0.0
 10
388.517679
 20
490.150882
 30
0.0
 10
391.460655
 20
488.833942
 30
0.0
 11
363.153943
 21
496.363804
 31
0.0
 11
373.073779
 21
495.087537
 31
0.0
 11
382.539103
 21
492.547829
 31
0.0
 11
391.460655
 21
488.833942
 31
0.0
  0
SPLINE
  5
159
100
AcDbEntity
  8
Layer_1
 62
5
100
AcDbSpline
 70
0
 71
3
 72
10
 73
6
 74
4
 40
0.000000
 40
0.000000
 40
0.000000
 40
0.000000
 40
10.176560
 40
20.334871
 40
30.510638
 40
30.510638
 40
30.510638
 40
30.510638
 10
399.095253
 20
484.467465
 30
0.0
 10
401.858909
 20
482.494552
 30
0.0
 10
407.381265
 20
478.552263
 30
0.0
 10
414.628061
 20
471.327111
 30
0.0
 10
418.586817
 20
465.816880
 30
0.0
 10
420.567895
 20
463.059399
 30
0.0
 11
399.095253
 21
484.467465
 31
0.0
 11
407.212791
 21
478.330042
 31
0.0
 11
414.406555
 21
471.157801
 31
0.0
 11
420.567895
 21
463.059399
 31
0.0
  0
SPLINE
  5
15a
100
AcDbEntity
  8
Layer_1
 62
5
100
AcDbSpline
 70
0
 71
3
 72
10
 73
6
 74
4
 40
0.000000
 40
0.000000
 40
0.000000
 40
0.000000
 40
10.066824
 40
20.280875
 40
30.715895
 40
30.715895
 40
30.715895
 40
30.715895
 10
424.803466
 20
455.744716
 30
0.0
 10
426.194008
 20
452.687099
 30
0.0
 10
428.995428
 20
446.527149
 30
0.0
 10
431.659853
 20
436.573385
 30
0.0
 10
432.301470
 20
429.712740
 30
0.0
 10
432.625712
 20
426.245709
 30
0.0
 11
424.803466
 21
455.744716
 31
0.0
 11
428.718317
 21
446.470295
 31
0.0
 11
431.359411
 21
436.603610
 31
0.0
 11
432.625712
 21
426.245709
 31
0.0
  0
SPLINE
  5
15b
100
AcDbEntity
  8
Layer_1
 62
5
100
AcDbSpline
 70
0
 71
3
 72
10
 73
6
 74
4
 40
0.000000
 40
0.000000
 40
0.000000
 40
0.000000
 40
10.097541
 40
19.989711
 40
29.743359
 40
29.743359
 40
29.743359
 40
29.743359
 10
432.593351
 20
417.897870
 30
0.0
 10
432.257779
 20
414.545317
 30
0.0
 10
431.593461
 20
407.908397
 30
0.0
 10
429.003184
 20
398.276595
 30
0.0
 10
426.313636
 20
392.299053
 30
0.0
 10
424.978344
 20
389.331355
 30
0.0
 11
432.593351
 21
417.897870
 31
0.0
 11
431.311943
 21
407.881967
 31
0.0
 11
428.742997
 21
398.329190
 31
0.0
 11
424.978344
 21
389.331355
 31
0.0
  0
SPLINE
  5
15c
100
AcDbEntity
  8
Layer_1
 62
5
100
AcDbSpline
 70
0
 71
3
 72
10
 73
6
 74
4
 40
0.000000
 40
0.000000
 40
0.000000
 40
0.000000
 40
10.093413
 40
20.170082
 40
30.264840
 40
30.264840
 40
30.264840
 40
30.264840
 10
420.455532
 20
381.497932
 30
0.0
 10
418.483928
 20
378.767562
 30
0.0
 10
414.543989
 20
373.311352
 30
0.0
 10
407.348552
 20
366.152879
 30
0.0
 10
401.871605
 20
362.241033
 30
0.0
 10
399.130676
 20
360.283357
 30
0.0
 11
420.455532
 21
381.497932
 31
0.0
 11
414.326493
 21
373.478464
 31
0.0
 11
407.182856
 21
366.371586
 31
0.0
 11
399.130676
 21
360.283357
 31
0.0
  0
SPLINE
  5
15d
100
AcDbEntity
  8
Layer_1
 62
5
100
AcDbSpline
 70
0
 71
3
 72
10
 73
6
 74
4
 40
0.000000
 40
0.000000
 40
0.000000
 40
0.000000
 40
9.909547
 40
19.959555
 40
30.219610
 40
30.219610
 40
30.219610
 40
30.219610
 10
392.157120
 20
356.243426
 30
0.0
 10
389.152192
 20
354.864100
 30
0.0
 10
383.099744
 20
352.085897
 30
0.0
 10
373.325083
 20
349.404837
 30
0.0
 10
366.583150
 20
348.714192
 30
0.0
 10
363.177321
 20
348.365299
 30
0.0
 11
392.157120
 21
356.243426
 31
0.0
 11
383.042863
 21
352.353767
 31
0.0
 11
373.350771
 21
349.695567
 31
0.0
 11
363.177321
 21
348.365299
 31
0.0
  0
SPLINE
  5
15e
100
AcDbEntity
  8
Layer_1
 62
5
100
AcDbSpline
 70
0
 71
3
 72
10
 73
6
 74
4
 40
0.000000
 40
0.000000
 40
0.000000
 40
0.000000
 40
10.108593
 40
20.013274
 40
29.780745
 40
29.780745
 40
29.780745
 40
29.780745
 10
353.842788
 20
348.374342
 30
0.0
 10
350.487855
 20
348.723026
 30
0.0
 10
343.845664
 20
349.413362
 30
0.0
 10
334.212150
 20
352.045862
 30
0.0
 10
328.238051
 20
354.764368
 30
0.0
 10
325.271836
 20
356.114140
 30
0.0
 11
353.842788
 21
348.374342
 31
0.0
 11
343.820917
 21
349.695609
 31
0.0
 11
334.266497
 21
352.306310
 31
0.0
 11
325.271836
 21
356.114140
 31
0.0
  0
LWPOLYLINE
  5
15f
100
AcDbEntity
  8
Layer_1
 62
5
100
AcDbPolyline
 90
2
 70
0
 10
399.349974
 20
484.511351
 30
0.0
 10
389.326435
 20
467.150072
 30
0.0
  0
LWPOLYLINE
  5
160
100
AcDbEntity
  8
Layer_1
 62
7
100
AcDbPolyline
 90
5
 70
1
 10
354.091544
 20
415.154492
 30
0.0
 10
354.091544
 20
429.226648
 30
0.0
 10
362.494409
 20
429.226648
 30
0.0
 10
362.494409
 20
415.154492
 30
0.0
 10
354.091544
 20
415.154492
 30
0.0
  0
LWPOLYLINE
  5
161
100
AcDbEntity
  8
Layer_1
 62
5
100
AcDbPolyline
 90
64
 70
0
 10
168.976160
 20
653.110996
 30
0.0
 10
151.643680
 20
653.072196
 30
0.0
 10
151.599840
 20
652.568620
 30
0.0
 10
149.483584
 20
652.803756
 30
0.0
 10
146.977528
 20
653.117012
 30
0.0
 10
144.471464
 20
653.430268
 30
0.0
 10
141.652152
 20
653.743524
 30
0.0
 10
139.146096
 20
654.056788
 30
0.0
 10
136.640008
 20
654.683324
 30
0.0
 10
134.133944
 20
655.309844
 30
0.0
 10
131.627888
 20
655.623100
 30
0.0
 10
129.121832
 20
656.249612
 30
0.0
 10
126.615768
 20
656.876132
 30
0.0
 10
124.109680
 20
657.815900
 30
0.0
 10
121.603624
 20
658.442412
 30
0.0
 10
119.410824
 20
659.382188
 30
0.0
 10
116.904768
 20
660.321956
 30
0.0
 10
114.711960
 20
660.948476
 30
0.0
 10
112.205904
 20
661.888244
 30
0.0
 10
110.013072
 20
663.141276
 30
0.0
 10
107.507016
 20
664.081044
 30
0.0
 10
105.314216
 20
665.020820
 30
0.0
 10
103.121416
 20
666.273852
 30
0.0
 10
100.928616
 20
667.526876
 30
0.0
 10
98.735808
 20
668.779908
 30
0.0
 10
96.542984
 20
670.032964
 30
0.0
 10
94.350184
 20
671.285996
 30
0.0
 10
92.157376
 20
672.539028
 30
0.0
 10
90.277832
 20
674.105308
 30
0.0
 10
88.085032
 20
675.358340
 30
0.0
 10
86.205488
 20
676.924628
 30
0.0
 10
84.012688
 20
678.490916
 30
0.0
 10
82.133112
 20
680.057196
 30
0.0
 10
80.253568
 20
681.623484
 30
0.0
 10
78.374024
 20
683.189804
 30
0.0
 10
76.494480
 20
684.756084
 30
0.0
 10
74.614936
 20
686.322372
 30
0.0
 10
73.048656
 20
688.201916
 30
0.0
 10
71.169112
 20
690.081460
 30
0.0
 10
69.289568
 20
691.647748
 30
0.0
 10
67.723248
 20
693.527292
 30
0.0
 10
66.156960
 20
695.406836
 30
0.0
 10
64.590680
 20
697.286412
 30
0.0
 10
63.024392
 20
699.165956
 30
0.0
 10
61.458104
 20
701.358756
 30
0.0
 10
59.891816
 20
703.238300
 30
0.0
 10
58.325528
 20
705.117844
 30
0.0
 10
57.072504
 20
707.310644
 30
0.0
 10
55.506216
 20
709.503444
 30
0.0
 10
54.253160
 20
711.383020
 30
0.0
 10
53.000128
 20
713.575820
 30
0.0
 10
51.747096
 20
715.768620
 30
0.0
 10
50.494064
 20
717.961420
 30
0.0
 10
49.241040
 20
720.154220
 30
0.0
 10
48.301264
 20
722.347028
 30
0.0
 10
47.048240
 20
724.853084
 30
0.0
 10
46.108464
 20
727.045916
 30
0.0
 10
45.168696
 20
729.238716
 30
0.0
 10
44.228920
 20
731.744772
 30
0.0
 10
43.289152
 20
733.937572
 30
0.0
 10
42.349376
 20
736.443636
 30
0.0
 10
41.409608
 20
738.949724
 30
0.0
 10
40.783088
 20
741.142524
 30
0.0
 10
40.156544
 20
743.648580
 30
0.0
  0
LWPOLYLINE
  5
162
100
AcDbEntity
  8
Layer_1
 62
5
100
AcDbPolyline
 90
2
 70
0
 10
60.518360
 20
717.648188
 30
0.0
 10
60.518360
 20
722.973564
 30
0.0
  0
LWPOLYLINE
  5
163
100
AcDbEntity
  8
Layer_1
 62
5
100
AcDbPolyline
 90
2
 70
0
 10
40.156576
 20
743.648604
 30
0.0
 10
48.927816
 20
743.648604
 30
0.0
  0
LWPOLYLINE
  5
164
100
AcDbEntity
  8
Layer_1
 62
5
100
AcDbPolyline
 90
65
 70
0
 10
160.134392
 20
660.635244
 30
0.0
 10
158.568104
 20
660.635244
 30
0.0
 10
156.688560
 20
660.635244
 30
0.0
 10
155.122280
 20
660.948500
 30
0.0
 10
153.242736
 20
660.948500
 30
0.0
 10
151.676416
 20
660.948500
 30
0.0
 10
149.796872
 20
661.261756
 30
0.0
 10
148.230584
 20
661.261756
 30
0.0
 10
146.351040
 20
661.575012
 30
0.0
 10
144.784760
 20
661.888268
 30
0.0
 10
143.218472
 20
661.888268
 30
0.0
 10
141.338928
 20
662.201524
 30
0.0
 10
139.772640
 20
662.514788
 30
0.0
 10
138.206328
 20
662.828044
 30
0.0
 10
136.326784
 20
663.141300
 30
0.0
 10
134.760496
 20
663.454556
 30
0.0
 10
133.194208
 20
664.081068
 30
0.0
 10
131.627920
 20
664.394332
 30
0.0
 10
129.748376
 20
664.707588
 30
0.0
 10
128.182088
 20
665.334100
 30
0.0
 10
126.615800
 20
665.647356
 30
0.0
 10
125.049512
 20
666.273876
 30
0.0
 10
123.483200
 20
666.900388
 30
0.0
 10
121.916912
 20
667.213644
 30
0.0
 10
120.350624
 20
667.840156
 30
0.0
 10
118.784344
 20
668.466700
 30
0.0
 10
117.218056
 20
669.093188
 30
0.0
 10
115.651768
 20
669.719732
 30
0.0
 10
114.085480
 20
670.346244
 30
0.0
 10
112.519192
 20
670.972764
 30
0.0
 10
111.266168
 20
671.599276
 30
0.0
 10
109.699848
 20
672.539052
 30
0.0
 10
108.133560
 20
673.165564
 30
0.0
 10
106.567280
 20
673.792076
 30
0.0
 10
105.314248
 20
674.731852
 30
0.0
 10
103.747960
 20
675.358364
 30
0.0
 10
102.494928
 20
676.298140
 30
0.0
 10
100.928648
 20
676.924652
 30
0.0
 10
99.675616
 20
677.864420
 30
0.0
 10
98.109328
 20
678.804196
 30
0.0
 10
96.856296
 20
679.743964
 30
0.0
 10
95.603240
 20
680.683740
 30
0.0
 10
94.036952
 20
681.623508
 30
0.0
 10
92.783928
 20
682.563308
 30
0.0
 10
91.530896
 20
683.503084
 30
0.0
 10
90.277864
 20
684.442852
 30
0.0
 10
89.024840
 20
685.382628
 30
0.0
 10
87.458552
 20
686.322396
 30
0.0
 10
86.205520
 20
687.262172
 30
0.0
 10
85.265752
 20
688.515196
 30
0.0
 10
84.012720
 20
689.454972
 30
0.0
 10
82.759688
 20
690.708004
 30
0.0
 10
81.506632
 20
691.647772
 30
0.0
 10
80.253600
 20
692.900804
 30
0.0
 10
79.313832
 20
693.840572
 30
0.0
 10
78.060800
 20
695.093604
 30
0.0
 10
76.807776
 20
696.346636
 30
0.0
 10
75.868000
 20
697.286436
 30
0.0
 10
74.614968
 20
698.539460
 30
0.0
 10
73.675200
 20
699.792492
 30
0.0
 10
72.735424
 20
701.045524
 30
0.0
 10
71.795656
 20
702.298548
 30
0.0
 10
70.542624
 20
703.551580
 30
0.0
 10
69.602856
 20
704.804612
 30
0.0
 10
68.663056
 20
706.057636
 30
0.0
  0
LWPOLYLINE
  5
165
100
AcDbEntity
  8
Layer_1
 62
5
100
AcDbPolyline
 90
27
 70
0
 10
60.518360
 20
717.648188
 30
0.0
 10
59.578592
 20
718.901220
 30
0.0
 10
58.952080
 20
720.154244
 30
0.0
 10
58.012304
 20
721.720532
 30
0.0
 10
57.699048
 20
722.347052
 30
0.0
 10
57.072536
 20
723.286820
 30
0.0
 10
56.759272
 20
723.913332
 30
0.0
 10
56.132760
 20
724.853108
 30
0.0
 10
55.819504
 20
725.792908
 30
0.0
 10
55.506248
 20
726.419420
 30
0.0
 10
54.879728
 20
727.359196
 30
0.0
 10
54.566472
 20
728.298964
 30
0.0
 10
54.253192
 20
729.238740
 30
0.0
 10
53.626672
 20
730.178508
 30
0.0
 10
53.313416
 20
731.118284
 30
0.0
 10
53.000160
 20
732.058052
 30
0.0
 10
52.373640
 20
732.997828
 30
0.0
 10
52.060384
 20
733.937596
 30
0.0
 10
51.747128
 20
734.877372
 30
0.0
 10
51.433872
 20
735.817140
 30
0.0
 10
51.120616
 20
736.756916
 30
0.0
 10
50.807360
 20
737.383428
 30
0.0
 10
50.494096
 20
738.323204
 30
0.0
 10
50.180840
 20
739.263004
 30
0.0
 10
49.554328
 20
740.829292
 30
0.0
 10
49.241072
 20
742.395572
 30
0.0
 10
48.927816
 20
743.648604
 30
0.0
  0
LWPOLYLINE
  5
166
100
AcDbEntity
  8
Layer_1
 62
5
100
AcDbPolyline
 90
2
 70
0
 10
60.831624
 20
722.973564
 30
0.0
 10
68.663056
 20
722.973564
 30
0.0
  0
LWPOLYLINE
  5
167
100
AcDbEntity
  8
Layer_1
 62
5
100
AcDbPolyline
 90
2
 70
0
 10
68.663056
 20
706.057636
 30
0.0
 10
68.663056
 20
722.973564
 30
0.0
  0
LWPOLYLINE
  5
168
100
AcDbEntity
  8
Layer_1
 62
5
100
AcDbPolyline
 90
2
 70
0
 10
251.605752
 20
704.804612
 30
0.0
 10
251.605752
 20
722.973564
 30
0.0
  0
LWPOLYLINE
  5
169
100
AcDbEntity
  8
Layer_1
 62
5
100
AcDbPolyline
 90
2
 70
0
 10
259.750440
 20
722.973564
 30
0.0
 10
251.605752
 20
722.973564
 30
0.0
  0
LWPOLYLINE
  5
16a
100
AcDbEntity
  8
Layer_1
 62
5
100
AcDbPolyline
 90
2
 70
0
 10
259.750440
 20
717.334932
 30
0.0
 10
259.750440
 20
722.973564
 30
0.0
  0
LWPOLYLINE
  5
16b
100
AcDbEntity
  8
Layer_1
 62
5
100
AcDbPolyline
 90
25
 70
0
 10
271.654248
 20
743.648604
 30
0.0
 10
271.340992
 20
742.395572
 30
0.0
 10
271.027736
 20
741.142548
 30
0.0
 10
270.401216
 20
739.889516
 30
0.0
 10
270.087960
 20
738.323204
 30
0.0
 10
269.461448
 20
736.756916
 30
0.0
 10
268.834928
 20
735.503884
 30
0.0
 10
268.208416
 20
733.624340
 30
0.0
 10
267.268648
 20
732.058052
 30
0.0
 10
266.955384
 20
731.431540
 30
0.0
 10
266.642128
 20
730.491764
 30
0.0
 10
266.328872
 20
729.551996
 30
0.0
 10
265.702360
 20
728.612220
 30
0.0
 10
265.389104
 20
727.985708
 30
0.0
 10
265.075816
 20
727.045940
 30
0.0
 10
264.449304
 20
726.106164
 30
0.0
 10
264.136040
 20
725.166396
 30
0.0
 10
263.509528
 20
724.226596
 30
0.0
 10
262.883016
 20
723.286820
 30
0.0
 10
262.569760
 20
722.347052
 30
0.0
 10
261.943240
 20
721.407276
 30
0.0
 10
261.316728
 20
720.467508
 30
0.0
 10
261.003472
 20
719.214476
 30
0.0
 10
260.376952
 20
718.274700
 30
0.0
 10
259.750440
 20
717.334932
 30
0.0
  0
LWPOLYLINE
  5
16c
100
AcDbEntity
  8
Layer_1
 62
5
100
AcDbPolyline
 90
65
 70
0
 10
251.605752
 20
704.804612
 30
0.0
 10
250.665952
 20
703.864836
 30
0.0
 10
249.412920
 20
702.611812
 30
0.0
 10
248.473144
 20
701.358780
 30
0.0
 10
247.533376
 20
700.105748
 30
0.0
 10
246.593600
 20
699.165980
 30
0.0
 10
245.340576
 20
697.912948
 30
0.0
 10
244.400800
 20
696.973180
 30
0.0
 10
243.461032
 20
695.720116
 30
0.0
 10
242.207984
 20
694.780348
 30
0.0
 10
241.268216
 20
693.527316
 30
0.0
 10
240.015184
 20
692.587548
 30
0.0
 10
238.762160
 20
691.334516
 30
0.0
 10
237.822384
 20
690.394740
 30
0.0
 10
236.569328
 20
689.454972
 30
0.0
 10
235.316296
 20
688.201940
 30
0.0
 10
234.063264
 20
687.262172
 30
0.0
 10
232.810240
 20
686.322396
 30
0.0
 10
231.870464
 20
685.382628
 30
0.0
 10
230.617440
 20
684.442852
 30
0.0
 10
229.051152
 20
683.503084
 30
0.0
 10
227.798120
 20
682.563308
 30
0.0
 10
226.545088
 20
681.623508
 30
0.0
 10
225.292064
 20
680.683740
 30
0.0
 10
224.039032
 20
679.743964
 30
0.0
 10
222.786000
 20
678.804196
 30
0.0
 10
221.219688
 20
678.177676
 30
0.0
 10
219.966656
 20
677.237908
 30
0.0
 10
218.713632
 20
676.611396
 30
0.0
 10
217.147344
 20
675.671620
 30
0.0
 10
215.894312
 20
674.731852
 30
0.0
 10
214.328024
 20
674.105332
 30
0.0
 10
212.761744
 20
673.478820
 30
0.0
 10
211.508712
 20
672.539052
 30
0.0
 10
209.942424
 20
671.912532
 30
0.0
 10
208.376112
 20
671.286020
 30
0.0
 10
207.123080
 20
670.659500
 30
0.0
 10
205.556792
 20
670.032988
 30
0.0
 10
203.990504
 20
669.406476
 30
0.0
 10
202.424224
 20
668.779932
 30
0.0
 10
200.857936
 20
668.153444
 30
0.0
 10
199.291648
 20
667.526900
 30
0.0
 10
197.725360
 20
666.900388
 30
0.0
 10
196.159072
 20
666.587132
 30
0.0
 10
194.592760
 20
665.960612
 30
0.0
 10
193.026472
 20
665.334100
 30
0.0
 10
191.460184
 20
665.020844
 30
0.0
 10
189.580640
 20
664.707588
 30
0.0
 10
188.014352
 20
664.081068
 30
0.0
 10
186.448064
 20
663.767812
 30
0.0
 10
184.881784
 20
663.454556
 30
0.0
 10
183.002240
 20
663.141300
 30
0.0
 10
181.435952
 20
662.828044
 30
0.0
 10
179.556376
 20
662.514788
 30
0.0
 10
177.990088
 20
662.201524
 30
0.0
 10
176.110544
 20
661.888268
 30
0.0
 10
174.544264
 20
661.575012
 30
0.0
 10
172.664720
 20
661.261756
 30
0.0
 10
171.098432
 20
661.261756
 30
0.0
 10
169.218888
 20
660.948500
 30
0.0
 10
167.339344
 20
660.948500
 30
0.0
 10
165.459768
 20
660.635244
 30
0.0
 10
163.893480
 20
660.635244
 30
0.0
 10
162.013936
 20
660.635244
 30
0.0
 10
160.134392
 20
660.635244
 30
0.0
  0
LWPOLYLINE
  5
16d
100
AcDbEntity
  8
Layer_1
 62
5
100
AcDbPolyline
 90
63
 70
0
 10
280.112224
 20
743.648604
 30
0.0
 10
279.485712
 20
741.142548
 30
0.0
 10
278.859168
 20
738.636460
 30
0.0
 10
277.919392
 20
736.443660
 30
0.0
 10
277.292880
 20
733.937596
 30
0.0
 10
276.353104
 20
731.431540
 30
0.0
 10
275.413336
 20
729.238740
 30
0.0
 10
274.160304
 20
727.045940
 30
0.0
 10
273.220536
 20
724.539852
 30
0.0
 10
272.280760
 20
722.347052
 30
0.0
 10
271.027736
 20
720.154244
 30
0.0
 10
269.774704
 20
717.961444
 30
0.0
 10
268.521672
 20
715.768644
 30
0.0
 10
267.268648
 20
713.575844
 30
0.0
 10
266.015616
 20
711.383044
 30
0.0
 10
264.762560
 20
709.190212
 30
0.0
 10
263.509528
 20
707.310668
 30
0.0
 10
261.943240
 20
705.117868
 30
0.0
 10
260.376952
 20
703.238324
 30
0.0
 10
259.123928
 20
701.045524
 30
0.0
 10
257.557640
 20
699.165980
 30
0.0
 10
255.991352
 20
697.286436
 30
0.0
 10
254.111808
 20
695.406860
 30
0.0
 10
252.545520
 20
693.527316
 30
0.0
 10
250.979208
 20
691.647772
 30
0.0
 10
249.099664
 20
689.768228
 30
0.0
 10
247.533376
 20
688.201940
 30
0.0
 10
245.653832
 20
686.322396
 30
0.0
 10
243.774288
 20
684.756108
 30
0.0
 10
241.894728
 20
683.189828
 30
0.0
 10
240.015184
 20
681.310252
 30
0.0
 10
238.135640
 20
679.743964
 30
0.0
 10
236.256072
 20
678.177676
 30
0.0
 10
234.063264
 20
676.924652
 30
0.0
 10
232.183720
 20
675.358364
 30
0.0
 10
229.990920
 20
673.792076
 30
0.0
 10
228.111376
 20
672.539052
 30
0.0
 10
225.918576
 20
671.286020
 30
0.0
 10
223.725776
 20
670.032988
 30
0.0
 10
221.532944
 20
668.779932
 30
0.0
 10
219.340144
 20
667.526900
 30
0.0
 10
217.147344
 20
666.273876
 30
0.0
 10
214.954544
 20
665.020844
 30
0.0
 10
212.761744
 20
664.081068
 30
0.0
 10
210.255680
 20
663.141300
 30
0.0
 10
208.062856
 20
661.888268
 30
0.0
 10
205.556792
 20
660.948500
 30
0.0
 10
203.363992
 20
660.008724
 30
0.0
 10
200.857936
 20
659.382212
 30
0.0
 10
198.665128
 20
658.442436
 30
0.0
 10
196.159072
 20
657.815924
 30
0.0
 10
193.652984
 20
656.876156
 30
0.0
 10
191.146928
 20
656.249636
 30
0.0
 10
188.640872
 20
655.623124
 30
0.0
 10
186.134808
 20
655.309868
 30
0.0
 10
183.628752
 20
654.683348
 30
0.0
 10
181.122696
 20
654.056812
 30
0.0
 10
178.616608
 20
653.743548
 30
0.0
 10
176.110544
 20
653.430292
 30
0.0
 10
173.291232
 20
653.117036
 30
0.0
 10
170.785176
 20
652.803780
 30
0.0
 10
169.010104
 20
652.581900
 30
0.0
 10
168.977144
 20
653.110996
 30
0.0
  0
LWPOLYLINE
  5
16e
100
AcDbEntity
  8
Layer_1
 62
5
100
AcDbPolyline
 90
2
 70
0
 10
271.654248
 20
743.648604
 30
0.0
 10
280.425480
 20
743.648604
 30
0.0
  0
LWPOLYLINE
  5
16f
100
AcDbEntity
  8
Layer_1
 62
5
100
AcDbPolyline
 90
64
 70
0
 10
168.976160
 20
621.110996
 30
0.0
 10
151.643680
 20
621.072196
 30
0.0
 10
151.599840
 20
620.568620
 30
0.0
 10
149.483584
 20
620.803756
 30
0.0
 10
146.977528
 20
621.117012
 30
0.0
 10
144.471464
 20
621.430268
 30
0.0
 10
141.652152
 20
621.743524
 30
0.0
 10
139.146096
 20
622.056788
 30
0.0
 10
136.640008
 20
622.683324
 30
0.0
 10
134.133944
 20
623.309844
 30
0.0
 10
131.627888
 20
623.623100
 30
0.0
 10
129.121832
 20
624.249612
 30
0.0
 10
126.615768
 20
624.876132
 30
0.0
 10
124.109680
 20
625.815900
 30
0.0
 10
121.603624
 20
626.442412
 30
0.0
 10
119.410824
 20
627.382188
 30
0.0
 10
116.904768
 20
628.321956
 30
0.0
 10
114.711960
 20
628.948476
 30
0.0
 10
112.205904
 20
629.888244
 30
0.0
 10
110.013072
 20
631.141276
 30
0.0
 10
107.507016
 20
632.081044
 30
0.0
 10
105.314216
 20
633.020820
 30
0.0
 10
103.121416
 20
634.273852
 30
0.0
 10
100.928616
 20
635.526876
 30
0.0
 10
98.735808
 20
636.779908
 30
0.0
 10
96.542984
 20
638.032964
 30
0.0
 10
94.350184
 20
639.285996
 30
0.0
 10
92.157376
 20
640.539028
 30
0.0
 10
90.277832
 20
642.105308
 30
0.0
 10
88.085032
 20
643.358340
 30
0.0
 10
86.205488
 20
644.924628
 30
0.0
 10
84.012688
 20
646.490916
 30
0.0
 10
82.133112
 20
648.057196
 30
0.0
 10
80.253568
 20
649.623484
 30
0.0
 10
78.374024
 20
651.189804
 30
0.0
 10
76.494480
 20
652.756084
 30
0.0
 10
74.614936
 20
654.322372
 30
0.0
 10
73.048656
 20
656.201916
 30
0.0
 10
71.169112
 20
658.081460
 30
0.0
 10
69.289568
 20
659.647748
 30
0.0
 10
67.723248
 20
661.527292
 30
0.0
 10
66.156960
 20
663.406836
 30
0.0
 10
64.590680
 20
665.286412
 30
0.0
 10
63.024392
 20
667.165956
 30
0.0
 10
61.458104
 20
669.358756
 30
0.0
 10
59.891816
 20
671.238300
 30
0.0
 10
58.325528
 20
673.117844
 30
0.0
 10
57.072504
 20
675.310644
 30
0.0
 10
55.506216
 20
677.503444
 30
0.0
 10
54.253160
 20
679.383020
 30
0.0
 10
53.000128
 20
681.575820
 30
0.0
 10
51.747096
 20
683.768620
 30
0.0
 10
50.494064
 20
685.961420
 30
0.0
 10
49.241040
 20
688.154220
 30
0.0
 10
48.301264
 20
690.347028
 30
0.0
 10
47.048240
 20
692.853084
 30
0.0
 10
46.108464
 20
695.045916
 30
0.0
 10
45.168696
 20
697.238716
 30
0.0
 10
44.228920
 20
699.744772
 30
0.0
 10
43.289152
 20
701.937572
 30
0.0
 10
42.349376
 20
704.443636
 30
0.0
 10
41.409608
 20
706.949724
 30
0.0
 10
40.783088
 20
709.142524
 30
0.0
 10
40.156544
 20
711.648580
 30
0.0
  0
LWPOLYLINE
  5
170
100
AcDbEntity
  8
Layer_1
 62
5
100
AcDbPolyline
 90
2
 70
0
 10
60.518360
 20
685.648188
 30
0.0
 10
60.518360
 20
690.973564
 30
0.0
  0
LWPOLYLINE
  5
171
100
AcDbEntity
  8
Layer_1
 62
5
100
AcDbPolyline
 90
2
 70
0
 10
40.156576
 20
711.648604
 30
0.0
 10
48.927816
 20
711.648604
 30
0.0
  0
LWPOLYLINE
  5
172
100
AcDbEntity
  8
Layer_1
 62
5
100
AcDbPolyline
 90
65
 70
0
 10
160.134392
 20
628.635244
 30
0.0
 10
158.568104
 20
628.635244
 30
0.0
 10
156.688560
 20
628.635244
 30
0.0
 10
155.122280
 20
628.948500
 30
0.0
 10
153.242736
 20
628.948500
 30
0.0
 10
151.676416
 20
628.948500
 30
0.0
 10
149.796872
 20
629.261756
 30
0.0
 10
148.230584
 20
629.261756
 30
0.0
 10
146.351040
 20
629.575012
 30
0.0
 10
144.784760
 20
629.888268
 30
0.0
 10
143.218472
 20
629.888268
 30
0.0
 10
141.338928
 20
630.201524
 30
0.0
 10
139.772640
 20
630.514788
 30
0.0
 10
138.206328
 20
630.828044
 30
0.0
 10
136.326784
 20
631.141300
 30
0.0
 10
134.760496
 20
631.454556
 30
0.0
 10
133.194208
 20
632.081068
 30
0.0
 10
131.627920
 20
632.394332
 30
0.0
 10
129.748376
 20
632.707588
 30
0.0
 10
128.182088
 20
633.334100
 30
0.0
 10
126.615800
 20
633.647356
 30
0.0
 10
125.049512
 20
634.273876
 30
0.0
 10
123.483200
 20
634.900388
 30
0.0
 10
121.916912
 20
635.213644
 30
0.0
 10
120.350624
 20
635.840156
 30
0.0
 10
118.784344
 20
636.466700
 30
0.0
 10
117.218056
 20
637.093188
 30
0.0
 10
115.651768
 20
637.719732
 30
0.0
 10
114.085480
 20
638.346244
 30
0.0
 10
112.519192
 20
638.972764
 30
0.0
 10
111.266168
 20
639.599276
 30
0.0
 10
109.699848
 20
640.539052
 30
0.0
 10
108.133560
 20
641.165564
 30
0.0
 10
106.567280
 20
641.792076
 30
0.0
 10
105.314248
 20
642.731852
 30
0.0
 10
103.747960
 20
643.358364
 30
0.0
 10
102.494928
 20
644.298140
 30
0.0
 10
100.928648
 20
644.924652
 30
0.0
 10
99.675616
 20
645.864420
 30
0.0
 10
98.109328
 20
646.804196
 30
0.0
 10
96.856296
 20
647.743964
 30
0.0
 10
95.603240
 20
648.683740
 30
0.0
 10
94.036952
 20
649.623508
 30
0.0
 10
92.783928
 20
650.563308
 30
0.0
 10
91.530896
 20
651.503084
 30
0.0
 10
90.277864
 20
652.442852
 30
0.0
 10
89.024840
 20
653.382628
 30
0.0
 10
87.458552
 20
654.322396
 30
0.0
 10
86.205520
 20
655.262172
 30
0.0
 10
85.265752
 20
656.515196
 30
0.0
 10
84.012720
 20
657.454972
 30
0.0
 10
82.759688
 20
658.708004
 30
0.0
 10
81.506632
 20
659.647772
 30
0.0
 10
80.253600
 20
660.900804
 30
0.0
 10
79.313832
 20
661.840572
 30
0.0
 10
78.060800
 20
663.093604
 30
0.0
 10
76.807776
 20
664.346636
 30
0.0
 10
75.868000
 20
665.286436
 30
0.0
 10
74.614968
 20
666.539460
 30
0.0
 10
73.675200
 20
667.792492
 30
0.0
 10
72.735424
 20
669.045524
 30
0.0
 10
71.795656
 20
670.298548
 30
0.0
 10
70.542624
 20
671.551580
 30
0.0
 10
69.602856
 20
672.804612
 30
0.0
 10
68.663056
 20
674.057636
 30
0.0
  0
LWPOLYLINE
  5
173
100
AcDbEntity
  8
Layer_1
 62
5
100
AcDbPolyline
 90
27
 70
0
 10
60.518360
 20
685.648188
 30
0.0
 10
59.578592
 20
686.901220
 30
0.0
 10
58.952080
 20
688.154244
 30
0.0
 10
58.012304
 20
689.720532
 30
0.0
 10
57.699048
 20
690.347052
 30
0.0
 10
57.072536
 20
691.286820
 30
0.0
 10
56.759272
 20
691.913332
 30
0.0
 10
56.132760
 20
692.853108
 30
0.0
 10
55.819504
 20
693.792908
 30
0.0
 10
55.506248
 20
694.419420
 30
0.0
 10
54.879728
 20
695.359196
 30
0.0
 10
54.566472
 20
696.298964
 30
0.0
 10
54.253192
 20
697.238740
 30
0.0
 10
53.626672
 20
698.178508
 30
0.0
 10
53.313416
 20
699.118284
 30
0.0
 10
53.000160
 20
700.058052
 30
0.0
 10
52.373640
 20
700.997828
 30
0.0
 10
52.060384
 20
701.937596
 30
0.0
 10
51.747128
 20
702.877372
 30
0.0
 10
51.433872
 20
703.817140
 30
0.0
 10
51.120616
 20
704.756916
 30
0.0
 10
50.807360
 20
705.383428
 30
0.0
 10
50.494096
 20
706.323204
 30
0.0
 10
50.180840
 20
707.263004
 30
0.0
 10
49.554328
 20
708.829292
 30
0.0
 10
49.241072
 20
710.395572
 30
0.0
 10
48.927816
 20
711.648604
 30
0.0
  0
LWPOLYLINE
  5
174
100
AcDbEntity
  8
Layer_1
 62
5
100
AcDbPolyline
 90
2
 70
0
 10
60.831624
 20
690.973564
 30
0.0
 10
68.663056
 20
690.973564
 30
0.0
  0
LWPOLYLINE
  5
175
100
AcDbEntity
  8
Layer_1
 62
5
100
AcDbPolyline
 90
2
 70
0
 10
68.663056
 20
674.057636
 30
0.0
 10
68.663056
 20
690.973564
 30
0.0
  0
LWPOLYLINE
  5
176
100
AcDbEntity
  8
Layer_1
 62
5
100
AcDbPolyline
 90
2
 70
0
 10
251.605752
 20
672.804612
 30
0.0
 10
251.605752
 20
690.973564
 30
0.0
  0
LWPOLYLINE
  5
177
100
AcDbEntity
  8
Layer_1
 62
5
100
AcDbPolyline
 90
2
 70
0
 10
259.750440
 20
690.973564
 30
0.0
 10
251.605752
 20
690.973564
 30
0.0
  0
LWPOLYLINE
  5
178
100
AcDbEntity
  8
Layer_1
 62
5
100
AcDbPolyline
 90
2
 70
0
 10
259.750440
 20
685.334932
 30
0.0
 10
259.750440
 20
690.973564
 30
0.0
  0
LWPOLYLINE
  5
179
100
AcDbEntity
  8
Layer_1
 62
5
100
AcDbPolyline
 90
25
 70
0
 10
271.654248
 20
711.648604
 30
0.0
 10
271.340992
 20
710.395572
 30
0.0
 10
271.027736
 20
709.142548
 30
0.0
 10
270.401216
 20
707.889516
 30
0.0
 10
270.087960
 20
706.323204
 30
0.0
 10
269.461448
 20
704.756916
 30
0.0
 10
268.834928
 20
703.503884
 30
0.0
 10
268.208416
 20
701.624340
 30
0.0
 10
267.268648
 20
700.058052
 30
0.0
 10
266.955384
 20
699.431540
 30
0.0
 10
266.642128
 20
698.491764
 30
0.0
 10
266.328872
 20
697.551996
 30
0.0
 10
265.702360
 20
696.612220
 30
0.0
 10
265.389104
 20
695.985708
 30
0.0
 10
265.075816
 20
695.045940
 30
0.0
 10
264.449304
 20
694.106164
 30
0.0
 10
264.136040
 20
693.166396
 30
0.0
 10
263.509528
 20
692.226596
 30
0.0
 10
262.883016
 20
691.286820
 30
0.0
 10
262.569760
 20
690.347052
 30
0.0
 10
261.943240
 20
689.407276
 30
0.0
 10
261.316728
 20
688.467508
 30
0.0
 10
261.003472
 20
687.214476
 30
0.0
 10
260.376952
 20
686.274700
 30
0.0
 10
259.750440
 20
685.334932
 30
0.0
  0
LWPOLYLINE
  5
17a
100
AcDbEntity
  8
Layer_1
 62
5
100
AcDbPolyline
 90
65
 70
0
 10
251.605752
 20
672.804612
 30
0.0
 10
250.665952
 20
671.864836
 30
0.0
 10
249.412920
 20
670.611812
 30
0.0
 10
248.473144
 20
669.358780
 30
0.0
 10
247.533376
 20
668.105748
 30
0.0
 10
246.593600
 20
667.165980
 30
0.0
 10
245.340576
 20
665.912948
 30
0.0
 10
244.400800
 20
664.973180
 30
0.0
 10
243.461032
 20
663.720116
 30
0.0
 10
242.207984
 20
662.780348
 30
0.0
 10
241.268216
 20
661.527316
 30
0.0
 10
240.015184
 20
660.587548
 30
0.0
 10
238.762160
 20
659.334516
 30
0.0
 10
237.822384
 20
658.394740
 30
0.0
 10
236.569328
 20
657.454972
 30
0.0
 10
235.316296
 20
656.201940
 30
0.0
 10
234.063264
 20
655.262172
 30
0.0
 10
232.810240
 20
654.322396
 30
0.0
 10
231.870464
 20
653.382628
 30
0.0
 10
230.617440
 20
652.442852
 30
0.0
 10
229.051152
 20
651.503084
 30
0.0
 10
227.798120
 20
650.563308
 30
0.0
 10
226.545088
 20
649.623508
 30
0.0
 10
225.292064
 20
648.683740
 30
0.0
 10
224.039032
 20
647.743964
 30
0.0
 10
222.786000
 20
646.804196
 30
0.0
 10
221.219688
 20
646.177676
 30
0.0
 10
219.966656
 20
645.237908
 30
0.0
 10
218.713632
 20
644.611396
 30
0.0
 10
217.147344
 20
643.671620
 30
0.0
 10
215.894312
 20
642.731852
 30
0.0
 10
214.328024
 20
642.105332
 30
0.0
 10
212.761744
 20
641.478820
 30
0.0
 10
211.508712
 20
640.539052
 30
0.0
 10
209.942424
 20
639.912532
 30
0.0
 10
208.376112
 20
639.286020
 30
0.0
 10
207.123080
 20
638.659500
 30
0.0
 10
205.556792
 20
638.032988
 30
0.0
 10
203.990504
 20
637.406476
 30
0.0
 10
202.424224
 20
636.779932
 30
0.0
 10
200.857936
 20
636.153444
 30
0.0
 10
199.291648
 20
635.526900
 30
0.0
 10
197.725360
 20
634.900388
 30
0.0
 10
196.159072
 20
634.587132
 30
0.0
 10
194.592760
 20
633.960612
 30
0.0
 10
193.026472
 20
633.334100
 30
0.0
 10
191.460184
 20
633.020844
 30
0.0
 10
189.580640
 20
632.707588
 30
0.0
 10
188.014352
 20
632.081068
 30
0.0
 10
186.448064
 20
631.767812
 30
0.0
 10
184.881784
 20
631.454556
 30
0.0
 10
183.002240
 20
631.141300
 30
0.0
 10
181.435952
 20
630.828044
 30
0.0
 10
179.556376
 20
630.514788
 30
0.0
 10
177.990088
 20
630.201524
 30
0.0
 10
176.110544
 20
629.888268
 30
0.0
 10
174.544264
 20
629.575012
 30
0.0
 10
172.664720
 20
629.261756
 30
0.0
 10
171.098432
 20
629.261756
 30
0.0
 10
169.218888
 20
628.948500
 30
0.0
 10
167.339344
 20
628.948500
 30
0.0
 10
165.459768
 20
628.635244
 30
0.0
 10
163.893480
 20
628.635244
 30
0.0
 10
162.013936
 20
628.635244
 30
0.0
 10
160.134392
 20
628.635244
 30
0.0
  0
LWPOLYLINE
  5
17b
100
AcDbEntity
  8
Layer_1
 62
5
100
AcDbPolyline
 90
63
 70
0
 10
280.112224
 20
711.648604
 30
0.0
 10
279.485712
 20
709.142548
 30
0.0
 10
278.859168
 20
706.636460
 30
0.0
 10
277.919392
 20
704.443660
 30
0.0
 10
277.292880
 20
701.937596
 30
0.0
 10
276.353104
 20
699.431540
 30
0.0
 10
275.413336
 20
697.238740
 30
0.0
 10
274.160304
 20
695.045940
 30
0.0
 10
273.220536
 20
692.539852
 30
0.0
 10
272.280760
 20
690.347052
 30
0.0
 10
271.027736
 20
688.154244
 30
0.0
 10
269.774704
 20
685.961444
 30
0.0
 10
268.521672
 20
683.768644
 30
0.0
 10
267.268648
 20
681.575844
 30
0.0
 10
266.015616
 20
679.383044
 30
0.0
 10
264.762560
 20
677.190212
 30
0.0
 10
263.509528
 20
675.310668
 30
0.0
 10
261.943240
 20
673.117868
 30
0.0
 10
260.376952
 20
671.238324
 30
0.0
 10
259.123928
 20
669.045524
 30
0.0
 10
257.557640
 20
667.165980
 30
0.0
 10
255.991352
 20
665.286436
 30
0.0
 10
254.111808
 20
663.406860
 30
0.0
 10
252.545520
 20
661.527316
 30
0.0
 10
250.979208
 20
659.647772
 30
0.0
 10
249.099664
 20
657.768228
 30
0.0
 10
247.533376
 20
656.201940
 30
0.0
 10
245.653832
 20
654.322396
 30
0.0
 10
243.774288
 20
652.756108
 30
0.0
 10
241.894728
 20
651.189828
 30
0.0
 10
240.015184
 20
649.310252
 30
0.0
 10
238.135640
 20
647.743964
 30
0.0
 10
236.256072
 20
646.177676
 30
0.0
 10
234.063264
 20
644.924652
 30
0.0
 10
232.183720
 20
643.358364
 30
0.0
 10
229.990920
 20
641.792076
 30
0.0
 10
228.111376
 20
640.539052
 30
0.0
 10
225.918576
 20
639.286020
 30
0.0
 10
223.725776
 20
638.032988
 30
0.0
 10
221.532944
 20
636.779932
 30
0.0
 10
219.340144
 20
635.526900
 30
0.0
 10
217.147344
 20
634.273876
 30
0.0
 10
214.954544
 20
633.020844
 30
0.0
 10
212.761744
 20
632.081068
 30
0.0
 10
210.255680
 20
631.141300
 30
0.0
 10
208.062856
 20
629.888268
 30
0.0
 10
205.556792
 20
628.948500
 30
0.0
 10
203.363992
 20
628.008724
 30
0.0
 10
200.857936
 20
627.382212
 30
0.0
 10
198.665128
 20
626.442436
 30
0.0
 10
196.159072
 20
625.815924
 30
0.0
 10
193.652984
 20
624.876156
 30
0.0
 10
191.146928
 20
624.249636
 30
0.0
 10
188.640872
 20
623.623124
 30
0.0
 10
186.134808
 20
623.309868
 30
0.0
 10
183.628752
 20
622.683348
 30
0.0
 10
181.122696
 20
622.056812
 30
0.0
 10
178.616608
 20
621.743548
 30
0.0
 10
176.110544
 20
621.430292
 30
0.0
 10
173.291232
 20
621.117036
 30
0.0
 10
170.785176
 20
620.803780
 30
0.0
 10
169.010104
 20
620.581900
 30
0.0
 10
168.977144
 20
621.110996
 30
0.0
  0
LWPOLYLINE
  5
17c
100
AcDbEntity
  8
Layer_1
 62
5
100
AcDbPolyline
 90
2
 70
0
 10
271.654248
 20
711.648604
 30
0.0
 10
280.425480
 20
711.648604
 30
0.0
  0
LWPOLYLINE
  5
17d
100
AcDbEntity
  8
Layer_1
 62
5
100
AcDbPolyline
 90
64
 70
0
 10
168.976160
 20
587.510996
 30
0.0
 10
151.643680
 20
587.472196
 30
0.0
 10
151.599840
 20
586.968620
 30
0.0
 10
149.483584
 20
587.203756
 30
0.0
 10
146.977528
 20
587.517012
 30
0.0
 10
144.471464
 20
587.830268
 30
0.0
 10
141.652152
 20
588.143524
 30
0.0
 10
139.146096
 20
588.456788
 30
0.0
 10
136.640008
 20
589.083324
 30
0.0
 10
134.133944
 20
589.709844
 30
0.0
 10
131.627888
 20
590.023100
 30
0.0
 10
129.121832
 20
590.649612
 30
0.0
 10
126.615768
 20
591.276132
 30
0.0
 10
124.109680
 20
592.215900
 30
0.0
 10
121.603624
 20
592.842412
 30
0.0
 10
119.410824
 20
593.782188
 30
0.0
 10
116.904768
 20
594.721956
 30
0.0
 10
114.711960
 20
595.348476
 30
0.0
 10
112.205904
 20
596.288244
 30
0.0
 10
110.013072
 20
597.541276
 30
0.0
 10
107.507016
 20
598.481044
 30
0.0
 10
105.314216
 20
599.420820
 30
0.0
 10
103.121416
 20
600.673852
 30
0.0
 10
100.928616
 20
601.926876
 30
0.0
 10
98.735808
 20
603.179908
 30
0.0
 10
96.542984
 20
604.432964
 30
0.0
 10
94.350184
 20
605.685996
 30
0.0
 10
92.157376
 20
606.939028
 30
0.0
 10
90.277832
 20
608.505308
 30
0.0
 10
88.085032
 20
609.758340
 30
0.0
 10
86.205488
 20
611.324628
 30
0.0
 10
84.012688
 20
612.890916
 30
0.0
 10
82.133112
 20
614.457196
 30
0.0
 10
80.253568
 20
616.023484
 30
0.0
 10
78.374024
 20
617.589804
 30
0.0
 10
76.494480
 20
619.156084
 30
0.0
 10
74.614936
 20
620.722372
 30
0.0
 10
73.048656
 20
622.601916
 30
0.0
 10
71.169112
 20
624.481460
 30
0.0
 10
69.289568
 20
626.047748
 30
0.0
 10
67.723248
 20
627.927292
 30
0.0
 10
66.156960
 20
629.806836
 30
0.0
 10
64.590680
 20
631.686412
 30
0.0
 10
63.024392
 20
633.565956
 30
0.0
 10
61.458104
 20
635.758756
 30
0.0
 10
59.891816
 20
637.638300
 30
0.0
 10
58.325528
 20
639.517844
 30
0.0
 10
57.072504
 20
641.710644
 30
0.0
 10
55.506216
 20
643.903444
 30
0.0
 10
54.253160
 20
645.783020
 30
0.0
 10
53.000128
 20
647.975820
 30
0.0
 10
51.747096
 20
650.168620
 30
0.0
 10
50.494064
 20
652.361420
 30
0.0
 10
49.241040
 20
654.554220
 30
0.0
 10
48.301264
 20
656.747028
 30
0.0
 10
47.048240
 20
659.253084
 30
0.0
 10
46.108464
 20
661.445916
 30
0.0
 10
45.168696
 20
663.638716
 30
0.0
 10
44.228920
 20
666.144772
 30
0.0
 10
43.289152
 20
668.337572
 30
0.0
 10
42.349376
 20
670.843636
 30
0.0
 10
41.409608
 20
673.349724
 30
0.0
 10
40.783088
 20
675.542524
 30
0.0
 10
40.156544
 20
678.048580
 30
0.0
  0
LWPOLYLINE
  5
17e
100
AcDbEntity
  8
Layer_1
 62
5
100
AcDbPolyline
 90
2
 70
0
 10
60.518360
 20
652.048188
 30
0.0
 10
60.518360
 20
657.373564
 30
0.0
  0
LWPOLYLINE
  5
17f
100
AcDbEntity
  8
Layer_1
 62
5
100
AcDbPolyline
 90
2
 70
0
 10
40.156576
 20
678.048604
 30
0.0
 10
48.927816
 20
678.048604
 30
0.0
  0
LWPOLYLINE
  5
180
100
AcDbEntity
  8
Layer_1
 62
5
100
AcDbPolyline
 90
65
 70
0
 10
160.134392
 20
595.035244
 30
0.0
 10
158.568104
 20
595.035244
 30
0.0
 10
156.688560
 20
595.035244
 30
0.0
 10
155.122280
 20
595.348500
 30
0.0
 10
153.242736
 20
595.348500
 30
0.0
 10
151.676416
 20
595.348500
 30
0.0
 10
149.796872
 20
595.661756
 30
0.0
 10
148.230584
 20
595.661756
 30
0.0
 10
146.351040
 20
595.975012
 30
0.0
 10
144.784760
 20
596.288268
 30
0.0
 10
143.218472
 20
596.288268
 30
0.0
 10
141.338928
 20
596.601524
 30
0.0
 10
139.772640
 20
596.914788
 30
0.0
 10
138.206328
 20
597.228044
 30
0.0
 10
136.326784
 20
597.541300
 30
0.0
 10
134.760496
 20
597.854556
 30
0.0
 10
133.194208
 20
598.481068
 30
0.0
 10
131.627920
 20
598.794332
 30
0.0
 10
129.748376
 20
599.107588
 30
0.0
 10
128.182088
 20
599.734100
 30
0.0
 10
126.615800
 20
600.047356
 30
0.0
 10
125.049512
 20
600.673876
 30
0.0
 10
123.483200
 20
601.300388
 30
0.0
 10
121.916912
 20
601.613644
 30
0.0
 10
120.350624
 20
602.240156
 30
0.0
 10
118.784344
 20
602.866700
 30
0.0
 10
117.218056
 20
603.493188
 30
0.0
 10
115.651768
 20
604.119732
 30
0.0
 10
114.085480
 20
604.746244
 30
0.0
 10
112.519192
 20
605.372764
 30
0.0
 10
111.266168
 20
605.999276
 30
0.0
 10
109.699848
 20
606.939052
 30
0.0
 10
108.133560
 20
607.565564
 30
0.0
 10
106.567280
 20
608.192076
 30
0.0
 10
105.314248
 20
609.131852
 30
0.0
 10
103.747960
 20
609.758364
 30
0.0
 10
102.494928
 20
610.698140
 30
0.0
 10
100.928648
 20
611.324652
 30
0.0
 10
99.675616
 20
612.264420
 30
0.0
 10
98.109328
 20
613.204196
 30
0.0
 10
96.856296
 20
614.143964
 30
0.0
 10
95.603240
 20
615.083740
 30
0.0
 10
94.036952
 20
616.023508
 30
0.0
 10
92.783928
 20
616.963308
 30
0.0
 10
91.530896
 20
617.903084
 30
0.0
 10
90.277864
 20
618.842852
 30
0.0
 10
89.024840
 20
619.782628
 30
0.0
 10
87.458552
 20
620.722396
 30
0.0
 10
86.205520
 20
621.662172
 30
0.0
 10
85.265752
 20
622.915196
 30
0.0
 10
84.012720
 20
623.854972
 30
0.0
 10
82.759688
 20
625.108004
 30
0.0
 10
81.506632
 20
626.047772
 30
0.0
 10
80.253600
 20
627.300804
 30
0.0
 10
79.313832
 20
628.240572
 30
0.0
 10
78.060800
 20
629.493604
 30
0.0
 10
76.807776
 20
630.746636
 30
0.0
 10
75.868000
 20
631.686436
 30
0.0
 10
74.614968
 20
632.939460
 30
0.0
 10
73.675200
 20
634.192492
 30
0.0
 10
72.735424
 20
635.445524
 30
0.0
 10
71.795656
 20
636.698548
 30
0.0
 10
70.542624
 20
637.951580
 30
0.0
 10
69.602856
 20
639.204612
 30
0.0
 10
68.663056
 20
640.457636
 30
0.0
  0
LWPOLYLINE
  5
181
100
AcDbEntity
  8
Layer_1
 62
5
100
AcDbPolyline
 90
27
 70
0
 10
60.518360
 20
652.048188
 30
0.0
 10
59.578592
 20
653.301220
 30
0.0
 10
58.952080
 20
654.554244
 30
0.0
 10
58.012304
 20
656.120532
 30
0.0
 10
57.699048
 20
656.747052
 30
0.0
 10
57.072536
 20
657.686820
 30
0.0
 10
56.759272
 20
658.313332
 30
0.0
 10
56.132760
 20
659.253108
 30
0.0
 10
55.819504
 20
660.192908
 30
0.0
 10
55.506248
 20
660.819420
 30
0.0
 10
54.879728
 20
661.759196
 30
0.0
 10
54.566472
 20
662.698964
 30
0.0
 10
54.253192
 20
663.638740
 30
0.0
 10
53.626672
 20
664.578508
 30
0.0
 10
53.313416
 20
665.518284
 30
0.0
 10
53.000160
 20
666.458052
 30
0.0
 10
52.373640
 20
667.397828
 30
0.0
 10
52.060384
 20
668.337596
 30
0.0
 10
51.747128
 20
669.277372
 30
0.0
 10
51.433872
 20
670.217140
 30
0.0
 10
51.120616
 20
671.156916
 30
0.0
 10
50.807360
 20
671.783428
 30
0.0
 10
50.494096
 20
672.723204
 30
0.0
 10
50.180840
 20
673.663004
 30
0.0
 10
49.554328
 20
675.229292
 30
0.0
 10
49.241072
 20
676.795572
 30
0.0
 10
48.927816
 20
678.048604
 30
0.0
  0
LWPOLYLINE
  5
182
100
AcDbEntity
  8
Layer_1
 62
5
100
AcDbPolyline
 90
2
 70
0
 10
60.831624
 20
657.373564
 30
0.0
 10
68.663056
 20
657.373564
 30
0.0
  0
LWPOLYLINE
  5
183
100
AcDbEntity
  8
Layer_1
 62
5
100
AcDbPolyline
 90
2
 70
0
 10
68.663056
 20
640.457636
 30
0.0
 10
68.663056
 20
657.373564
 30
0.0
  0
LWPOLYLINE
  5
184
100
AcDbEntity
  8
Layer_1
 62
5
100
AcDbPolyline
 90
2
 70
0
 10
251.605752
 20
639.204612
 30
0.0
 10
251.605752
 20
657.373564
 30
0.0
  0
LWPOLYLINE
  5
185
100
AcDbEntity
  8
Layer_1
 62
5
100
AcDbPolyline
 90
2
 70
0
 10
259.750440
 20
657.373564
 30
0.0
 10
251.605752
 20
657.373564
 30
0.0
  0
LWPOLYLINE
  5
186
100
AcDbEntity
  8
Layer_1
 62
5
100
AcDbPolyline
 90
2
 70
0
 10
259.750440
 20
651.734932
 30
0.0
 10
259.750440
 20
657.373564
 30
0.0
  0
LWPOLYLINE
  5
187
100
AcDbEntity
  8
Layer_1
 62
5
100
AcDbPolyline
 90
25
 70
0
 10
271.654248
 20
678.048604
 30
0.0
 10
271.340992
 20
676.795572
 30
0.0
 10
271.027736
 20
675.542548
 30
0.0
 10
270.401216
 20
674.289516
 30
0.0
 10
270.087960
 20
672.723204
 30
0.0
 10
269.461448
 20
671.156916
 30
0.0
 10
268.834928
 20
669.903884
 30
0.0
 10
268.208416
 20
668.024340
 30
0.0
 10
267.268648
 20
666.458052
 30
0.0
 10
266.955384
 20
665.831540
 30
0.0
 10
266.642128
 20
664.891764
 30
0.0
 10
266.328872
 20
663.951996
 30
0.0
 10
265.702360
 20
663.012220
 30
0.0
 10
265.389104
 20
662.385708
 30
0.0
 10
265.075816
 20
661.445940
 30
0.0
 10
264.449304
 20
660.506164
 30
0.0
 10
264.136040
 20
659.566396
 30
0.0
 10
263.509528
 20
658.626596
 30
0.0
 10
262.883016
 20
657.686820
 30
0.0
 10
262.569760
 20
656.747052
 30
0.0
 10
261.943240
 20
655.807276
 30
0.0
 10
261.316728
 20
654.867508
 30
0.0
 10
261.003472
 20
653.614476
 30
0.0
 10
260.376952
 20
652.674700
 30
0.0
 10
259.750440
 20
651.734932
 30
0.0
  0
LWPOLYLINE
  5
188
100
AcDbEntity
  8
Layer_1
 62
5
100
AcDbPolyline
 90
65
 70
0
 10
251.605752
 20
639.204612
 30
0.0
 10
250.665952
 20
638.264836
 30
0.0
 10
249.412920
 20
637.011812
 30
0.0
 10
248.473144
 20
635.758780
 30
0.0
 10
247.533376
 20
634.505748
 30
0.0
 10
246.593600
 20
633.565980
 30
0.0
 10
245.340576
 20
632.312948
 30
0.0
 10
244.400800
 20
631.373180
 30
0.0
 10
243.461032
 20
630.120116
 30
0.0
 10
242.207984
 20
629.180348
 30
0.0
 10
241.268216
 20
627.927316
 30
0.0
 10
240.015184
 20
626.987548
 30
0.0
 10
238.762160
 20
625.734516
 30
0.0
 10
237.822384
 20
624.794740
 30
0.0
 10
236.569328
 20
623.854972
 30
0.0
 10
235.316296
 20
622.601940
 30
0.0
 10
234.063264
 20
621.662172
 30
0.0
 10
232.810240
 20
620.722396
 30
0.0
 10
231.870464
 20
619.782628
 30
0.0
 10
230.617440
 20
618.842852
 30
0.0
 10
229.051152
 20
617.903084
 30
0.0
 10
227.798120
 20
616.963308
 30
0.0
 10
226.545088
 20
616.023508
 30
0.0
 10
225.292064
 20
615.083740
 30
0.0
 10
224.039032
 20
614.143964
 30
0.0
 10
222.786000
 20
613.204196
 30
0.0
 10
221.219688
 20
612.577676
 30
0.0
 10
219.966656
 20
611.637908
 30
0.0
 10
218.713632
 20
611.011396
 30
0.0
 10
217.147344
 20
610.071620
 30
0.0
 10
215.894312
 20
609.131852
 30
0.0
 10
214.328024
 20
608.505332
 30
0.0
 10
212.761744
 20
607.878820
 30
0.0
 10
211.508712
 20
606.939052
 30
0.0
 10
209.942424
 20
606.312532
 30
0.0
 10
208.376112
 20
605.686020
 30
0.0
 10
207.123080
 20
605.059500
 30
0.0
 10
205.556792
 20
604.432988
 30
0.0
 10
203.990504
 20
603.806476
 30
0.0
 10
202.424224
 20
603.179932
 30
0.0
 10
200.857936
 20
602.553444
 30
0.0
 10
199.291648
 20
601.926900
 30
0.0
 10
197.725360
 20
601.300388
 30
0.0
 10
196.159072
 20
600.987132
 30
0.0
 10
194.592760
 20
600.360612
 30
0.0
 10
193.026472
 20
599.734100
 30
0.0
 10
191.460184
 20
599.420844
 30
0.0
 10
189.580640
 20
599.107588
 30
0.0
 10
188.014352
 20
598.481068
 30
0.0
 10
186.448064
 20
598.167812
 30
0.0
 10
184.881784
 20
597.854556
 30
0.0
 10
183.002240
 20
597.541300
 30
0.0
 10
181.435952
 20
597.228044
 30
0.0
 10
179.556376
 20
596.914788
 30
0.0
 10
177.990088
 20
596.601524
 30
0.0
 10
176.110544
 20
596.288268
 30
0.0
 10
174.544264
 20
595.975012
 30
0.0
 10
172.664720
 20
595.661756
 30
0.0
 10
171.098432
 20
595.661756
 30
0.0
 10
169.218888
 20
595.348500
 30
0.0
 10
167.339344
 20
595.348500
 30
0.0
 10
165.459768
 20
595.035244
 30
0.0
 10
163.893480
 20
595.035244
 30
0.0
 10
162.013936
 20
595.035244
 30
0.0
 10
160.134392
 20
595.035244
 30
0.0
  0
LWPOLYLINE
  5
189
100
AcDbEntity
  8
Layer_1
 62
5
100
AcDbPolyline
 90
63
 70
0
 10
280.112224
 20
678.048604
 30
0.0
 10
279.485712
 20
675.542548
 30
0.0
 10
278.859168
 20
673.036460
 30
0.0
 10
277.919392
 20
670.843660
 30
0.0
 10
277.292880
 20
668.337596
 30
0.0
 10
276.353104
 20
665.831540
 30
0.0
 10
275.413336
 20
663.638740
 30
0.0
 10
274.160304
 20
661.445940
 30
0.0
 10
273.220536
 20
658.939852
 30
0.0
 10
272.280760
 20
656.747052
 30
0.0
 10
271.027736
 20
654.554244
 30
0.0
 10
269.774704
 20
652.361444
 30
0.0
 10
268.521672
 20
650.168644
 30
0.0
 10
267.268648
 20
647.975844
 30
0.0
 10
266.015616
 20
645.783044
 30
0.0
 10
264.762560
 20
643.590212
 30
0.0
 10
263.509528
 20
641.710668
 30
0.0
 10
261.943240
 20
639.517868
 30
0.0
 10
260.376952
 20
637.638324
 30
0.0
 10
259.123928
 20
635.445524
 30
0.0
 10
257.557640
 20
633.565980
 30
0.0
 10
255.991352
 20
631.686436
 30
0.0
 10
254.111808
 20
629.806860
 30
0.0
 10
252.545520
 20
627.927316
 30
0.0
 10
250.979208
 20
626.047772
 30
0.0
 10
249.099664
 20
624.168228
 30
0.0
 10
247.533376
 20
622.601940
 30
0.0
 10
245.653832
 20
620.722396
 30
0.0
 10
243.774288
 20
619.156108
 30
0.0
 10
241.894728
 20
617.589828
 30
0.0
 10
240.015184
 20
615.710252
 30
0.0
 10
238.135640
 20
614.143964
 30
0.0
 10
236.256072
 20
612.577676
 30
0.0
 10
234.063264
 20
611.324652
 30
0.0
 10
232.183720
 20
609.758364
 30
0.0
 10
229.990920
 20
608.192076
 30
0.0
 10
228.111376
 20
606.939052
 30
0.0
 10
225.918576
 20
605.686020
 30
0.0
 10
223.725776
 20
604.432988
 30
0.0
 10
221.532944
 20
603.179932
 30
0.0
 10
219.340144
 20
601.926900
 30
0.0
 10
217.147344
 20
600.673876
 30
0.0
 10
214.954544
 20
599.420844
 30
0.0
 10
212.761744
 20
598.481068
 30
0.0
 10
210.255680
 20
597.541300
 30
0.0
 10
208.062856
 20
596.288268
 30
0.0
 10
205.556792
 20
595.348500
 30
0.0
 10
203.363992
 20
594.408724
 30
0.0
 10
200.857936
 20
593.782212
 30
0.0
 10
198.665128
 20
592.842436
 30
0.0
 10
196.159072
 20
592.215924
 30
0.0
 10
193.652984
 20
591.276156
 30
0.0
 10
191.146928
 20
590.649636
 30
0.0
 10
188.640872
 20
590.023124
 30
0.0
 10
186.134808
 20
589.709868
 30
0.0
 10
183.628752
 20
589.083348
 30
0.0
 10
181.122696
 20
588.456812
 30
0.0
 10
178.616608
 20
588.143548
 30
0.0
 10
176.110544
 20
587.830292
 30
0.0
 10
173.291232
 20
587.517036
 30
0.0
 10
170.785176
 20
587.203780
 30
0.0
 10
169.010104
 20
586.981900
 30
0.0
 10
168.977144
 20
587.510996
 30
0.0
  0
LWPOLYLINE
  5
18a
100
AcDbEntity
  8
Layer_1
 62
5
100
AcDbPolyline
 90
2
 70
0
 10
271.654248
 20
678.048604
 30
0.0
 10
280.425480
 20
678.048604
 30
0.0
  0
LWPOLYLINE
  5
18b
100
AcDbEntity
  8
Layer_1
 62
5
100
AcDbPolyline
 90
64
 70
0
 10
168.976160
 20
555.510996
 30
0.0
 10
151.643680
 20
555.472196
 30
0.0
 10
151.599840
 20
554.968620
 30
0.0
 10
149.483584
 20
555.203756
 30
0.0
 10
146.977528
 20
555.517012
 30
0.0
 10
144.471464
 20
555.830268
 30
0.0
 10
141.652152
 20
556.143524
 30
0.0
 10
139.146096
 20
556.456788
 30
0.0
 10
136.640008
 20
557.083324
 30
0.0
 10
134.133944
 20
557.709844
 30
0.0
 10
131.627888
 20
558.023100
 30
0.0
 10
129.121832
 20
558.649612
 30
0.0
 10
126.615768
 20
559.276132
 30
0.0
 10
124.109680
 20
560.215900
 30
0.0
 10
121.603624
 20
560.842412
 30
0.0
 10
119.410824
 20
561.782188
 30
0.0
 10
116.904768
 20
562.721956
 30
0.0
 10
114.711960
 20
563.348476
 30
0.0
 10
112.205904
 20
564.288244
 30
0.0
 10
110.013072
 20
565.541276
 30
0.0
 10
107.507016
 20
566.481044
 30
0.0
 10
105.314216
 20
567.420820
 30
0.0
 10
103.121416
 20
568.673852
 30
0.0
 10
100.928616
 20
569.926876
 30
0.0
 10
98.735808
 20
571.179908
 30
0.0
 10
96.542984
 20
572.432964
 30
0.0
 10
94.350184
 20
573.685996
 30
0.0
 10
92.157376
 20
574.939028
 30
0.0
 10
90.277832
 20
576.505308
 30
0.0
 10
88.085032
 20
577.758340
 30
0.0
 10
86.205488
 20
579.324628
 30
0.0
 10
84.012688
 20
580.890916
 30
0.0
 10
82.133112
 20
582.457196
 30
0.0
 10
80.253568
 20
584.023484
 30
0.0
 10
78.374024
 20
585.589804
 30
0.0
 10
76.494480
 20
587.156084
 30
0.0
 10
74.614936
 20
588.722372
 30
0.0
 10
73.048656
 20
590.601916
 30
0.0
 10
71.169112
 20
592.481460
 30
0.0
 10
69.289568
 20
594.047748
 30
0.0
 10
67.723248
 20
595.927292
 30
0.0
 10
66.156960
 20
597.806836
 30
0.0
 10
64.590680
 20
599.686412
 30
0.0
 10
63.024392
 20
601.565956
 30
0.0
 10
61.458104
 20
603.758756
 30
0.0
 10
59.891816
 20
605.638300
 30
0.0
 10
58.325528
 20
607.517844
 30
0.0
 10
57.072504
 20
609.710644
 30
0.0
 10
55.506216
 20
611.903444
 30
0.0
 10
54.253160
 20
613.783020
 30
0.0
 10
53.000128
 20
615.975820
 30
0.0
 10
51.747096
 20
618.168620
 30
0.0
 10
50.494064
 20
620.361420
 30
0.0
 10
49.241040
 20
622.554220
 30
0.0
 10
48.301264
 20
624.747028
 30
0.0
 10
47.048240
 20
627.253084
 30
0.0
 10
46.108464
 20
629.445916
 30
0.0
 10
45.168696
 20
631.638716
 30
0.0
 10
44.228920
 20
634.144772
 30
0.0
 10
43.289152
 20
636.337572
 30
0.0
 10
42.349376
 20
638.843636
 30
0.0
 10
41.409608
 20
641.349724
 30
0.0
 10
40.783088
 20
643.542524
 30
0.0
 10
40.156544
 20
646.048580
 30
0.0
  0
LWPOLYLINE
  5
18c
100
AcDbEntity
  8
Layer_1
 62
5
100
AcDbPolyline
 90
2
 70
0
 10
60.518360
 20
620.048188
 30
0.0
 10
60.518360
 20
625.373564
 30
0.0
  0
LWPOLYLINE
  5
18d
100
AcDbEntity
  8
Layer_1
 62
5
100
AcDbPolyline
 90
2
 70
0
 10
40.156576
 20
646.048604
 30
0.0
 10
48.927816
 20
646.048604
 30
0.0
  0
LWPOLYLINE
  5
18e
100
AcDbEntity
  8
Layer_1
 62
5
100
AcDbPolyline
 90
65
 70
0
 10
160.134392
 20
563.035244
 30
0.0
 10
158.568104
 20
563.035244
 30
0.0
 10
156.688560
 20
563.035244
 30
0.0
 10
155.122280
 20
563.348500
 30
0.0
 10
153.242736
 20
563.348500
 30
0.0
 10
151.676416
 20
563.348500
 30
0.0
 10
149.796872
 20
563.661756
 30
0.0
 10
148.230584
 20
563.661756
 30
0.0
 10
146.351040
 20
563.975012
 30
0.0
 10
144.784760
 20
564.288268
 30
0.0
 10
143.218472
 20
564.288268
 30
0.0
 10
141.338928
 20
564.601524
 30
0.0
 10
139.772640
 20
564.914788
 30
0.0
 10
138.206328
 20
565.228044
 30
0.0
 10
136.326784
 20
565.541300
 30
0.0
 10
134.760496
 20
565.854556
 30
0.0
 10
133.194208
 20
566.481068
 30
0.0
 10
131.627920
 20
566.794332
 30
0.0
 10
129.748376
 20
567.107588
 30
0.0
 10
128.182088
 20
567.734100
 30
0.0
 10
126.615800
 20
568.047356
 30
0.0
 10
125.049512
 20
568.673876
 30
0.0
 10
123.483200
 20
569.300388
 30
0.0
 10
121.916912
 20
569.613644
 30
0.0
 10
120.350624
 20
570.240156
 30
0.0
 10
118.784344
 20
570.866700
 30
0.0
 10
117.218056
 20
571.493188
 30
0.0
 10
115.651768
 20
572.119732
 30
0.0
 10
114.085480
 20
572.746244
 30
0.0
 10
112.519192
 20
573.372764
 30
0.0
 10
111.266168
 20
573.999276
 30
0.0
 10
109.699848
 20
574.939052
 30
0.0
 10
108.133560
 20
575.565564
 30
0.0
 10
106.567280
 20
576.192076
 30
0.0
 10
105.314248
 20
577.131852
 30
0.0
 10
103.747960
 20
577.758364
 30
0.0
 10
102.494928
 20
578.698140
 30
0.0
 10
100.928648
 20
579.324652
 30
0.0
 10
99.675616
 20
580.264420
 30
0.0
 10
98.109328
 20
581.204196
 30
0.0
 10
96.856296
 20
582.143964
 30
0.0
 10
95.603240
 20
583.083740
 30
0.0
 10
94.036952
 20
584.023508
 30
0.0
 10
92.783928
 20
584.963308
 30
0.0
 10
91.530896
 20
585.903084
 30
0.0
 10
90.277864
 20
586.842852
 30
0.0
 10
89.024840
 20
587.782628
 30
0.0
 10
87.458552
 20
588.722396
 30
0.0
 10
86.205520
 20
589.662172
 30
0.0
 10
85.265752
 20
590.915196
 30
0.0
 10
84.012720
 20
591.854972
 30
0.0
 10
82.759688
 20
593.108004
 30
0.0
 10
81.506632
 20
594.047772
 30
0.0
 10
80.253600
 20
595.300804
 30
0.0
 10
79.313832
 20
596.240572
 30
0.0
 10
78.060800
 20
597.493604
 30
0.0
 10
76.807776
 20
598.746636
 30
0.0
 10
75.868000
 20
599.686436
 30
0.0
 10
74.614968
 20
600.939460
 30
0.0
 10
73.675200
 20
602.192492
 30
0.0
 10
72.735424
 20
603.445524
 30
0.0
 10
71.795656
 20
604.698548
 30
0.0
 10
70.542624
 20
605.951580
 30
0.0
 10
69.602856
 20
607.204612
 30
0.0
 10
68.663056
 20
608.457636
 30
0.0
  0
LWPOLYLINE
  5
18f
100
AcDbEntity
  8
Layer_1
 62
5
100
AcDbPolyline
 90
27
 70
0
 10
60.518360
 20
620.048188
 30
0.0
 10
59.578592
 20
621.301220
 30
0.0
 10
58.952080
 20
622.554244
 30
0.0
 10
58.012304
 20
624.120532
 30
0.0
 10
57.699048
 20
624.747052
 30
0.0
 10
57.072536
 20
625.686820
 30
0.0
 10
56.759272
 20
626.313332
 30
0.0
 10
56.132760
 20
627.253108
 30
0.0
 10
55.819504
 20
628.192908
 30
0.0
 10
55.506248
 20
628.819420
 30
0.0
 10
54.879728
 20
629.759196
 30
0.0
 10
54.566472
 20
630.698964
 30
0.0
 10
54.253192
 20
631.638740
 30
0.0
 10
53.626672
 20
632.578508
 30
0.0
 10
53.313416
 20
633.518284
 30
0.0
 10
53.000160
 20
634.458052
 30
0.0
 10
52.373640
 20
635.397828
 30
0.0
 10
52.060384
 20
636.337596
 30
0.0
 10
51.747128
 20
637.277372
 30
0.0
 10
51.433872
 20
638.217140
 30
0.0
 10
51.120616
 20
639.156916
 30
0.0
 10
50.807360
 20
639.783428
 30
0.0
 10
50.494096
 20
640.723204
 30
0.0
 10
50.180840
 20
641.663004
 30
0.0
 10
49.554328
 20
643.229292
 30
0.0
 10
49.241072
 20
644.795572
 30
0.0
 10
48.927816
 20
646.048604
 30
0.0
  0
LWPOLYLINE
  5
190
100
AcDbEntity
  8
Layer_1
 62
5
100
AcDbPolyline
 90
2
 70
0
 10
60.831624
 20
625.373564
 30
0.0
 10
68.663056
 20
625.373564
 30
0.0
  0
LWPOLYLINE
  5
191
100
AcDbEntity
  8
Layer_1
 62
5
100
AcDbPolyline
 90
2
 70
0
 10
68.663056
 20
608.457636
 30
0.0
 10
68.663056
 20
625.373564
 30
0.0
  0
LWPOLYLINE
  5
192
100
AcDbEntity
  8
Layer_1
 62
5
100
AcDbPolyline
 90
2
 70
0
 10
251.605752
 20
607.204612
 30
0.0
 10
251.605752
 20
625.373564
 30
0.0
  0
LWPOLYLINE
  5
193
100
AcDbEntity
  8
Layer_1
 62
5
100
AcDbPolyline
 90
2
 70
0
 10
259.750440
 20
625.373564
 30
0.0
 10
251.605752
 20
625.373564
 30
0.0
  0
LWPOLYLINE
  5
194
100
AcDbEntity
  8
Layer_1
 62
5
100
AcDbPolyline
 90
2
 70
0
 10
259.750440
 20
619.734932
 30
0.0
 10
259.750440
 20
625.373564
 30
0.0
  0
LWPOLYLINE
  5
195
100
AcDbEntity
  8
Layer_1
 62
5
100
AcDbPolyline
 90
25
 70
0
 10
271.654248
 20
646.048604
 30
0.0
 10
271.340992
 20
644.795572
 30
0.0
 10
271.027736
 20
643.542548
 30
0.0
 10
270.401216
 20
642.289516
 30
0.0
 10
270.087960
 20
640.723204
 30
0.0
 10
269.461448
 20
639.156916
 30
0.0
 10
268.834928
 20
637.903884
 30
0.0
 10
268.208416
 20
636.024340
 30
0.0
 10
267.268648
 20
634.458052
 30
0.0
 10
266.955384
 20
633.831540
 30
0.0
 10
266.642128
 20
632.891764
 30
0.0
 10
266.328872
 20
631.951996
 30
0.0
 10
265.702360
 20
631.012220
 30
0.0
 10
265.389104
 20
630.385708
 30
0.0
 10
265.075816
 20
629.445940
 30
0.0
 10
264.449304
 20
628.506164
 30
0.0
 10
264.136040
 20
627.566396
 30
0.0
 10
263.509528
 20
626.626596
 30
0.0
 10
262.883016
 20
625.686820
 30
0.0
 10
262.569760
 20
624.747052
 30
0.0
 10
261.943240
 20
623.807276
 30
0.0
 10
261.316728
 20
622.867508
 30
0.0
 10
261.003472
 20
621.614476
 30
0.0
 10
260.376952
 20
620.674700
 30
0.0
 10
259.750440
 20
619.734932
 30
0.0
  0
LWPOLYLINE
  5
196
100
AcDbEntity
  8
Layer_1
 62
5
100
AcDbPolyline
 90
65
 70
0
 10
251.605752
 20
607.204612
 30
0.0
 10
250.665952
 20
606.264836
 30
0.0
 10
249.412920
 20
605.011812
 30
0.0
 10
248.473144
 20
603.758780
 30
0.0
 10
247.533376
 20
602.505748
 30
0.0
 10
246.593600
 20
601.565980
 30
0.0
 10
245.340576
 20
600.312948
 30
0.0
 10
244.400800
 20
599.373180
 30
0.0
 10
243.461032
 20
598.120116
 30
0.0
 10
242.207984
 20
597.180348
 30
0.0
 10
241.268216
 20
595.927316
 30
0.0
 10
240.015184
 20
594.987548
 30
0.0
 10
238.762160
 20
593.734516
 30
0.0
 10
237.822384
 20
592.794740
 30
0.0
 10
236.569328
 20
591.854972
 30
0.0
 10
235.316296
 20
590.601940
 30
0.0
 10
234.063264
 20
589.662172
 30
0.0
 10
232.810240
 20
588.722396
 30
0.0
 10
231.870464
 20
587.782628
 30
0.0
 10
230.617440
 20
586.842852
 30
0.0
 10
229.051152
 20
585.903084
 30
0.0
 10
227.798120
 20
584.963308
 30
0.0
 10
226.545088
 20
584.023508
 30
0.0
 10
225.292064
 20
583.083740
 30
0.0
 10
224.039032
 20
582.143964
 30
0.0
 10
222.786000
 20
581.204196
 30
0.0
 10
221.219688
 20
580.577676
 30
0.0
 10
219.966656
 20
579.637908
 30
0.0
 10
218.713632
 20
579.011396
 30
0.0
 10
217.147344
 20
578.071620
 30
0.0
 10
215.894312
 20
577.131852
 30
0.0
 10
214.328024
 20
576.505332
 30
0.0
 10
212.761744
 20
575.878820
 30
0.0
 10
211.508712
 20
574.939052
 30
0.0
 10
209.942424
 20
574.312532
 30
0.0
 10
208.376112
 20
573.686020
 30
0.0
 10
207.123080
 20
573.059500
 30
0.0
 10
205.556792
 20
572.432988
 30
0.0
 10
203.990504
 20
571.806476
 30
0.0
 10
202.424224
 20
571.179932
 30
0.0
 10
200.857936
 20
570.553444
 30
0.0
 10
199.291648
 20
569.926900
 30
0.0
 10
197.725360
 20
569.300388
 30
0.0
 10
196.159072
 20
568.987132
 30
0.0
 10
194.592760
 20
568.360612
 30
0.0
 10
193.026472
 20
567.734100
 30
0.0
 10
191.460184
 20
567.420844
 30
0.0
 10
189.580640
 20
567.107588
 30
0.0
 10
188.014352
 20
566.481068
 30
0.0
 10
186.448064
 20
566.167812
 30
0.0
 10
184.881784
 20
565.854556
 30
0.0
 10
183.002240
 20
565.541300
 30
0.0
 10
181.435952
 20
565.228044
 30
0.0
 10
179.556376
 20
564.914788
 30
0.0
 10
177.990088
 20
564.601524
 30
0.0
 10
176.110544
 20
564.288268
 30
0.0
 10
174.544264
 20
563.975012
 30
0.0
 10
172.664720
 20
563.661756
 30
0.0
 10
171.098432
 20
563.661756
 30
0.0
 10
169.218888
 20
563.348500
 30
0.0
 10
167.339344
 20
563.348500
 30
0.0
 10
165.459768
 20
563.035244
 30
0.0
 10
163.893480
 20
563.035244
 30
0.0
 10
162.013936
 20
563.035244
 30
0.0
 10
160.134392
 20
563.035244
 30
0.0
  0
LWPOLYLINE
  5
197
100
AcDbEntity
  8
Layer_1
 62
5
100
AcDbPolyline
 90
63
 70
0
 10
280.112224
 20
646.048604
 30
0.0
 10
279.485712
 20
643.542548
 30
0.0
 10
278.859168
 20
641.036460
 30
0.0
 10
277.919392
 20
638.843660
 30
0.0
 10
277.292880
 20
636.337596
 30
0.0
 10
276.353104
 20
633.831540
 30
0.0
 10
275.413336
 20
631.638740
 30
0.0
 10
274.160304
 20
629.445940
 30
0.0
 10
273.220536
 20
626.939852
 30
0.0
 10
272.280760
 20
624.747052
 30
0.0
 10
271.027736
 20
622.554244
 30
0.0
 10
269.774704
 20
620.361444
 30
0.0
 10
268.521672
 20
618.168644
 30
0.0
 10
267.268648
 20
615.975844
 30
0.0
 10
266.015616
 20
613.783044
 30
0.0
 10
264.762560
 20
611.590212
 30
0.0
 10
263.509528
 20
609.710668
 30
0.0
 10
261.943240
 20
607.517868
 30
0.0
 10
260.376952
 20
605.638324
 30
0.0
 10
259.123928
 20
603.445524
 30
0.0
 10
257.557640
 20
601.565980
 30
0.0
 10
255.991352
 20
599.686436
 30
0.0
 10
254.111808
 20
597.806860
 30
0.0
 10
252.545520
 20
595.927316
 30
0.0
 10
250.979208
 20
594.047772
 30
0.0
 10
249.099664
 20
592.168228
 30
0.0
 10
247.533376
 20
590.601940
 30
0.0
 10
245.653832
 20
588.722396
 30
0.0
 10
243.774288
 20
587.156108
 30
0.0
 10
241.894728
 20
585.589828
 30
0.0
 10
240.015184
 20
583.710252
 30
0.0
 10
238.135640
 20
582.143964
 30
0.0
 10
236.256072
 20
580.577676
 30
0.0
 10
234.063264
 20
579.324652
 30
0.0
 10
232.183720
 20
577.758364
 30
0.0
 10
229.990920
 20
576.192076
 30
0.0
 10
228.111376
 20
574.939052
 30
0.0
 10
225.918576
 20
573.686020
 30
0.0
 10
223.725776
 20
572.432988
 30
0.0
 10
221.532944
 20
571.179932
 30
0.0
 10
219.340144
 20
569.926900
 30
0.0
 10
217.147344
 20
568.673876
 30
0.0
 10
214.954544
 20
567.420844
 30
0.0
 10
212.761744
 20
566.481068
 30
0.0
 10
210.255680
 20
565.541300
 30
0.0
 10
208.062856
 20
564.288268
 30
0.0
 10
205.556792
 20
563.348500
 30
0.0
 10
203.363992
 20
562.408724
 30
0.0
 10
200.857936
 20
561.782212
 30
0.0
 10
198.665128
 20
560.842436
 30
0.0
 10
196.159072
 20
560.215924
 30
0.0
 10
193.652984
 20
559.276156
 30
0.0
 10
191.146928
 20
558.649636
 30
0.0
 10
188.640872
 20
558.023124
 30
0.0
 10
186.134808
 20
557.709868
 30
0.0
 10
183.628752
 20
557.083348
 30
0.0
 10
181.122696
 20
556.456812
 30
0.0
 10
178.616608
 20
556.143548
 30
0.0
 10
176.110544
 20
555.830292
 30
0.0
 10
173.291232
 20
555.517036
 30
0.0
 10
170.785176
 20
555.203780
 30
0.0
 10
169.010104
 20
554.981900
 30
0.0
 10
168.977144
 20
555.510996
 30
0.0
  0
LWPOLYLINE
  5
198
100
AcDbEntity
  8
Layer_1
 62
5
100
AcDbPolyline
 90
2
 70
0
 10
271.654248
 20
646.048604
 30
0.0
 10
280.425480
 20
646.048604
 30
0.0
  0
LWPOLYLINE
  5
199
100
AcDbEntity
  8
Layer_1
 62
5
100
AcDbPolyline
 90
64
 70
0
 10
168.976160
 20
523.511004
 30
0.0
 10
151.643680
 20
523.472204
 30
0.0
 10
151.599840
 20
522.968628
 30
0.0
 10
149.483584
 20
523.203764
 30
0.0
 10
146.977528
 20
523.517020
 30
0.0
 10
144.471464
 20
523.830276
 30
0.0
 10
141.652152
 20
524.143532
 30
0.0
 10
139.146096
 20
524.456796
 30
0.0
 10
136.640008
 20
525.083332
 30
0.0
 10
134.133944
 20
525.709852
 30
0.0
 10
131.627888
 20
526.023108
 30
0.0
 10
129.121832
 20
526.649620
 30
0.0
 10
126.615768
 20
527.276140
 30
0.0
 10
124.109680
 20
528.215908
 30
0.0
 10
121.603624
 20
528.842420
 30
0.0
 10
119.410824
 20
529.782196
 30
0.0
 10
116.904768
 20
530.721964
 30
0.0
 10
114.711960
 20
531.348484
 30
0.0
 10
112.205904
 20
532.288252
 30
0.0
 10
110.013072
 20
533.541284
 30
0.0
 10
107.507016
 20
534.481052
 30
0.0
 10
105.314216
 20
535.420828
 30
0.0
 10
103.121416
 20
536.673860
 30
0.0
 10
100.928616
 20
537.926884
 30
0.0
 10
98.735808
 20
539.179916
 30
0.0
 10
96.542984
 20
540.432972
 30
0.0
 10
94.350184
 20
541.686004
 30
0.0
 10
92.157376
 20
542.939036
 30
0.0
 10
90.277832
 20
544.505316
 30
0.0
 10
88.085032
 20
545.758348
 30
0.0
 10
86.205488
 20
547.324636
 30
0.0
 10
84.012688
 20
548.890924
 30
0.0
 10
82.133112
 20
550.457204
 30
0.0
 10
80.253568
 20
552.023492
 30
0.0
 10
78.374024
 20
553.589812
 30
0.0
 10
76.494480
 20
555.156092
 30
0.0
 10
74.614936
 20
556.722380
 30
0.0
 10
73.048656
 20
558.601924
 30
0.0
 10
71.169112
 20
560.481468
 30
0.0
 10
69.289568
 20
562.047756
 30
0.0
 10
67.723248
 20
563.927300
 30
0.0
 10
66.156960
 20
565.806844
 30
0.0
 10
64.590680
 20
567.686420
 30
0.0
 10
63.024392
 20
569.565964
 30
0.0
 10
61.458104
 20
571.758764
 30
0.0
 10
59.891816
 20
573.638308
 30
0.0
 10
58.325528
 20
575.517852
 30
0.0
 10
57.072504
 20
577.710652
 30
0.0
 10
55.506216
 20
579.903452
 30
0.0
 10
54.253160
 20
581.783028
 30
0.0
 10
53.000128
 20
583.975828
 30
0.0
 10
51.747096
 20
586.168628
 30
0.0
 10
50.494064
 20
588.361428
 30
0.0
 10
49.241040
 20
590.554228
 30
0.0
 10
48.301264
 20
592.747036
 30
0.0
 10
47.048240
 20
595.253092
 30
0.0
 10
46.108464
 20
597.445924
 30
0.0
 10
45.168696
 20
599.638724
 30
0.0
 10
44.228920
 20
602.144780
 30
0.0
 10
43.289152
 20
604.337580
 30
0.0
 10
42.349376
 20
606.843644
 30
0.0
 10
41.409608
 20
609.349732
 30
0.0
 10
40.783088
 20
611.542532
 30
0.0
 10
40.156544
 20
614.048588
 30
0.0
  0
LWPOLYLINE
  5
19a
100
AcDbEntity
  8
Layer_1
 62
5
100
AcDbPolyline
 90
2
 70
0
 10
60.518360
 20
588.048196
 30
0.0
 10
60.518360
 20
593.373572
 30
0.0
  0
LWPOLYLINE
  5
19b
100
AcDbEntity
  8
Layer_1
 62
5
100
AcDbPolyline
 90
2
 70
0
 10
40.156576
 20
614.048612
 30
0.0
 10
48.927816
 20
614.048612
 30
0.0
  0
LWPOLYLINE
  5
19c
100
AcDbEntity
  8
Layer_1
 62
5
100
AcDbPolyline
 90
65
 70
0
 10
160.134392
 20
531.035252
 30
0.0
 10
158.568104
 20
531.035252
 30
0.0
 10
156.688560
 20
531.035252
 30
0.0
 10
155.122280
 20
531.348508
 30
0.0
 10
153.242736
 20
531.348508
 30
0.0
 10
151.676416
 20
531.348508
 30
0.0
 10
149.796872
 20
531.661764
 30
0.0
 10
148.230584
 20
531.661764
 30
0.0
 10
146.351040
 20
531.975020
 30
0.0
 10
144.784760
 20
532.288276
 30
0.0
 10
143.218472
 20
532.288276
 30
0.0
 10
141.338928
 20
532.601532
 30
0.0
 10
139.772640
 20
532.914796
 30
0.0
 10
138.206328
 20
533.228052
 30
0.0
 10
136.326784
 20
533.541308
 30
0.0
 10
134.760496
 20
533.854564
 30
0.0
 10
133.194208
 20
534.481076
 30
0.0
 10
131.627920
 20
534.794340
 30
0.0
 10
129.748376
 20
535.107596
 30
0.0
 10
128.182088
 20
535.734108
 30
0.0
 10
126.615800
 20
536.047364
 30
0.0
 10
125.049512
 20
536.673884
 30
0.0
 10
123.483200
 20
537.300396
 30
0.0
 10
121.916912
 20
537.613652
 30
0.0
 10
120.350624
 20
538.240164
 30
0.0
 10
118.784344
 20
538.866708
 30
0.0
 10
117.218056
 20
539.493196
 30
0.0
 10
115.651768
 20
540.119740
 30
0.0
 10
114.085480
 20
540.746252
 30
0.0
 10
112.519192
 20
541.372772
 30
0.0
 10
111.266168
 20
541.999284
 30
0.0
 10
109.699848
 20
542.939060
 30
0.0
 10
108.133560
 20
543.565572
 30
0.0
 10
106.567280
 20
544.192084
 30
0.0
 10
105.314248
 20
545.131860
 30
0.0
 10
103.747960
 20
545.758372
 30
0.0
 10
102.494928
 20
546.698148
 30
0.0
 10
100.928648
 20
547.324660
 30
0.0
 10
99.675616
 20
548.264428
 30
0.0
 10
98.109328
 20
549.204204
 30
0.0
 10
96.856296
 20
550.143972
 30
0.0
 10
95.603240
 20
551.083748
 30
0.0
 10
94.036952
 20
552.023516
 30
0.0
 10
92.783928
 20
552.963316
 30
0.0
 10
91.530896
 20
553.903092
 30
0.0
 10
90.277864
 20
554.842860
 30
0.0
 10
89.024840
 20
555.782636
 30
0.0
 10
87.458552
 20
556.722404
 30
0.0
 10
86.205520
 20
557.662180
 30
0.0
 10
85.265752
 20
558.915204
 30
0.0
 10
84.012720
 20
559.854980
 30
0.0
 10
82.759688
 20
561.108012
 30
0.0
 10
81.506632
 20
562.047780
 30
0.0
 10
80.253600
 20
563.300812
 30
0.0
 10
79.313832
 20
564.240580
 30
0.0
 10
78.060800
 20
565.493612
 30
0.0
 10
76.807776
 20
566.746644
 30
0.0
 10
75.868000
 20
567.686444
 30
0.0
 10
74.614968
 20
568.939468
 30
0.0
 10
73.675200
 20
570.192500
 30
0.0
 10
72.735424
 20
571.445532
 30
0.0
 10
71.795656
 20
572.698556
 30
0.0
 10
70.542624
 20
573.951588
 30
0.0
 10
69.602856
 20
575.204620
 30
0.0
 10
68.663056
 20
576.457644
 30
0.0
  0
LWPOLYLINE
  5
19d
100
AcDbEntity
  8
Layer_1
 62
5
100
AcDbPolyline
 90
27
 70
0
 10
60.518360
 20
588.048196
 30
0.0
 10
59.578592
 20
589.301228
 30
0.0
 10
58.952080
 20
590.554252
 30
0.0
 10
58.012304
 20
592.120540
 30
0.0
 10
57.699048
 20
592.747060
 30
0.0
 10
57.072536
 20
593.686828
 30
0.0
 10
56.759272
 20
594.313340
 30
0.0
 10
56.132760
 20
595.253116
 30
0.0
 10
55.819504
 20
596.192916
 30
0.0
 10
55.506248
 20
596.819428
 30
0.0
 10
54.879728
 20
597.759204
 30
0.0
 10
54.566472
 20
598.698972
 30
0.0
 10
54.253192
 20
599.638748
 30
0.0
 10
53.626672
 20
600.578516
 30
0.0
 10
53.313416
 20
601.518292
 30
0.0
 10
53.000160
 20
602.458060
 30
0.0
 10
52.373640
 20
603.397836
 30
0.0
 10
52.060384
 20
604.337604
 30
0.0
 10
51.747128
 20
605.277380
 30
0.0
 10
51.433872
 20
606.217148
 30
0.0
 10
51.120616
 20
607.156924
 30
0.0
 10
50.807360
 20
607.783436
 30
0.0
 10
50.494096
 20
608.723212
 30
0.0
 10
50.180840
 20
609.663012
 30
0.0
 10
49.554328
 20
611.229300
 30
0.0
 10
49.241072
 20
612.795580
 30
0.0
 10
48.927816
 20
614.048612
 30
0.0
  0
LWPOLYLINE
  5
19e
100
AcDbEntity
  8
Layer_1
 62
5
100
AcDbPolyline
 90
2
 70
0
 10
60.831624
 20
593.373572
 30
0.0
 10
68.663056
 20
593.373572
 30
0.0
  0
LWPOLYLINE
  5
19f
100
AcDbEntity
  8
Layer_1
 62
5
100
AcDbPolyline
 90
2
 70
0
 10
68.663056
 20
576.457644
 30
0.0
 10
68.663056
 20
593.373572
 30
0.0
  0
LWPOLYLINE
  5
1a0
100
AcDbEntity
  8
Layer_1
 62
5
100
AcDbPolyline
 90
2
 70
0
 10
251.605752
 20
575.204620
 30
0.0
 10
251.605752
 20
593.373572
 30
0.0
  0
LWPOLYLINE
  5
1a1
100
AcDbEntity
  8
Layer_1
 62
5
100
AcDbPolyline
 90
2
 70
0
 10
259.750440
 20
593.373572
 30
0.0
 10
251.605752
 20
593.373572
 30
0.0
  0
LWPOLYLINE
  5
1a2
100
AcDbEntity
  8
Layer_1
 62
5
100
AcDbPolyline
 90
2
 70
0
 10
259.750440
 20
587.734940
 30
0.0
 10
259.750440
 20
593.373572
 30
0.0
  0
LWPOLYLINE
  5
1a3
100
AcDbEntity
  8
Layer_1
 62
5
100
AcDbPolyline
 90
25
 70
0
 10
271.654248
 20
614.048612
 30
0.0
 10
271.340992
 20
612.795580
 30
0.0
 10
271.027736
 20
611.542556
 30
0.0
 10
270.401216
 20
610.289524
 30
0.0
 10
270.087960
 20
608.723212
 30
0.0
 10
269.461448
 20
607.156924
 30
0.0
 10
268.834928
 20
605.903892
 30
0.0
 10
268.208416
 20
604.024348
 30
0.0
 10
267.268648
 20
602.458060
 30
0.0
 10
266.955384
 20
601.831548
 30
0.0
 10
266.642128
 20
600.891772
 30
0.0
 10
266.328872
 20
599.952004
 30
0.0
 10
265.702360
 20
599.012228
 30
0.0
 10
265.389104
 20
598.385716
 30
0.0
 10
265.075816
 20
597.445948
 30
0.0
 10
264.449304
 20
596.506172
 30
0.0
 10
264.136040
 20
595.566404
 30
0.0
 10
263.509528
 20
594.626604
 30
0.0
 10
262.883016
 20
593.686828
 30
0.0
 10
262.569760
 20
592.747060
 30
0.0
 10
261.943240
 20
591.807284
 30
0.0
 10
261.316728
 20
590.867516
 30
0.0
 10
261.003472
 20
589.614484
 30
0.0
 10
260.376952
 20
588.674708
 30
0.0
 10
259.750440
 20
587.734940
 30
0.0
  0
LWPOLYLINE
  5
1a4
100
AcDbEntity
  8
Layer_1
 62
5
100
AcDbPolyline
 90
65
 70
0
 10
251.605752
 20
575.204620
 30
0.0
 10
250.665952
 20
574.264844
 30
0.0
 10
249.412920
 20
573.011820
 30
0.0
 10
248.473144
 20
571.758788
 30
0.0
 10
247.533376
 20
570.505756
 30
0.0
 10
246.593600
 20
569.565988
 30
0.0
 10
245.340576
 20
568.312956
 30
0.0
 10
244.400800
 20
567.373188
 30
0.0
 10
243.461032
 20
566.120124
 30
0.0
 10
242.207984
 20
565.180356
 30
0.0
 10
241.268216
 20
563.927324
 30
0.0
 10
240.015184
 20
562.987556
 30
0.0
 10
238.762160
 20
561.734524
 30
0.0
 10
237.822384
 20
560.794748
 30
0.0
 10
236.569328
 20
559.854980
 30
0.0
 10
235.316296
 20
558.601948
 30
0.0
 10
234.063264
 20
557.662180
 30
0.0
 10
232.810240
 20
556.722404
 30
0.0
 10
231.870464
 20
555.782636
 30
0.0
 10
230.617440
 20
554.842860
 30
0.0
 10
229.051152
 20
553.903092
 30
0.0
 10
227.798120
 20
552.963316
 30
0.0
 10
226.545088
 20
552.023516
 30
0.0
 10
225.292064
 20
551.083748
 30
0.0
 10
224.039032
 20
550.143972
 30
0.0
 10
222.786000
 20
549.204204
 30
0.0
 10
221.219688
 20
548.577684
 30
0.0
 10
219.966656
 20
547.637916
 30
0.0
 10
218.713632
 20
547.011404
 30
0.0
 10
217.147344
 20
546.071628
 30
0.0
 10
215.894312
 20
545.131860
 30
0.0
 10
214.328024
 20
544.505340
 30
0.0
 10
212.761744
 20
543.878828
 30
0.0
 10
211.508712
 20
542.939060
 30
0.0
 10
209.942424
 20
542.312540
 30
0.0
 10
208.376112
 20
541.686028
 30
0.0
 10
207.123080
 20
541.059508
 30
0.0
 10
205.556792
 20
540.432996
 30
0.0
 10
203.990504
 20
539.806484
 30
0.0
 10
202.424224
 20
539.179940
 30
0.0
 10
200.857936
 20
538.553452
 30
0.0
 10
199.291648
 20
537.926908
 30
0.0
 10
197.725360
 20
537.300396
 30
0.0
 10
196.159072
 20
536.987140
 30
0.0
 10
194.592760
 20
536.360620
 30
0.0
 10
193.026472
 20
535.734108
 30
0.0
 10
191.460184
 20
535.420852
 30
0.0
 10
189.580640
 20
535.107596
 30
0.0
 10
188.014352
 20
534.481076
 30
0.0
 10
186.448064
 20
534.167820
 30
0.0
 10
184.881784
 20
533.854564
 30
0.0
 10
183.002240
 20
533.541308
 30
0.0
 10
181.435952
 20
533.228052
 30
0.0
 10
179.556376
 20
532.914796
 30
0.0
 10
177.990088
 20
532.601532
 30
0.0
 10
176.110544
 20
532.288276
 30
0.0
 10
174.544264
 20
531.975020
 30
0.0
 10
172.664720
 20
531.661764
 30
0.0
 10
171.098432
 20
531.661764
 30
0.0
 10
169.218888
 20
531.348508
 30
0.0
 10
167.339344
 20
531.348508
 30
0.0
 10
165.459768
 20
531.035252
 30
0.0
 10
163.893480
 20
531.035252
 30
0.0
 10
162.013936
 20
531.035252
 30
0.0
 10
160.134392
 20
531.035252
 30
0.0
  0
LWPOLYLINE
  5
1a5
100
AcDbEntity
  8
Layer_1
 62
5
100
AcDbPolyline
 90
63
 70
0
 10
280.112224
 20
614.048612
 30
0.0
 10
279.485712
 20
611.542556
 30
0.0
 10
278.859168
 20
609.036468
 30
0.0
 10
277.919392
 20
606.843668
 30
0.0
 10
277.292880
 20
604.337604
 30
0.0
 10
276.353104
 20
601.831548
 30
0.0
 10
275.413336
 20
599.638748
 30
0.0
 10
274.160304
 20
597.445948
 30
0.0
 10
273.220536
 20
594.939860
 30
0.0
 10
272.280760
 20
592.747060
 30
0.0
 10
271.027736
 20
590.554252
 30
0.0
 10
269.774704
 20
588.361452
 30
0.0
 10
268.521672
 20
586.168652
 30
0.0
 10
267.268648
 20
583.975852
 30
0.0
 10
266.015616
 20
581.783052
 30
0.0
 10
264.762560
 20
579.590220
 30
0.0
 10
263.509528
 20
577.710676
 30
0.0
 10
261.943240
 20
575.517876
 30
0.0
 10
260.376952
 20
573.638332
 30
0.0
 10
259.123928
 20
571.445532
 30
0.0
 10
257.557640
 20
569.565988
 30
0.0
 10
255.991352
 20
567.686444
 30
0.0
 10
254.111808
 20
565.806868
 30
0.0
 10
252.545520
 20
563.927324
 30
0.0
 10
250.979208
 20
562.047780
 30
0.0
 10
249.099664
 20
560.168236
 30
0.0
 10
247.533376
 20
558.601948
 30
0.0
 10
245.653832
 20
556.722404
 30
0.0
 10
243.774288
 20
555.156116
 30
0.0
 10
241.894728
 20
553.589836
 30
0.0
 10
240.015184
 20
551.710260
 30
0.0
 10
238.135640
 20
550.143972
 30
0.0
 10
236.256072
 20
548.577684
 30
0.0
 10
234.063264
 20
547.324660
 30
0.0
 10
232.183720
 20
545.758372
 30
0.0
 10
229.990920
 20
544.192084
 30
0.0
 10
228.111376
 20
542.939060
 30
0.0
 10
225.918576
 20
541.686028
 30
0.0
 10
223.725776
 20
540.432996
 30
0.0
 10
221.532944
 20
539.179940
 30
0.0
 10
219.340144
 20
537.926908
 30
0.0
 10
217.147344
 20
536.673884
 30
0.0
 10
214.954544
 20
535.420852
 30
0.0
 10
212.761744
 20
534.481076
 30
0.0
 10
210.255680
 20
533.541308
 30
0.0
 10
208.062856
 20
532.288276
 30
0.0
 10
205.556792
 20
531.348508
 30
0.0
 10
203.363992
 20
530.408732
 30
0.0
 10
200.857936
 20
529.782220
 30
0.0
 10
198.665128
 20
528.842444
 30
0.0
 10
196.159072
 20
528.215932
 30
0.0
 10
193.652984
 20
527.276164
 30
0.0
 10
191.146928
 20
526.649644
 30
0.0
 10
188.640872
 20
526.023132
 30
0.0
 10
186.134808
 20
525.709876
 30
0.0
 10
183.628752
 20
525.083356
 30
0.0
 10
181.122696
 20
524.456820
 30
0.0
 10
178.616608
 20
524.143556
 30
0.0
 10
176.110544
 20
523.830300
 30
0.0
 10
173.291232
 20
523.517044
 30
0.0
 10
170.785176
 20
523.203788
 30
0.0
 10
169.010104
 20
522.981908
 30
0.0
 10
168.977144
 20
523.511004
 30
0.0
  0
LWPOLYLINE
  5
1a6
100
AcDbEntity
  8
Layer_1
 62
5
100
AcDbPolyline
 90
2
 70
0
 10
271.654248
 20
614.048612
 30
0.0
 10
280.425480
 20
614.048612
 30
0.0
  0
LWPOLYLINE
  5
1a7
100
AcDbEntity
  8
Layer_1
 62
5
100
AcDbPolyline
 90
64
 70
0
 10
168.976160
 20
491.511004
 30
0.0
 10
151.643680
 20
491.472204
 30
0.0
 10
151.599840
 20
490.968628
 30
0.0
 10
149.483584
 20
491.203764
 30
0.0
 10
146.977528
 20
491.517020
 30
0.0
 10
144.471464
 20
491.830276
 30
0.0
 10
141.652152
 20
492.143532
 30
0.0
 10
139.146096
 20
492.456796
 30
0.0
 10
136.640008
 20
493.083332
 30
0.0
 10
134.133944
 20
493.709852
 30
0.0
 10
131.627888
 20
494.023108
 30
0.0
 10
129.121832
 20
494.649620
 30
0.0
 10
126.615768
 20
495.276140
 30
0.0
 10
124.109680
 20
496.215908
 30
0.0
 10
121.603624
 20
496.842420
 30
0.0
 10
119.410824
 20
497.782196
 30
0.0
 10
116.904768
 20
498.721964
 30
0.0
 10
114.711960
 20
499.348484
 30
0.0
 10
112.205904
 20
500.288252
 30
0.0
 10
110.013072
 20
501.541284
 30
0.0
 10
107.507016
 20
502.481052
 30
0.0
 10
105.314216
 20
503.420828
 30
0.0
 10
103.121416
 20
504.673860
 30
0.0
 10
100.928616
 20
505.926884
 30
0.0
 10
98.735808
 20
507.179916
 30
0.0
 10
96.542984
 20
508.432972
 30
0.0
 10
94.350184
 20
509.686004
 30
0.0
 10
92.157376
 20
510.939036
 30
0.0
 10
90.277832
 20
512.505316
 30
0.0
 10
88.085032
 20
513.758348
 30
0.0
 10
86.205488
 20
515.324636
 30
0.0
 10
84.012688
 20
516.890924
 30
0.0
 10
82.133112
 20
518.457204
 30
0.0
 10
80.253568
 20
520.023492
 30
0.0
 10
78.374024
 20
521.589812
 30
0.0
 10
76.494480
 20
523.156092
 30
0.0
 10
74.614936
 20
524.722380
 30
0.0
 10
73.048656
 20
526.601924
 30
0.0
 10
71.169112
 20
528.481468
 30
0.0
 10
69.289568
 20
530.047756
 30
0.0
 10
67.723248
 20
531.927300
 30
0.0
 10
66.156960
 20
533.806844
 30
0.0
 10
64.590680
 20
535.686420
 30
0.0
 10
63.024392
 20
537.565964
 30
0.0
 10
61.458104
 20
539.758764
 30
0.0
 10
59.891816
 20
541.638308
 30
0.0
 10
58.325528
 20
543.517852
 30
0.0
 10
57.072504
 20
545.710652
 30
0.0
 10
55.506216
 20
547.903452
 30
0.0
 10
54.253160
 20
549.783028
 30
0.0
 10
53.000128
 20
551.975828
 30
0.0
 10
51.747096
 20
554.168628
 30
0.0
 10
50.494064
 20
556.361428
 30
0.0
 10
49.241040
 20
558.554228
 30
0.0
 10
48.301264
 20
560.747036
 30
0.0
 10
47.048240
 20
563.253092
 30
0.0
 10
46.108464
 20
565.445924
 30
0.0
 10
45.168696
 20
567.638724
 30
0.0
 10
44.228920
 20
570.144780
 30
0.0
 10
43.289152
 20
572.337580
 30
0.0
 10
42.349376
 20
574.843644
 30
0.0
 10
41.409608
 20
577.349732
 30
0.0
 10
40.783088
 20
579.542532
 30
0.0
 10
40.156544
 20
582.048588
 30
0.0
  0
LWPOLYLINE
  5
1a8
100
AcDbEntity
  8
Layer_1
 62
5
100
AcDbPolyline
 90
2
 70
0
 10
60.518360
 20
556.048196
 30
0.0
 10
60.518360
 20
561.373572
 30
0.0
  0
LWPOLYLINE
  5
1a9
100
AcDbEntity
  8
Layer_1
 62
5
100
AcDbPolyline
 90
2
 70
0
 10
40.156576
 20
582.048612
 30
0.0
 10
48.927816
 20
582.048612
 30
0.0
  0
LWPOLYLINE
  5
1aa
100
AcDbEntity
  8
Layer_1
 62
5
100
AcDbPolyline
 90
65
 70
0
 10
160.134392
 20
499.035252
 30
0.0
 10
158.568104
 20
499.035252
 30
0.0
 10
156.688560
 20
499.035252
 30
0.0
 10
155.122280
 20
499.348508
 30
0.0
 10
153.242736
 20
499.348508
 30
0.0
 10
151.676416
 20
499.348508
 30
0.0
 10
149.796872
 20
499.661764
 30
0.0
 10
148.230584
 20
499.661764
 30
0.0
 10
146.351040
 20
499.975020
 30
0.0
 10
144.784760
 20
500.288276
 30
0.0
 10
143.218472
 20
500.288276
 30
0.0
 10
141.338928
 20
500.601532
 30
0.0
 10
139.772640
 20
500.914796
 30
0.0
 10
138.206328
 20
501.228052
 30
0.0
 10
136.326784
 20
501.541308
 30
0.0
 10
134.760496
 20
501.854564
 30
0.0
 10
133.194208
 20
502.481076
 30
0.0
 10
131.627920
 20
502.794340
 30
0.0
 10
129.748376
 20
503.107596
 30
0.0
 10
128.182088
 20
503.734108
 30
0.0
 10
126.615800
 20
504.047364
 30
0.0
 10
125.049512
 20
504.673884
 30
0.0
 10
123.483200
 20
505.300396
 30
0.0
 10
121.916912
 20
505.613652
 30
0.0
 10
120.350624
 20
506.240164
 30
0.0
 10
118.784344
 20
506.866708
 30
0.0
 10
117.218056
 20
507.493196
 30
0.0
 10
115.651768
 20
508.119740
 30
0.0
 10
114.085480
 20
508.746252
 30
0.0
 10
112.519192
 20
509.372772
 30
0.0
 10
111.266168
 20
509.999284
 30
0.0
 10
109.699848
 20
510.939060
 30
0.0
 10
108.133560
 20
511.565572
 30
0.0
 10
106.567280
 20
512.192084
 30
0.0
 10
105.314248
 20
513.131860
 30
0.0
 10
103.747960
 20
513.758372
 30
0.0
 10
102.494928
 20
514.698148
 30
0.0
 10
100.928648
 20
515.324660
 30
0.0
 10
99.675616
 20
516.264428
 30
0.0
 10
98.109328
 20
517.204204
 30
0.0
 10
96.856296
 20
518.143972
 30
0.0
 10
95.603240
 20
519.083748
 30
0.0
 10
94.036952
 20
520.023516
 30
0.0
 10
92.783928
 20
520.963316
 30
0.0
 10
91.530896
 20
521.903092
 30
0.0
 10
90.277864
 20
522.842860
 30
0.0
 10
89.024840
 20
523.782636
 30
0.0
 10
87.458552
 20
524.722404
 30
0.0
 10
86.205520
 20
525.662180
 30
0.0
 10
85.265752
 20
526.915204
 30
0.0
 10
84.012720
 20
527.854980
 30
0.0
 10
82.759688
 20
529.108012
 30
0.0
 10
81.506632
 20
530.047780
 30
0.0
 10
80.253600
 20
531.300812
 30
0.0
 10
79.313832
 20
532.240580
 30
0.0
 10
78.060800
 20
533.493612
 30
0.0
 10
76.807776
 20
534.746644
 30
0.0
 10
75.868000
 20
535.686444
 30
0.0
 10
74.614968
 20
536.939468
 30
0.0
 10
73.675200
 20
538.192500
 30
0.0
 10
72.735424
 20
539.445532
 30
0.0
 10
71.795656
 20
540.698556
 30
0.0
 10
70.542624
 20
541.951588
 30
0.0
 10
69.602856
 20
543.204620
 30
0.0
 10
68.663056
 20
544.457644
 30
0.0
  0
LWPOLYLINE
  5
1ab
100
AcDbEntity
  8
Layer_1
 62
5
100
AcDbPolyline
 90
27
 70
0
 10
60.518360
 20
556.048196
 30
0.0
 10
59.578592
 20
557.301228
 30
0.0
 10
58.952080
 20
558.554252
 30
0.0
 10
58.012304
 20
560.120540
 30
0.0
 10
57.699048
 20
560.747060
 30
0.0
 10
57.072536
 20
561.686828
 30
0.0
 10
56.759272
 20
562.313340
 30
0.0
 10
56.132760
 20
563.253116
 30
0.0
 10
55.819504
 20
564.192916
 30
0.0
 10
55.506248
 20
564.819428
 30
0.0
 10
54.879728
 20
565.759204
 30
0.0
 10
54.566472
 20
566.698972
 30
0.0
 10
54.253192
 20
567.638748
 30
0.0
 10
53.626672
 20
568.578516
 30
0.0
 10
53.313416
 20
569.518292
 30
0.0
 10
53.000160
 20
570.458060
 30
0.0
 10
52.373640
 20
571.397836
 30
0.0
 10
52.060384
 20
572.337604
 30
0.0
 10
51.747128
 20
573.277380
 30
0.0
 10
51.433872
 20
574.217148
 30
0.0
 10
51.120616
 20
575.156924
 30
0.0
 10
50.807360
 20
575.783436
 30
0.0
 10
50.494096
 20
576.723212
 30
0.0
 10
50.180840
 20
577.663012
 30
0.0
 10
49.554328
 20
579.229300
 30
0.0
 10
49.241072
 20
580.795580
 30
0.0
 10
48.927816
 20
582.048612
 30
0.0
  0
LWPOLYLINE
  5
1ac
100
AcDbEntity
  8
Layer_1
 62
5
100
AcDbPolyline
 90
2
 70
0
 10
60.831624
 20
561.373572
 30
0.0
 10
68.663056
 20
561.373572
 30
0.0
  0
LWPOLYLINE
  5
1ad
100
AcDbEntity
  8
Layer_1
 62
5
100
AcDbPolyline
 90
2
 70
0
 10
68.663056
 20
544.457644
 30
0.0
 10
68.663056
 20
561.373572
 30
0.0
  0
LWPOLYLINE
  5
1ae
100
AcDbEntity
  8
Layer_1
 62
5
100
AcDbPolyline
 90
2
 70
0
 10
251.605752
 20
543.204620
 30
0.0
 10
251.605752
 20
561.373572
 30
0.0
  0
LWPOLYLINE
  5
1af
100
AcDbEntity
  8
Layer_1
 62
5
100
AcDbPolyline
 90
2
 70
0
 10
259.750440
 20
561.373572
 30
0.0
 10
251.605752
 20
561.373572
 30
0.0
  0
LWPOLYLINE
  5
1b0
100
AcDbEntity
  8
Layer_1
 62
5
100
AcDbPolyline
 90
2
 70
0
 10
259.750440
 20
555.734940
 30
0.0
 10
259.750440
 20
561.373572
 30
0.0
  0
LWPOLYLINE
  5
1b1
100
AcDbEntity
  8
Layer_1
 62
5
100
AcDbPolyline
 90
25
 70
0
 10
271.654248
 20
582.048612
 30
0.0
 10
271.340992
 20
580.795580
 30
0.0
 10
271.027736
 20
579.542556
 30
0.0
 10
270.401216
 20
578.289524
 30
0.0
 10
270.087960
 20
576.723212
 30
0.0
 10
269.461448
 20
575.156924
 30
0.0
 10
268.834928
 20
573.903892
 30
0.0
 10
268.208416
 20
572.024348
 30
0.0
 10
267.268648
 20
570.458060
 30
0.0
 10
266.955384
 20
569.831548
 30
0.0
 10
266.642128
 20
568.891772
 30
0.0
 10
266.328872
 20
567.952004
 30
0.0
 10
265.702360
 20
567.012228
 30
0.0
 10
265.389104
 20
566.385716
 30
0.0
 10
265.075816
 20
565.445948
 30
0.0
 10
264.449304
 20
564.506172
 30
0.0
 10
264.136040
 20
563.566404
 30
0.0
 10
263.509528
 20
562.626604
 30
0.0
 10
262.883016
 20
561.686828
 30
0.0
 10
262.569760
 20
560.747060
 30
0.0
 10
261.943240
 20
559.807284
 30
0.0
 10
261.316728
 20
558.867516
 30
0.0
 10
261.003472
 20
557.614484
 30
0.0
 10
260.376952
 20
556.674708
 30
0.0
 10
259.750440
 20
555.734940
 30
0.0
  0
LWPOLYLINE
  5
1b2
100
AcDbEntity
  8
Layer_1
 62
5
100
AcDbPolyline
 90
65
 70
0
 10
251.605752
 20
543.204620
 30
0.0
 10
250.665952
 20
542.264844
 30
0.0
 10
249.412920
 20
541.011820
 30
0.0
 10
248.473144
 20
539.758788
 30
0.0
 10
247.533376
 20
538.505756
 30
0.0
 10
246.593600
 20
537.565988
 30
0.0
 10
245.340576
 20
536.312956
 30
0.0
 10
244.400800
 20
535.373188
 30
0.0
 10
243.461032
 20
534.120124
 30
0.0
 10
242.207984
 20
533.180356
 30
0.0
 10
241.268216
 20
531.927324
 30
0.0
 10
240.015184
 20
530.987556
 30
0.0
 10
238.762160
 20
529.734524
 30
0.0
 10
237.822384
 20
528.794748
 30
0.0
 10
236.569328
 20
527.854980
 30
0.0
 10
235.316296
 20
526.601948
 30
0.0
 10
234.063264
 20
525.662180
 30
0.0
 10
232.810240
 20
524.722404
 30
0.0
 10
231.870464
 20
523.782636
 30
0.0
 10
230.617440
 20
522.842860
 30
0.0
 10
229.051152
 20
521.903092
 30
0.0
 10
227.798120
 20
520.963316
 30
0.0
 10
226.545088
 20
520.023516
 30
0.0
 10
225.292064
 20
519.083748
 30
0.0
 10
224.039032
 20
518.143972
 30
0.0
 10
222.786000
 20
517.204204
 30
0.0
 10
221.219688
 20
516.577684
 30
0.0
 10
219.966656
 20
515.637916
 30
0.0
 10
218.713632
 20
515.011404
 30
0.0
 10
217.147344
 20
514.071628
 30
0.0
 10
215.894312
 20
513.131860
 30
0.0
 10
214.328024
 20
512.505340
 30
0.0
 10
212.761744
 20
511.878828
 30
0.0
 10
211.508712
 20
510.939060
 30
0.0
 10
209.942424
 20
510.312540
 30
0.0
 10
208.376112
 20
509.686028
 30
0.0
 10
207.123080
 20
509.059508
 30
0.0
 10
205.556792
 20
508.432996
 30
0.0
 10
203.990504
 20
507.806484
 30
0.0
 10
202.424224
 20
507.179940
 30
0.0
 10
200.857936
 20
506.553452
 30
0.0
 10
199.291648
 20
505.926908
 30
0.0
 10
197.725360
 20
505.300396
 30
0.0
 10
196.159072
 20
504.987140
 30
0.0
 10
194.592760
 20
504.360620
 30
0.0
 10
193.026472
 20
503.734108
 30
0.0
 10
191.460184
 20
503.420852
 30
0.0
 10
189.580640
 20
503.107596
 30
0.0
 10
188.014352
 20
502.481076
 30
0.0
 10
186.448064
 20
502.167820
 30
0.0
 10
184.881784
 20
501.854564
 30
0.0
 10
183.002240
 20
501.541308
 30
0.0
 10
181.435952
 20
501.228052
 30
0.0
 10
179.556376
 20
500.914796
 30
0.0
 10
177.990088
 20
500.601532
 30
0.0
 10
176.110544
 20
500.288276
 30
0.0
 10
174.544264
 20
499.975020
 30
0.0
 10
172.664720
 20
499.661764
 30
0.0
 10
171.098432
 20
499.661764
 30
0.0
 10
169.218888
 20
499.348508
 30
0.0
 10
167.339344
 20
499.348508
 30
0.0
 10
165.459768
 20
499.035252
 30
0.0
 10
163.893480
 20
499.035252
 30
0.0
 10
162.013936
 20
499.035252
 30
0.0
 10
160.134392
 20
499.035252
 30
0.0
  0
LWPOLYLINE
  5
1b3
100
AcDbEntity
  8
Layer_1
 62
5
100
AcDbPolyline
 90
63
 70
0
 10
280.112224
 20
582.048612
 30
0.0
 10
279.485712
 20
579.542556
 30
0.0
 10
278.859168
 20
577.036468
 30
0.0
 10
277.919392
 20
574.843668
 30
0.0
 10
277.292880
 20
572.337604
 30
0.0
 10
276.353104
 20
569.831548
 30
0.0
 10
275.413336
 20
567.638748
 30
0.0
 10
274.160304
 20
565.445948
 30
0.0
 10
273.220536
 20
562.939860
 30
0.0
 10
272.280760
 20
560.747060
 30
0.0
 10
271.027736
 20
558.554252
 30
0.0
 10
269.774704
 20
556.361452
 30
0.0
 10
268.521672
 20
554.168652
 30
0.0
 10
267.268648
 20
551.975852
 30
0.0
 10
266.015616
 20
549.783052
 30
0.0
 10
264.762560
 20
547.590220
 30
0.0
 10
263.509528
 20
545.710676
 30
0.0
 10
261.943240
 20
543.517876
 30
0.0
 10
260.376952
 20
541.638332
 30
0.0
 10
259.123928
 20
539.445532
 30
0.0
 10
257.557640
 20
537.565988
 30
0.0
 10
255.991352
 20
535.686444
 30
0.0
 10
254.111808
 20
533.806868
 30
0.0
 10
252.545520
 20
531.927324
 30
0.0
 10
250.979208
 20
530.047780
 30
0.0
 10
249.099664
 20
528.168236
 30
0.0
 10
247.533376
 20
526.601948
 30
0.0
 10
245.653832
 20
524.722404
 30
0.0
 10
243.774288
 20
523.156116
 30
0.0
 10
241.894728
 20
521.589836
 30
0.0
 10
240.015184
 20
519.710260
 30
0.0
 10
238.135640
 20
518.143972
 30
0.0
 10
236.256072
 20
516.577684
 30
0.0
 10
234.063264
 20
515.324660
 30
0.0
 10
232.183720
 20
513.758372
 30
0.0
 10
229.990920
 20
512.192084
 30
0.0
 10
228.111376
 20
510.939060
 30
0.0
 10
225.918576
 20
509.686028
 30
0.0
 10
223.725776
 20
508.432996
 30
0.0
 10
221.532944
 20
507.179940
 30
0.0
 10
219.340144
 20
505.926908
 30
0.0
 10
217.147344
 20
504.673884
 30
0.0
 10
214.954544
 20
503.420852
 30
0.0
 10
212.761744
 20
502.481076
 30
0.0
 10
210.255680
 20
501.541308
 30
0.0
 10
208.062856
 20
500.288276
 30
0.0
 10
205.556792
 20
499.348508
 30
0.0
 10
203.363992
 20
498.408732
 30
0.0
 10
200.857936
 20
497.782220
 30
0.0
 10
198.665128
 20
496.842444
 30
0.0
 10
196.159072
 20
496.215932
 30
0.0
 10
193.652984
 20
495.276164
 30
0.0
 10
191.146928
 20
494.649644
 30
0.0
 10
188.640872
 20
494.023132
 30
0.0
 10
186.134808
 20
493.709876
 30
0.0
 10
183.628752
 20
493.083356
 30
0.0
 10
181.122696
 20
492.456820
 30
0.0
 10
178.616608
 20
492.143556
 30
0.0
 10
176.110544
 20
491.830300
 30
0.0
 10
173.291232
 20
491.517044
 30
0.0
 10
170.785176
 20
491.203788
 30
0.0
 10
169.010104
 20
490.981908
 30
0.0
 10
168.977144
 20
491.511004
 30
0.0
  0
LWPOLYLINE
  5
1b4
100
AcDbEntity
  8
Layer_1
 62
5
100
AcDbPolyline
 90
2
 70
0
 10
271.654248
 20
582.048612
 30
0.0
 10
280.425480
 20
582.048612
 30
0.0
  0
LWPOLYLINE
  5
1b5
100
AcDbEntity
  8
Layer_1
 62
5
100
AcDbPolyline
 90
64
 70
0
 10
168.976160
 20
457.911004
 30
0.0
 10
151.643680
 20
457.872204
 30
0.0
 10
151.599840
 20
457.368628
 30
0.0
 10
149.483584
 20
457.603764
 30
0.0
 10
146.977528
 20
457.917020
 30
0.0
 10
144.471464
 20
458.230276
 30
0.0
 10
141.652152
 20
458.543532
 30
0.0
 10
139.146096
 20
458.856796
 30
0.0
 10
136.640008
 20
459.483332
 30
0.0
 10
134.133944
 20
460.109852
 30
0.0
 10
131.627888
 20
460.423108
 30
0.0
 10
129.121832
 20
461.049620
 30
0.0
 10
126.615768
 20
461.676140
 30
0.0
 10
124.109680
 20
462.615908
 30
0.0
 10
121.603624
 20
463.242420
 30
0.0
 10
119.410824
 20
464.182196
 30
0.0
 10
116.904768
 20
465.121964
 30
0.0
 10
114.711960
 20
465.748484
 30
0.0
 10
112.205904
 20
466.688252
 30
0.0
 10
110.013072
 20
467.941284
 30
0.0
 10
107.507016
 20
468.881052
 30
0.0
 10
105.314216
 20
469.820828
 30
0.0
 10
103.121416
 20
471.073860
 30
0.0
 10
100.928616
 20
472.326884
 30
0.0
 10
98.735808
 20
473.579916
 30
0.0
 10
96.542984
 20
474.832972
 30
0.0
 10
94.350184
 20
476.086004
 30
0.0
 10
92.157376
 20
477.339036
 30
0.0
 10
90.277832
 20
478.905316
 30
0.0
 10
88.085032
 20
480.158348
 30
0.0
 10
86.205488
 20
481.724636
 30
0.0
 10
84.012688
 20
483.290924
 30
0.0
 10
82.133112
 20
484.857204
 30
0.0
 10
80.253568
 20
486.423492
 30
0.0
 10
78.374024
 20
487.989812
 30
0.0
 10
76.494480
 20
489.556092
 30
0.0
 10
74.614936
 20
491.122380
 30
0.0
 10
73.048656
 20
493.001924
 30
0.0
 10
71.169112
 20
494.881468
 30
0.0
 10
69.289568
 20
496.447756
 30
0.0
 10
67.723248
 20
498.327300
 30
0.0
 10
66.156960
 20
500.206844
 30
0.0
 10
64.590680
 20
502.086420
 30
0.0
 10
63.024392
 20
503.965964
 30
0.0
 10
61.458104
 20
506.158764
 30
0.0
 10
59.891816
 20
508.038308
 30
0.0
 10
58.325528
 20
509.917852
 30
0.0
 10
57.072504
 20
512.110652
 30
0.0
 10
55.506216
 20
514.303452
 30
0.0
 10
54.253160
 20
516.183028
 30
0.0
 10
53.000128
 20
518.375828
 30
0.0
 10
51.747096
 20
520.568628
 30
0.0
 10
50.494064
 20
522.761428
 30
0.0
 10
49.241040
 20
524.954228
 30
0.0
 10
48.301264
 20
527.147036
 30
0.0
 10
47.048240
 20
529.653092
 30
0.0
 10
46.108464
 20
531.845924
 30
0.0
 10
45.168696
 20
534.038724
 30
0.0
 10
44.228920
 20
536.544780
 30
0.0
 10
43.289152
 20
538.737580
 30
0.0
 10
42.349376
 20
541.243644
 30
0.0
 10
41.409608
 20
543.749732
 30
0.0
 10
40.783088
 20
545.942532
 30
0.0
 10
40.156544
 20
548.448588
 30
0.0
  0
LWPOLYLINE
  5
1b6
100
AcDbEntity
  8
Layer_1
 62
5
100
AcDbPolyline
 90
2
 70
0
 10
60.518360
 20
522.448196
 30
0.0
 10
60.518360
 20
527.773572
 30
0.0
  0
LWPOLYLINE
  5
1b7
100
AcDbEntity
  8
Layer_1
 62
5
100
AcDbPolyline
 90
2
 70
0
 10
40.156576
 20
548.448612
 30
0.0
 10
48.927816
 20
548.448612
 30
0.0
  0
LWPOLYLINE
  5
1b8
100
AcDbEntity
  8
Layer_1
 62
5
100
AcDbPolyline
 90
65
 70
0
 10
160.134392
 20
465.435252
 30
0.0
 10
158.568104
 20
465.435252
 30
0.0
 10
156.688560
 20
465.435252
 30
0.0
 10
155.122280
 20
465.748508
 30
0.0
 10
153.242736
 20
465.748508
 30
0.0
 10
151.676416
 20
465.748508
 30
0.0
 10
149.796872
 20
466.061764
 30
0.0
 10
148.230584
 20
466.061764
 30
0.0
 10
146.351040
 20
466.375020
 30
0.0
 10
144.784760
 20
466.688276
 30
0.0
 10
143.218472
 20
466.688276
 30
0.0
 10
141.338928
 20
467.001532
 30
0.0
 10
139.772640
 20
467.314796
 30
0.0
 10
138.206328
 20
467.628052
 30
0.0
 10
136.326784
 20
467.941308
 30
0.0
 10
134.760496
 20
468.254564
 30
0.0
 10
133.194208
 20
468.881076
 30
0.0
 10
131.627920
 20
469.194340
 30
0.0
 10
129.748376
 20
469.507596
 30
0.0
 10
128.182088
 20
470.134108
 30
0.0
 10
126.615800
 20
470.447364
 30
0.0
 10
125.049512
 20
471.073884
 30
0.0
 10
123.483200
 20
471.700396
 30
0.0
 10
121.916912
 20
472.013652
 30
0.0
 10
120.350624
 20
472.640164
 30
0.0
 10
118.784344
 20
473.266708
 30
0.0
 10
117.218056
 20
473.893196
 30
0.0
 10
115.651768
 20
474.519740
 30
0.0
 10
114.085480
 20
475.146252
 30
0.0
 10
112.519192
 20
475.772772
 30
0.0
 10
111.266168
 20
476.399284
 30
0.0
 10
109.699848
 20
477.339060
 30
0.0
 10
108.133560
 20
477.965572
 30
0.0
 10
106.567280
 20
478.592084
 30
0.0
 10
105.314248
 20
479.531860
 30
0.0
 10
103.747960
 20
480.158372
 30
0.0
 10
102.494928
 20
481.098148
 30
0.0
 10
100.928648
 20
481.724660
 30
0.0
 10
99.675616
 20
482.664428
 30
0.0
 10
98.109328
 20
483.604204
 30
0.0
 10
96.856296
 20
484.543972
 30
0.0
 10
95.603240
 20
485.483748
 30
0.0
 10
94.036952
 20
486.423516
 30
0.0
 10
92.783928
 20
487.363316
 30
0.0
 10
91.530896
 20
488.303092
 30
0.0
 10
90.277864
 20
489.242860
 30
0.0
 10
89.024840
 20
490.182636
 30
0.0
 10
87.458552
 20
491.122404
 30
0.0
 10
86.205520
 20
492.062180
 30
0.0
 10
85.265752
 20
493.315204
 30
0.0
 10
84.012720
 20
494.254980
 30
0.0
 10
82.759688
 20
495.508012
 30
0.0
 10
81.506632
 20
496.447780
 30
0.0
 10
80.253600
 20
497.700812
 30
0.0
 10
79.313832
 20
498.640580
 30
0.0
 10
78.060800
 20
499.893612
 30
0.0
 10
76.807776
 20
501.146644
 30
0.0
 10
75.868000
 20
502.086444
 30
0.0
 10
74.614968
 20
503.339468
 30
0.0
 10
73.675200
 20
504.592500
 30
0.0
 10
72.735424
 20
505.845532
 30
0.0
 10
71.795656
 20
507.098556
 30
0.0
 10
70.542624
 20
508.351588
 30
0.0
 10
69.602856
 20
509.604620
 30
0.0
 10
68.663056
 20
510.857644
 30
0.0
  0
LWPOLYLINE
  5
1b9
100
AcDbEntity
  8
Layer_1
 62
5
100
AcDbPolyline
 90
27
 70
0
 10
60.518360
 20
522.448196
 30
0.0
 10
59.578592
 20
523.701228
 30
0.0
 10
58.952080
 20
524.954252
 30
0.0
 10
58.012304
 20
526.520540
 30
0.0
 10
57.699048
 20
527.147060
 30
0.0
 10
57.072536
 20
528.086828
 30
0.0
 10
56.759272
 20
528.713340
 30
0.0
 10
56.132760
 20
529.653116
 30
0.0
 10
55.819504
 20
530.592916
 30
0.0
 10
55.506248
 20
531.219428
 30
0.0
 10
54.879728
 20
532.159204
 30
0.0
 10
54.566472
 20
533.098972
 30
0.0
 10
54.253192
 20
534.038748
 30
0.0
 10
53.626672
 20
534.978516
 30
0.0
 10
53.313416
 20
535.918292
 30
0.0
 10
53.000160
 20
536.858060
 30
0.0
 10
52.373640
 20
537.797836
 30
0.0
 10
52.060384
 20
538.737604
 30
0.0
 10
51.747128
 20
539.677380
 30
0.0
 10
51.433872
 20
540.617148
 30
0.0
 10
51.120616
 20
541.556924
 30
0.0
 10
50.807360
 20
542.183436
 30
0.0
 10
50.494096
 20
543.123212
 30
0.0
 10
50.180840
 20
544.063012
 30
0.0
 10
49.554328
 20
545.629300
 30
0.0
 10
49.241072
 20
547.195580
 30
0.0
 10
48.927816
 20
548.448612
 30
0.0
  0
LWPOLYLINE
  5
1ba
100
AcDbEntity
  8
Layer_1
 62
5
100
AcDbPolyline
 90
2
 70
0
 10
60.831624
 20
527.773572
 30
0.0
 10
68.663056
 20
527.773572
 30
0.0
  0
LWPOLYLINE
  5
1bb
100
AcDbEntity
  8
Layer_1
 62
5
100
AcDbPolyline
 90
2
 70
0
 10
68.663056
 20
510.857644
 30
0.0
 10
68.663056
 20
527.773572
 30
0.0
  0
LWPOLYLINE
  5
1bc
100
AcDbEntity
  8
Layer_1
 62
5
100
AcDbPolyline
 90
2
 70
0
 10
251.605752
 20
509.604620
 30
0.0
 10
251.605752
 20
527.773572
 30
0.0
  0
LWPOLYLINE
  5
1bd
100
AcDbEntity
  8
Layer_1
 62
5
100
AcDbPolyline
 90
2
 70
0
 10
259.750440
 20
527.773572
 30
0.0
 10
251.605752
 20
527.773572
 30
0.0
  0
LWPOLYLINE
  5
1be
100
AcDbEntity
  8
Layer_1
 62
5
100
AcDbPolyline
 90
2
 70
0
 10
259.750440
 20
522.134940
 30
0.0
 10
259.750440
 20
527.773572
 30
0.0
  0
LWPOLYLINE
  5
1bf
100
AcDbEntity
  8
Layer_1
 62
5
100
AcDbPolyline
 90
25
 70
0
 10
271.654248
 20
548.448612
 30
0.0
 10
271.340992
 20
547.195580
 30
0.0
 10
271.027736
 20
545.942556
 30
0.0
 10
270.401216
 20
544.689524
 30
0.0
 10
270.087960
 20
543.123212
 30
0.0
 10
269.461448
 20
541.556924
 30
0.0
 10
268.834928
 20
540.303892
 30
0.0
 10
268.208416
 20
538.424348
 30
0.0
 10
267.268648
 20
536.858060
 30
0.0
 10
266.955384
 20
536.231548
 30
0.0
 10
266.642128
 20
535.291772
 30
0.0
 10
266.328872
 20
534.352004
 30
0.0
 10
265.702360
 20
533.412228
 30
0.0
 10
265.389104
 20
532.785716
 30
0.0
 10
265.075816
 20
531.845948
 30
0.0
 10
264.449304
 20
530.906172
 30
0.0
 10
264.136040
 20
529.966404
 30
0.0
 10
263.509528
 20
529.026604
 30
0.0
 10
262.883016
 20
528.086828
 30
0.0
 10
262.569760
 20
527.147060
 30
0.0
 10
261.943240
 20
526.207284
 30
0.0
 10
261.316728
 20
525.267516
 30
0.0
 10
261.003472
 20
524.014484
 30
0.0
 10
260.376952
 20
523.074708
 30
0.0
 10
259.750440
 20
522.134940
 30
0.0
  0
LWPOLYLINE
  5
1c0
100
AcDbEntity
  8
Layer_1
 62
5
100
AcDbPolyline
 90
65
 70
0
 10
251.605752
 20
509.604620
 30
0.0
 10
250.665952
 20
508.664844
 30
0.0
 10
249.412920
 20
507.411820
 30
0.0
 10
248.473144
 20
506.158788
 30
0.0
 10
247.533376
 20
504.905756
 30
0.0
 10
246.593600
 20
503.965988
 30
0.0
 10
245.340576
 20
502.712956
 30
0.0
 10
244.400800
 20
501.773188
 30
0.0
 10
243.461032
 20
500.520124
 30
0.0
 10
242.207984
 20
499.580356
 30
0.0
 10
241.268216
 20
498.327324
 30
0.0
 10
240.015184
 20
497.387556
 30
0.0
 10
238.762160
 20
496.134524
 30
0.0
 10
237.822384
 20
495.194748
 30
0.0
 10
236.569328
 20
494.254980
 30
0.0
 10
235.316296
 20
493.001948
 30
0.0
 10
234.063264
 20
492.062180
 30
0.0
 10
232.810240
 20
491.122404
 30
0.0
 10
231.870464
 20
490.182636
 30
0.0
 10
230.617440
 20
489.242860
 30
0.0
 10
229.051152
 20
488.303092
 30
0.0
 10
227.798120
 20
487.363316
 30
0.0
 10
226.545088
 20
486.423516
 30
0.0
 10
225.292064
 20
485.483748
 30
0.0
 10
224.039032
 20
484.543972
 30
0.0
 10
222.786000
 20
483.604204
 30
0.0
 10
221.219688
 20
482.977684
 30
0.0
 10
219.966656
 20
482.037916
 30
0.0
 10
218.713632
 20
481.411404
 30
0.0
 10
217.147344
 20
480.471628
 30
0.0
 10
215.894312
 20
479.531860
 30
0.0
 10
214.328024
 20
478.905340
 30
0.0
 10
212.761744
 20
478.278828
 30
0.0
 10
211.508712
 20
477.339060
 30
0.0
 10
209.942424
 20
476.712540
 30
0.0
 10
208.376112
 20
476.086028
 30
0.0
 10
207.123080
 20
475.459508
 30
0.0
 10
205.556792
 20
474.832996
 30
0.0
 10
203.990504
 20
474.206484
 30
0.0
 10
202.424224
 20
473.579940
 30
0.0
 10
200.857936
 20
472.953452
 30
0.0
 10
199.291648
 20
472.326908
 30
0.0
 10
197.725360
 20
471.700396
 30
0.0
 10
196.159072
 20
471.387140
 30
0.0
 10
194.592760
 20
470.760620
 30
0.0
 10
193.026472
 20
470.134108
 30
0.0
 10
191.460184
 20
469.820852
 30
0.0
 10
189.580640
 20
469.507596
 30
0.0
 10
188.014352
 20
468.881076
 30
0.0
 10
186.448064
 20
468.567820
 30
0.0
 10
184.881784
 20
468.254564
 30
0.0
 10
183.002240
 20
467.941308
 30
0.0
 10
181.435952
 20
467.628052
 30
0.0
 10
179.556376
 20
467.314796
 30
0.0
 10
177.990088
 20
467.001532
 30
0.0
 10
176.110544
 20
466.688276
 30
0.0
 10
174.544264
 20
466.375020
 30
0.0
 10
172.664720
 20
466.061764
 30
0.0
 10
171.098432
 20
466.061764
 30
0.0
 10
169.218888
 20
465.748508
 30
0.0
 10
167.339344
 20
465.748508
 30
0.0
 10
165.459768
 20
465.435252
 30
0.0
 10
163.893480
 20
465.435252
 30
0.0
 10
162.013936
 20
465.435252
 30
0.0
 10
160.134392
 20
465.435252
 30
0.0
  0
LWPOLYLINE
  5
1c1
100
AcDbEntity
  8
Layer_1
 62
5
100
AcDbPolyline
 90
63
 70
0
 10
280.112224
 20
548.448612
 30
0.0
 10
279.485712
 20
545.942556
 30
0.0
 10
278.859168
 20
543.436468
 30
0.0
 10
277.919392
 20
541.243668
 30
0.0
 10
277.292880
 20
538.737604
 30
0.0
 10
276.353104
 20
536.231548
 30
0.0
 10
275.413336
 20
534.038748
 30
0.0
 10
274.160304
 20
531.845948
 30
0.0
 10
273.220536
 20
529.339860
 30
0.0
 10
272.280760
 20
527.147060
 30
0.0
 10
271.027736
 20
524.954252
 30
0.0
 10
269.774704
 20
522.761452
 30
0.0
 10
268.521672
 20
520.568652
 30
0.0
 10
267.268648
 20
518.375852
 30
0.0
 10
266.015616
 20
516.183052
 30
0.0
 10
264.762560
 20
513.990220
 30
0.0
 10
263.509528
 20
512.110676
 30
0.0
 10
261.943240
 20
509.917876
 30
0.0
 10
260.376952
 20
508.038332
 30
0.0
 10
259.123928
 20
505.845532
 30
0.0
 10
257.557640
 20
503.965988
 30
0.0
 10
255.991352
 20
502.086444
 30
0.0
 10
254.111808
 20
500.206868
 30
0.0
 10
252.545520
 20
498.327324
 30
0.0
 10
250.979208
 20
496.447780
 30
0.0
 10
249.099664
 20
494.568236
 30
0.0
 10
247.533376
 20
493.001948
 30
0.0
 10
245.653832
 20
491.122404
 30
0.0
 10
243.774288
 20
489.556116
 30
0.0
 10
241.894728
 20
487.989836
 30
0.0
 10
240.015184
 20
486.110260
 30
0.0
 10
238.135640
 20
484.543972
 30
0.0
 10
236.256072
 20
482.977684
 30
0.0
 10
234.063264
 20
481.724660
 30
0.0
 10
232.183720
 20
480.158372
 30
0.0
 10
229.990920
 20
478.592084
 30
0.0
 10
228.111376
 20
477.339060
 30
0.0
 10
225.918576
 20
476.086028
 30
0.0
 10
223.725776
 20
474.832996
 30
0.0
 10
221.532944
 20
473.579940
 30
0.0
 10
219.340144
 20
472.326908
 30
0.0
 10
217.147344
 20
471.073884
 30
0.0
 10
214.954544
 20
469.820852
 30
0.0
 10
212.761744
 20
468.881076
 30
0.0
 10
210.255680
 20
467.941308
 30
0.0
 10
208.062856
 20
466.688276
 30
0.0
 10
205.556792
 20
465.748508
 30
0.0
 10
203.363992
 20
464.808732
 30
0.0
 10
200.857936
 20
464.182220
 30
0.0
 10
198.665128
 20
463.242444
 30
0.0
 10
196.159072
 20
462.615932
 30
0.0
 10
193.652984
 20
461.676164
 30
0.0
 10
191.146928
 20
461.049644
 30
0.0
 10
188.640872
 20
460.423132
 30
0.0
 10
186.134808
 20
460.109876
 30
0.0
 10
183.628752
 20
459.483356
 30
0.0
 10
181.122696
 20
458.856820
 30
0.0
 10
178.616608
 20
458.543556
 30
0.0
 10
176.110544
 20
458.230300
 30
0.0
 10
173.291232
 20
457.917044
 30
0.0
 10
170.785176
 20
457.603788
 30
0.0
 10
169.010104
 20
457.381908
 30
0.0
 10
168.977144
 20
457.911004
 30
0.0
  0
LWPOLYLINE
  5
1c2
100
AcDbEntity
  8
Layer_1
 62
5
100
AcDbPolyline
 90
2
 70
0
 10
271.654248
 20
548.448612
 30
0.0
 10
280.425480
 20
548.448612
 30
0.0
  0
LWPOLYLINE
  5
1c3
100
AcDbEntity
  8
Layer_1
 62
5
100
AcDbPolyline
 90
64
 70
0
 10
168.976160
 20
425.911004
 30
0.0
 10
151.643680
 20
425.872204
 30
0.0
 10
151.599840
 20
425.368628
 30
0.0
 10
149.483584
 20
425.603764
 30
0.0
 10
146.977528
 20
425.917020
 30
0.0
 10
144.471464
 20
426.230276
 30
0.0
 10
141.652152
 20
426.543532
 30
0.0
 10
139.146096
 20
426.856796
 30
0.0
 10
136.640008
 20
427.483332
 30
0.0
 10
134.133944
 20
428.109852
 30
0.0
 10
131.627888
 20
428.423108
 30
0.0
 10
129.121832
 20
429.049620
 30
0.0
 10
126.615768
 20
429.676140
 30
0.0
 10
124.109680
 20
430.615908
 30
0.0
 10
121.603624
 20
431.242420
 30
0.0
 10
119.410824
 20
432.182196
 30
0.0
 10
116.904768
 20
433.121964
 30
0.0
 10
114.711960
 20
433.748484
 30
0.0
 10
112.205904
 20
434.688252
 30
0.0
 10
110.013072
 20
435.941284
 30
0.0
 10
107.507016
 20
436.881052
 30
0.0
 10
105.314216
 20
437.820828
 30
0.0
 10
103.121416
 20
439.073860
 30
0.0
 10
100.928616
 20
440.326884
 30
0.0
 10
98.735808
 20
441.579916
 30
0.0
 10
96.542984
 20
442.832972
 30
0.0
 10
94.350184
 20
444.086004
 30
0.0
 10
92.157376
 20
445.339036
 30
0.0
 10
90.277832
 20
446.905316
 30
0.0
 10
88.085032
 20
448.158348
 30
0.0
 10
86.205488
 20
449.724636
 30
0.0
 10
84.012688
 20
451.290924
 30
0.0
 10
82.133112
 20
452.857204
 30
0.0
 10
80.253568
 20
454.423492
 30
0.0
 10
78.374024
 20
455.989812
 30
0.0
 10
76.494480
 20
457.556092
 30
0.0
 10
74.614936
 20
459.122380
 30
0.0
 10
73.048656
 20
461.001924
 30
0.0
 10
71.169112
 20
462.881468
 30
0.0
 10
69.289568
 20
464.447756
 30
0.0
 10
67.723248
 20
466.327300
 30
0.0
 10
66.156960
 20
468.206844
 30
0.0
 10
64.590680
 20
470.086420
 30
0.0
 10
63.024392
 20
471.965964
 30
0.0
 10
61.458104
 20
474.158764
 30
0.0
 10
59.891816
 20
476.038308
 30
0.0
 10
58.325528
 20
477.917852
 30
0.0
 10
57.072504
 20
480.110652
 30
0.0
 10
55.506216
 20
482.303452
 30
0.0
 10
54.253160
 20
484.183028
 30
0.0
 10
53.000128
 20
486.375828
 30
0.0
 10
51.747096
 20
488.568628
 30
0.0
 10
50.494064
 20
490.761428
 30
0.0
 10
49.241040
 20
492.954228
 30
0.0
 10
48.301264
 20
495.147036
 30
0.0
 10
47.048240
 20
497.653092
 30
0.0
 10
46.108464
 20
499.845924
 30
0.0
 10
45.168696
 20
502.038724
 30
0.0
 10
44.228920
 20
504.544780
 30
0.0
 10
43.289152
 20
506.737580
 30
0.0
 10
42.349376
 20
509.243644
 30
0.0
 10
41.409608
 20
511.749732
 30
0.0
 10
40.783088
 20
513.942532
 30
0.0
 10
40.156544
 20
516.448588
 30
0.0
  0
LWPOLYLINE
  5
1c4
100
AcDbEntity
  8
Layer_1
 62
5
100
AcDbPolyline
 90
2
 70
0
 10
60.518360
 20
490.448196
 30
0.0
 10
60.518360
 20
495.773572
 30
0.0
  0
LWPOLYLINE
  5
1c5
100
AcDbEntity
  8
Layer_1
 62
5
100
AcDbPolyline
 90
2
 70
0
 10
40.156576
 20
516.448612
 30
0.0
 10
48.927816
 20
516.448612
 30
0.0
  0
LWPOLYLINE
  5
1c6
100
AcDbEntity
  8
Layer_1
 62
5
100
AcDbPolyline
 90
65
 70
0
 10
160.134392
 20
433.435252
 30
0.0
 10
158.568104
 20
433.435252
 30
0.0
 10
156.688560
 20
433.435252
 30
0.0
 10
155.122280
 20
433.748508
 30
0.0
 10
153.242736
 20
433.748508
 30
0.0
 10
151.676416
 20
433.748508
 30
0.0
 10
149.796872
 20
434.061764
 30
0.0
 10
148.230584
 20
434.061764
 30
0.0
 10
146.351040
 20
434.375020
 30
0.0
 10
144.784760
 20
434.688276
 30
0.0
 10
143.218472
 20
434.688276
 30
0.0
 10
141.338928
 20
435.001532
 30
0.0
 10
139.772640
 20
435.314796
 30
0.0
 10
138.206328
 20
435.628052
 30
0.0
 10
136.326784
 20
435.941308
 30
0.0
 10
134.760496
 20
436.254564
 30
0.0
 10
133.194208
 20
436.881076
 30
0.0
 10
131.627920
 20
437.194340
 30
0.0
 10
129.748376
 20
437.507596
 30
0.0
 10
128.182088
 20
438.134108
 30
0.0
 10
126.615800
 20
438.447364
 30
0.0
 10
125.049512
 20
439.073884
 30
0.0
 10
123.483200
 20
439.700396
 30
0.0
 10
121.916912
 20
440.013652
 30
0.0
 10
120.350624
 20
440.640164
 30
0.0
 10
118.784344
 20
441.266708
 30
0.0
 10
117.218056
 20
441.893196
 30
0.0
 10
115.651768
 20
442.519740
 30
0.0
 10
114.085480
 20
443.146252
 30
0.0
 10
112.519192
 20
443.772772
 30
0.0
 10
111.266168
 20
444.399284
 30
0.0
 10
109.699848
 20
445.339060
 30
0.0
 10
108.133560
 20
445.965572
 30
0.0
 10
106.567280
 20
446.592084
 30
0.0
 10
105.314248
 20
447.531860
 30
0.0
 10
103.747960
 20
448.158372
 30
0.0
 10
102.494928
 20
449.098148
 30
0.0
 10
100.928648
 20
449.724660
 30
0.0
 10
99.675616
 20
450.664428
 30
0.0
 10
98.109328
 20
451.604204
 30
0.0
 10
96.856296
 20
452.543972
 30
0.0
 10
95.603240
 20
453.483748
 30
0.0
 10
94.036952
 20
454.423516
 30
0.0
 10
92.783928
 20
455.363316
 30
0.0
 10
91.530896
 20
456.303092
 30
0.0
 10
90.277864
 20
457.242860
 30
0.0
 10
89.024840
 20
458.182636
 30
0.0
 10
87.458552
 20
459.122404
 30
0.0
 10
86.205520
 20
460.062180
 30
0.0
 10
85.265752
 20
461.315204
 30
0.0
 10
84.012720
 20
462.254980
 30
0.0
 10
82.759688
 20
463.508012
 30
0.0
 10
81.506632
 20
464.447780
 30
0.0
 10
80.253600
 20
465.700812
 30
0.0
 10
79.313832
 20
466.640580
 30
0.0
 10
78.060800
 20
467.893612
 30
0.0
 10
76.807776
 20
469.146644
 30
0.0
 10
75.868000
 20
470.086444
 30
0.0
 10
74.614968
 20
471.339468
 30
0.0
 10
73.675200
 20
472.592500
 30
0.0
 10
72.735424
 20
473.845532
 30
0.0
 10
71.795656
 20
475.098556
 30
0.0
 10
70.542624
 20
476.351588
 30
0.0
 10
69.602856
 20
477.604620
 30
0.0
 10
68.663056
 20
478.857644
 30
0.0
  0
LWPOLYLINE
  5
1c7
100
AcDbEntity
  8
Layer_1
 62
5
100
AcDbPolyline
 90
27
 70
0
 10
60.518360
 20
490.448196
 30
0.0
 10
59.578592
 20
491.701228
 30
0.0
 10
58.952080
 20
492.954252
 30
0.0
 10
58.012304
 20
494.520540
 30
0.0
 10
57.699048
 20
495.147060
 30
0.0
 10
57.072536
 20
496.086828
 30
0.0
 10
56.759272
 20
496.713340
 30
0.0
 10
56.132760
 20
497.653116
 30
0.0
 10
55.819504
 20
498.592916
 30
0.0
 10
55.506248
 20
499.219428
 30
0.0
 10
54.879728
 20
500.159204
 30
0.0
 10
54.566472
 20
501.098972
 30
0.0
 10
54.253192
 20
502.038748
 30
0.0
 10
53.626672
 20
502.978516
 30
0.0
 10
53.313416
 20
503.918292
 30
0.0
 10
53.000160
 20
504.858060
 30
0.0
 10
52.373640
 20
505.797836
 30
0.0
 10
52.060384
 20
506.737604
 30
0.0
 10
51.747128
 20
507.677380
 30
0.0
 10
51.433872
 20
508.617148
 30
0.0
 10
51.120616
 20
509.556924
 30
0.0
 10
50.807360
 20
510.183436
 30
0.0
 10
50.494096
 20
511.123212
 30
0.0
 10
50.180840
 20
512.063012
 30
0.0
 10
49.554328
 20
513.629300
 30
0.0
 10
49.241072
 20
515.195580
 30
0.0
 10
48.927816
 20
516.448612
 30
0.0
  0
LWPOLYLINE
  5
1c8
100
AcDbEntity
  8
Layer_1
 62
5
100
AcDbPolyline
 90
2
 70
0
 10
60.831624
 20
495.773572
 30
0.0
 10
68.663056
 20
495.773572
 30
0.0
  0
LWPOLYLINE
  5
1c9
100
AcDbEntity
  8
Layer_1
 62
5
100
AcDbPolyline
 90
2
 70
0
 10
68.663056
 20
478.857644
 30
0.0
 10
68.663056
 20
495.773572
 30
0.0
  0
LWPOLYLINE
  5
1ca
100
AcDbEntity
  8
Layer_1
 62
5
100
AcDbPolyline
 90
2
 70
0
 10
251.605752
 20
477.604620
 30
0.0
 10
251.605752
 20
495.773572
 30
0.0
  0
LWPOLYLINE
  5
1cb
100
AcDbEntity
  8
Layer_1
 62
5
100
AcDbPolyline
 90
2
 70
0
 10
259.750440
 20
495.773572
 30
0.0
 10
251.605752
 20
495.773572
 30
0.0
  0
LWPOLYLINE
  5
1cc
100
AcDbEntity
  8
Layer_1
 62
5
100
AcDbPolyline
 90
2
 70
0
 10
259.750440
 20
490.134940
 30
0.0
 10
259.750440
 20
495.773572
 30
0.0
  0
LWPOLYLINE
  5
1cd
100
AcDbEntity
  8
Layer_1
 62
5
100
AcDbPolyline
 90
25
 70
0
 10
271.654248
 20
516.448612
 30
0.0
 10
271.340992
 20
515.195580
 30
0.0
 10
271.027736
 20
513.942556
 30
0.0
 10
270.401216
 20
512.689524
 30
0.0
 10
270.087960
 20
511.123212
 30
0.0
 10
269.461448
 20
509.556924
 30
0.0
 10
268.834928
 20
508.303892
 30
0.0
 10
268.208416
 20
506.424348
 30
0.0
 10
267.268648
 20
504.858060
 30
0.0
 10
266.955384
 20
504.231548
 30
0.0
 10
266.642128
 20
503.291772
 30
0.0
 10
266.328872
 20
502.352004
 30
0.0
 10
265.702360
 20
501.412228
 30
0.0
 10
265.389104
 20
500.785716
 30
0.0
 10
265.075816
 20
499.845948
 30
0.0
 10
264.449304
 20
498.906172
 30
0.0
 10
264.136040
 20
497.966404
 30
0.0
 10
263.509528
 20
497.026604
 30
0.0
 10
262.883016
 20
496.086828
 30
0.0
 10
262.569760
 20
495.147060
 30
0.0
 10
261.943240
 20
494.207284
 30
0.0
 10
261.316728
 20
493.267516
 30
0.0
 10
261.003472
 20
492.014484
 30
0.0
 10
260.376952
 20
491.074708
 30
0.0
 10
259.750440
 20
490.134940
 30
0.0
  0
LWPOLYLINE
  5
1ce
100
AcDbEntity
  8
Layer_1
 62
5
100
AcDbPolyline
 90
65
 70
0
 10
251.605752
 20
477.604620
 30
0.0
 10
250.665952
 20
476.664844
 30
0.0
 10
249.412920
 20
475.411820
 30
0.0
 10
248.473144
 20
474.158788
 30
0.0
 10
247.533376
 20
472.905756
 30
0.0
 10
246.593600
 20
471.965988
 30
0.0
 10
245.340576
 20
470.712956
 30
0.0
 10
244.400800
 20
469.773188
 30
0.0
 10
243.461032
 20
468.520124
 30
0.0
 10
242.207984
 20
467.580356
 30
0.0
 10
241.268216
 20
466.327324
 30
0.0
 10
240.015184
 20
465.387556
 30
0.0
 10
238.762160
 20
464.134524
 30
0.0
 10
237.822384
 20
463.194748
 30
0.0
 10
236.569328
 20
462.254980
 30
0.0
 10
235.316296
 20
461.001948
 30
0.0
 10
234.063264
 20
460.062180
 30
0.0
 10
232.810240
 20
459.122404
 30
0.0
 10
231.870464
 20
458.182636
 30
0.0
 10
230.617440
 20
457.242860
 30
0.0
 10
229.051152
 20
456.303092
 30
0.0
 10
227.798120
 20
455.363316
 30
0.0
 10
226.545088
 20
454.423516
 30
0.0
 10
225.292064
 20
453.483748
 30
0.0
 10
224.039032
 20
452.543972
 30
0.0
 10
222.786000
 20
451.604204
 30
0.0
 10
221.219688
 20
450.977684
 30
0.0
 10
219.966656
 20
450.037916
 30
0.0
 10
218.713632
 20
449.411404
 30
0.0
 10
217.147344
 20
448.471628
 30
0.0
 10
215.894312
 20
447.531860
 30
0.0
 10
214.328024
 20
446.905340
 30
0.0
 10
212.761744
 20
446.278828
 30
0.0
 10
211.508712
 20
445.339060
 30
0.0
 10
209.942424
 20
444.712540
 30
0.0
 10
208.376112
 20
444.086028
 30
0.0
 10
207.123080
 20
443.459508
 30
0.0
 10
205.556792
 20
442.832996
 30
0.0
 10
203.990504
 20
442.206484
 30
0.0
 10
202.424224
 20
441.579940
 30
0.0
 10
200.857936
 20
440.953452
 30
0.0
 10
199.291648
 20
440.326908
 30
0.0
 10
197.725360
 20
439.700396
 30
0.0
 10
196.159072
 20
439.387140
 30
0.0
 10
194.592760
 20
438.760620
 30
0.0
 10
193.026472
 20
438.134108
 30
0.0
 10
191.460184
 20
437.820852
 30
0.0
 10
189.580640
 20
437.507596
 30
0.0
 10
188.014352
 20
436.881076
 30
0.0
 10
186.448064
 20
436.567820
 30
0.0
 10
184.881784
 20
436.254564
 30
0.0
 10
183.002240
 20
435.941308
 30
0.0
 10
181.435952
 20
435.628052
 30
0.0
 10
179.556376
 20
435.314796
 30
0.0
 10
177.990088
 20
435.001532
 30
0.0
 10
176.110544
 20
434.688276
 30
0.0
 10
174.544264
 20
434.375020
 30
0.0
 10
172.664720
 20
434.061764
 30
0.0
 10
171.098432
 20
434.061764
 30
0.0
 10
169.218888
 20
433.748508
 30
0.0
 10
167.339344
 20
433.748508
 30
0.0
 10
165.459768
 20
433.435252
 30
0.0
 10
163.893480
 20
433.435252
 30
0.0
 10
162.013936
 20
433.435252
 30
0.0
 10
160.134392
 20
433.435252
 30
0.0
  0
LWPOLYLINE
  5
1cf
100
AcDbEntity
  8
Layer_1
 62
5
100
AcDbPolyline
 90
63
 70
0
 10
280.112224
 20
516.448612
 30
0.0
 10
279.485712
 20
513.942556
 30
0.0
 10
278.859168
 20
511.436468
 30
0.0
 10
277.919392
 20
509.243668
 30
0.0
 10
277.292880
 20
506.737604
 30
0.0
 10
276.353104
 20
504.231548
 30
0.0
 10
275.413336
 20
502.038748
 30
0.0
 10
274.160304
 20
499.845948
 30
0.0
 10
273.220536
 20
497.339860
 30
0.0
 10
272.280760
 20
495.147060
 30
0.0
 10
271.027736
 20
492.954252
 30
0.0
 10
269.774704
 20
490.761452
 30
0.0
 10
268.521672
 20
488.568652
 30
0.0
 10
267.268648
 20
486.375852
 30
0.0
 10
266.015616
 20
484.183052
 30
0.0
 10
264.762560
 20
481.990220
 30
0.0
 10
263.509528
 20
480.110676
 30
0.0
 10
261.943240
 20
477.917876
 30
0.0
 10
260.376952
 20
476.038332
 30
0.0
 10
259.123928
 20
473.845532
 30
0.0
 10
257.557640
 20
471.965988
 30
0.0
 10
255.991352
 20
470.086444
 30
0.0
 10
254.111808
 20
468.206868
 30
0.0
 10
252.545520
 20
466.327324
 30
0.0
 10
250.979208
 20
464.447780
 30
0.0
 10
249.099664
 20
462.568236
 30
0.0
 10
247.533376
 20
461.001948
 30
0.0
 10
245.653832
 20
459.122404
 30
0.0
 10
243.774288
 20
457.556116
 30
0.0
 10
241.894728
 20
455.989836
 30
0.0
 10
240.015184
 20
454.110260
 30
0.0
 10
238.135640
 20
452.543972
 30
0.0
 10
236.256072
 20
450.977684
 30
0.0
 10
234.063264
 20
449.724660
 30
0.0
 10
232.183720
 20
448.158372
 30
0.0
 10
229.990920
 20
446.592084
 30
0.0
 10
228.111376
 20
445.339060
 30
0.0
 10
225.918576
 20
444.086028
 30
0.0
 10
223.725776
 20
442.832996
 30
0.0
 10
221.532944
 20
441.579940
 30
0.0
 10
219.340144
 20
440.326908
 30
0.0
 10
217.147344
 20
439.073884
 30
0.0
 10
214.954544
 20
437.820852
 30
0.0
 10
212.761744
 20
436.881076
 30
0.0
 10
210.255680
 20
435.941308
 30
0.0
 10
208.062856
 20
434.688276
 30
0.0
 10
205.556792
 20
433.748508
 30
0.0
 10
203.363992
 20
432.808732
 30
0.0
 10
200.857936
 20
432.182220
 30
0.0
 10
198.665128
 20
431.242444
 30
0.0
 10
196.159072
 20
430.615932
 30
0.0
 10
193.652984
 20
429.676164
 30
0.0
 10
191.146928
 20
429.049644
 30
0.0
 10
188.640872
 20
428.423132
 30
0.0
 10
186.134808
 20
428.109876
 30
0.0
 10
183.628752
 20
427.483356
 30
0.0
 10
181.122696
 20
426.856820
 30
0.0
 10
178.616608
 20
426.543556
 30
0.0
 10
176.110544
 20
426.230300
 30
0.0
 10
173.291232
 20
425.917044
 30
0.0
 10
170.785176
 20
425.603788
 30
0.0
 10
169.010104
 20
425.381908
 30
0.0
 10
168.977144
 20
425.911004
 30
0.0
  0
LWPOLYLINE
  5
1d0
100
AcDbEntity
  8
Layer_1
 62
5
100
AcDbPolyline
 90
2
 70
0
 10
271.654248
 20
516.448612
 30
0.0
 10
280.425480
 20
516.448612
 30
0.0
  0
LWPOLYLINE
  5
1d1
100
AcDbEntity
  8
Layer_1
 62
5
100
AcDbPolyline
 90
64
 70
0
 10
168.976160
 20
392.311004
 30
0.0
 10
151.643680
 20
392.272204
 30
0.0
 10
151.599840
 20
391.768628
 30
0.0
 10
149.483584
 20
392.003764
 30
0.0
 10
146.977528
 20
392.317020
 30
0.0
 10
144.471464
 20
392.630276
 30
0.0
 10
141.652152
 20
392.943532
 30
0.0
 10
139.146096
 20
393.256796
 30
0.0
 10
136.640008
 20
393.883332
 30
0.0
 10
134.133944
 20
394.509852
 30
0.0
 10
131.627888
 20
394.823108
 30
0.0
 10
129.121832
 20
395.449620
 30
0.0
 10
126.615768
 20
396.076140
 30
0.0
 10
124.109680
 20
397.015908
 30
0.0
 10
121.603624
 20
397.642420
 30
0.0
 10
119.410824
 20
398.582196
 30
0.0
 10
116.904768
 20
399.521964
 30
0.0
 10
114.711960
 20
400.148484
 30
0.0
 10
112.205904
 20
401.088252
 30
0.0
 10
110.013072
 20
402.341284
 30
0.0
 10
107.507016
 20
403.281052
 30
0.0
 10
105.314216
 20
404.220828
 30
0.0
 10
103.121416
 20
405.473860
 30
0.0
 10
100.928616
 20
406.726884
 30
0.0
 10
98.735808
 20
407.979916
 30
0.0
 10
96.542984
 20
409.232972
 30
0.0
 10
94.350184
 20
410.486004
 30
0.0
 10
92.157376
 20
411.739036
 30
0.0
 10
90.277832
 20
413.305316
 30
0.0
 10
88.085032
 20
414.558348
 30
0.0
 10
86.205488
 20
416.124636
 30
0.0
 10
84.012688
 20
417.690924
 30
0.0
 10
82.133112
 20
419.257204
 30
0.0
 10
80.253568
 20
420.823492
 30
0.0
 10
78.374024
 20
422.389812
 30
0.0
 10
76.494480
 20
423.956092
 30
0.0
 10
74.614936
 20
425.522380
 30
0.0
 10
73.048656
 20
427.401924
 30
0.0
 10
71.169112
 20
429.281468
 30
0.0
 10
69.289568
 20
430.847756
 30
0.0
 10
67.723248
 20
432.727300
 30
0.0
 10
66.156960
 20
434.606844
 30
0.0
 10
64.590680
 20
436.486420
 30
0.0
 10
63.024392
 20
438.365964
 30
0.0
 10
61.458104
 20
440.558764
 30
0.0
 10
59.891816
 20
442.438308
 30
0.0
 10
58.325528
 20
444.317852
 30
0.0
 10
57.072504
 20
446.510652
 30
0.0
 10
55.506216
 20
448.703452
 30
0.0
 10
54.253160
 20
450.583028
 30
0.0
 10
53.000128
 20
452.775828
 30
0.0
 10
51.747096
 20
454.968628
 30
0.0
 10
50.494064
 20
457.161428
 30
0.0
 10
49.241040
 20
459.354228
 30
0.0
 10
48.301264
 20
461.547036
 30
0.0
 10
47.048240
 20
464.053092
 30
0.0
 10
46.108464
 20
466.245924
 30
0.0
 10
45.168696
 20
468.438724
 30
0.0
 10
44.228920
 20
470.944780
 30
0.0
 10
43.289152
 20
473.137580
 30
0.0
 10
42.349376
 20
475.643644
 30
0.0
 10
41.409608
 20
478.149732
 30
0.0
 10
40.783088
 20
480.342532
 30
0.0
 10
40.156544
 20
482.848588
 30
0.0
  0
LWPOLYLINE
  5
1d2
100
AcDbEntity
  8
Layer_1
 62
5
100
AcDbPolyline
 90
2
 70
0
 10
60.518360
 20
456.848196
 30
0.0
 10
60.518360
 20
462.173572
 30
0.0
  0
LWPOLYLINE
  5
1d3
100
AcDbEntity
  8
Layer_1
 62
5
100
AcDbPolyline
 90
2
 70
0
 10
40.156576
 20
482.848612
 30
0.0
 10
48.927816
 20
482.848612
 30
0.0
  0
LWPOLYLINE
  5
1d4
100
AcDbEntity
  8
Layer_1
 62
5
100
AcDbPolyline
 90
65
 70
0
 10
160.134392
 20
399.835252
 30
0.0
 10
158.568104
 20
399.835252
 30
0.0
 10
156.688560
 20
399.835252
 30
0.0
 10
155.122280
 20
400.148508
 30
0.0
 10
153.242736
 20
400.148508
 30
0.0
 10
151.676416
 20
400.148508
 30
0.0
 10
149.796872
 20
400.461764
 30
0.0
 10
148.230584
 20
400.461764
 30
0.0
 10
146.351040
 20
400.775020
 30
0.0
 10
144.784760
 20
401.088276
 30
0.0
 10
143.218472
 20
401.088276
 30
0.0
 10
141.338928
 20
401.401532
 30
0.0
 10
139.772640
 20
401.714796
 30
0.0
 10
138.206328
 20
402.028052
 30
0.0
 10
136.326784
 20
402.341308
 30
0.0
 10
134.760496
 20
402.654564
 30
0.0
 10
133.194208
 20
403.281076
 30
0.0
 10
131.627920
 20
403.594340
 30
0.0
 10
129.748376
 20
403.907596
 30
0.0
 10
128.182088
 20
404.534108
 30
0.0
 10
126.615800
 20
404.847364
 30
0.0
 10
125.049512
 20
405.473884
 30
0.0
 10
123.483200
 20
406.100396
 30
0.0
 10
121.916912
 20
406.413652
 30
0.0
 10
120.350624
 20
407.040164
 30
0.0
 10
118.784344
 20
407.666708
 30
0.0
 10
117.218056
 20
408.293196
 30
0.0
 10
115.651768
 20
408.919740
 30
0.0
 10
114.085480
 20
409.546252
 30
0.0
 10
112.519192
 20
410.172772
 30
0.0
 10
111.266168
 20
410.799284
 30
0.0
 10
109.699848
 20
411.739060
 30
0.0
 10
108.133560
 20
412.365572
 30
0.0
 10
106.567280
 20
412.992084
 30
0.0
 10
105.314248
 20
413.931860
 30
0.0
 10
103.747960
 20
414.558372
 30
0.0
 10
102.494928
 20
415.498148
 30
0.0
 10
100.928648
 20
416.124660
 30
0.0
 10
99.675616
 20
417.064428
 30
0.0
 10
98.109328
 20
418.004204
 30
0.0
 10
96.856296
 20
418.943972
 30
0.0
 10
95.603240
 20
419.883748
 30
0.0
 10
94.036952
 20
420.823516
 30
0.0
 10
92.783928
 20
421.763316
 30
0.0
 10
91.530896
 20
422.703092
 30
0.0
 10
90.277864
 20
423.642860
 30
0.0
 10
89.024840
 20
424.582636
 30
0.0
 10
87.458552
 20
425.522404
 30
0.0
 10
86.205520
 20
426.462180
 30
0.0
 10
85.265752
 20
427.715204
 30
0.0
 10
84.012720
 20
428.654980
 30
0.0
 10
82.759688
 20
429.908012
 30
0.0
 10
81.506632
 20
430.847780
 30
0.0
 10
80.253600
 20
432.100812
 30
0.0
 10
79.313832
 20
433.040580
 30
0.0
 10
78.060800
 20
434.293612
 30
0.0
 10
76.807776
 20
435.546644
 30
0.0
 10
75.868000
 20
436.486444
 30
0.0
 10
74.614968
 20
437.739468
 30
0.0
 10
73.675200
 20
438.992500
 30
0.0
 10
72.735424
 20
440.245532
 30
0.0
 10
71.795656
 20
441.498556
 30
0.0
 10
70.542624
 20
442.751588
 30
0.0
 10
69.602856
 20
444.004620
 30
0.0
 10
68.663056
 20
445.257644
 30
0.0
  0
LWPOLYLINE
  5
1d5
100
AcDbEntity
  8
Layer_1
 62
5
100
AcDbPolyline
 90
27
 70
0
 10
60.518360
 20
456.848196
 30
0.0
 10
59.578592
 20
458.101228
 30
0.0
 10
58.952080
 20
459.354252
 30
0.0
 10
58.012304
 20
460.920540
 30
0.0
 10
57.699048
 20
461.547060
 30
0.0
 10
57.072536
 20
462.486828
 30
0.0
 10
56.759272
 20
463.113340
 30
0.0
 10
56.132760
 20
464.053116
 30
0.0
 10
55.819504
 20
464.992916
 30
0.0
 10
55.506248
 20
465.619428
 30
0.0
 10
54.879728
 20
466.559204
 30
0.0
 10
54.566472
 20
467.498972
 30
0.0
 10
54.253192
 20
468.438748
 30
0.0
 10
53.626672
 20
469.378516
 30
0.0
 10
53.313416
 20
470.318292
 30
0.0
 10
53.000160
 20
471.258060
 30
0.0
 10
52.373640
 20
472.197836
 30
0.0
 10
52.060384
 20
473.137604
 30
0.0
 10
51.747128
 20
474.077380
 30
0.0
 10
51.433872
 20
475.017148
 30
0.0
 10
51.120616
 20
475.956924
 30
0.0
 10
50.807360
 20
476.583436
 30
0.0
 10
50.494096
 20
477.523212
 30
0.0
 10
50.180840
 20
478.463012
 30
0.0
 10
49.554328
 20
480.029300
 30
0.0
 10
49.241072
 20
481.595580
 30
0.0
 10
48.927816
 20
482.848612
 30
0.0
  0
LWPOLYLINE
  5
1d6
100
AcDbEntity
  8
Layer_1
 62
5
100
AcDbPolyline
 90
2
 70
0
 10
60.831624
 20
462.173572
 30
0.0
 10
68.663056
 20
462.173572
 30
0.0
  0
LWPOLYLINE
  5
1d7
100
AcDbEntity
  8
Layer_1
 62
5
100
AcDbPolyline
 90
2
 70
0
 10
68.663056
 20
445.257644
 30
0.0
 10
68.663056
 20
462.173572
 30
0.0
  0
LWPOLYLINE
  5
1d8
100
AcDbEntity
  8
Layer_1
 62
5
100
AcDbPolyline
 90
2
 70
0
 10
251.605752
 20
444.004620
 30
0.0
 10
251.605752
 20
462.173572
 30
0.0
  0
LWPOLYLINE
  5
1d9
100
AcDbEntity
  8
Layer_1
 62
5
100
AcDbPolyline
 90
2
 70
0
 10
259.750440
 20
462.173572
 30
0.0
 10
251.605752
 20
462.173572
 30
0.0
  0
LWPOLYLINE
  5
1da
100
AcDbEntity
  8
Layer_1
 62
5
100
AcDbPolyline
 90
2
 70
0
 10
259.750440
 20
456.534940
 30
0.0
 10
259.750440
 20
462.173572
 30
0.0
  0
LWPOLYLINE
  5
1db
100
AcDbEntity
  8
Layer_1
 62
5
100
AcDbPolyline
 90
25
 70
0
 10
271.654248
 20
482.848612
 30
0.0
 10
271.340992
 20
481.595580
 30
0.0
 10
271.027736
 20
480.342556
 30
0.0
 10
270.401216
 20
479.089524
 30
0.0
 10
270.087960
 20
477.523212
 30
0.0
 10
269.461448
 20
475.956924
 30
0.0
 10
268.834928
 20
474.703892
 30
0.0
 10
268.208416
 20
472.824348
 30
0.0
 10
267.268648
 20
471.258060
 30
0.0
 10
266.955384
 20
470.631548
 30
0.0
 10
266.642128
 20
469.691772
 30
0.0
 10
266.328872
 20
468.752004
 30
0.0
 10
265.702360
 20
467.812228
 30
0.0
 10
265.389104
 20
467.185716
 30
0.0
 10
265.075816
 20
466.245948
 30
0.0
 10
264.449304
 20
465.306172
 30
0.0
 10
264.136040
 20
464.366404
 30
0.0
 10
263.509528
 20
463.426604
 30
0.0
 10
262.883016
 20
462.486828
 30
0.0
 10
262.569760
 20
461.547060
 30
0.0
 10
261.943240
 20
460.607284
 30
0.0
 10
261.316728
 20
459.667516
 30
0.0
 10
261.003472
 20
458.414484
 30
0.0
 10
260.376952
 20
457.474708
 30
0.0
 10
259.750440
 20
456.534940
 30
0.0
  0
LWPOLYLINE
  5
1dc
100
AcDbEntity
  8
Layer_1
 62
5
100
AcDbPolyline
 90
65
 70
0
 10
251.605752
 20
444.004620
 30
0.0
 10
250.665952
 20
443.064844
 30
0.0
 10
249.412920
 20
441.811820
 30
0.0
 10
248.473144
 20
440.558788
 30
0.0
 10
247.533376
 20
439.305756
 30
0.0
 10
246.593600
 20
438.365988
 30
0.0
 10
245.340576
 20
437.112956
 30
0.0
 10
244.400800
 20
436.173188
 30
0.0
 10
243.461032
 20
434.920124
 30
0.0
 10
242.207984
 20
433.980356
 30
0.0
 10
241.268216
 20
432.727324
 30
0.0
 10
240.015184
 20
431.787556
 30
0.0
 10
238.762160
 20
430.534524
 30
0.0
 10
237.822384
 20
429.594748
 30
0.0
 10
236.569328
 20
428.654980
 30
0.0
 10
235.316296
 20
427.401948
 30
0.0
 10
234.063264
 20
426.462180
 30
0.0
 10
232.810240
 20
425.522404
 30
0.0
 10
231.870464
 20
424.582636
 30
0.0
 10
230.617440
 20
423.642860
 30
0.0
 10
229.051152
 20
422.703092
 30
0.0
 10
227.798120
 20
421.763316
 30
0.0
 10
226.545088
 20
420.823516
 30
0.0
 10
225.292064
 20
419.883748
 30
0.0
 10
224.039032
 20
418.943972
 30
0.0
 10
222.786000
 20
418.004204
 30
0.0
 10
221.219688
 20
417.377684
 30
0.0
 10
219.966656
 20
416.437916
 30
0.0
 10
218.713632
 20
415.811404
 30
0.0
 10
217.147344
 20
414.871628
 30
0.0
 10
215.894312
 20
413.931860
 30
0.0
 10
214.328024
 20
413.305340
 30
0.0
 10
212.761744
 20
412.678828
 30
0.0
 10
211.508712
 20
411.739060
 30
0.0
 10
209.942424
 20
411.112540
 30
0.0
 10
208.376112
 20
410.486028
 30
0.0
 10
207.123080
 20
409.859508
 30
0.0
 10
205.556792
 20
409.232996
 30
0.0
 10
203.990504
 20
408.606484
 30
0.0
 10
202.424224
 20
407.979940
 30
0.0
 10
200.857936
 20
407.353452
 30
0.0
 10
199.291648
 20
406.726908
 30
0.0
 10
197.725360
 20
406.100396
 30
0.0
 10
196.159072
 20
405.787140
 30
0.0
 10
194.592760
 20
405.160620
 30
0.0
 10
193.026472
 20
404.534108
 30
0.0
 10
191.460184
 20
404.220852
 30
0.0
 10
189.580640
 20
403.907596
 30
0.0
 10
188.014352
 20
403.281076
 30
0.0
 10
186.448064
 20
402.967820
 30
0.0
 10
184.881784
 20
402.654564
 30
0.0
 10
183.002240
 20
402.341308
 30
0.0
 10
181.435952
 20
402.028052
 30
0.0
 10
179.556376
 20
401.714796
 30
0.0
 10
177.990088
 20
401.401532
 30
0.0
 10
176.110544
 20
401.088276
 30
0.0
 10
174.544264
 20
400.775020
 30
0.0
 10
172.664720
 20
400.461764
 30
0.0
 10
171.098432
 20
400.461764
 30
0.0
 10
169.218888
 20
400.148508
 30
0.0
 10
167.339344
 20
400.148508
 30
0.0
 10
165.459768
 20
399.835252
 30
0.0
 10
163.893480
 20
399.835252
 30
0.0
 10
162.013936
 20
399.835252
 30
0.0
 10
160.134392
 20
399.835252
 30
0.0
  0
LWPOLYLINE
  5
1dd
100
AcDbEntity
  8
Layer_1
 62
5
100
AcDbPolyline
 90
63
 70
0
 10
280.112224
 20
482.848612
 30
0.0
 10
279.485712
 20
480.342556
 30
0.0
 10
278.859168
 20
477.836468
 30
0.0
 10
277.919392
 20
475.643668
 30
0.0
 10
277.292880
 20
473.137604
 30
0.0
 10
276.353104
 20
470.631548
 30
0.0
 10
275.413336
 20
468.438748
 30
0.0
 10
274.160304
 20
466.245948
 30
0.0
 10
273.220536
 20
463.739860
 30
0.0
 10
272.280760
 20
461.547060
 30
0.0
 10
271.027736
 20
459.354252
 30
0.0
 10
269.774704
 20
457.161452
 30
0.0
 10
268.521672
 20
454.968652
 30
0.0
 10
267.268648
 20
452.775852
 30
0.0
 10
266.015616
 20
450.583052
 30
0.0
 10
264.762560
 20
448.390220
 30
0.0
 10
263.509528
 20
446.510676
 30
0.0
 10
261.943240
 20
444.317876
 30
0.0
 10
260.376952
 20
442.438332
 30
0.0
 10
259.123928
 20
440.245532
 30
0.0
 10
257.557640
 20
438.365988
 30
0.0
 10
255.991352
 20
436.486444
 30
0.0
 10
254.111808
 20
434.606868
 30
0.0
 10
252.545520
 20
432.727324
 30
0.0
 10
250.979208
 20
430.847780
 30
0.0
 10
249.099664
 20
428.968236
 30
0.0
 10
247.533376
 20
427.401948
 30
0.0
 10
245.653832
 20
425.522404
 30
0.0
 10
243.774288
 20
423.956116
 30
0.0
 10
241.894728
 20
422.389836
 30
0.0
 10
240.015184
 20
420.510260
 30
0.0
 10
238.135640
 20
418.943972
 30
0.0
 10
236.256072
 20
417.377684
 30
0.0
 10
234.063264
 20
416.124660
 30
0.0
 10
232.183720
 20
414.558372
 30
0.0
 10
229.990920
 20
412.992084
 30
0.0
 10
228.111376
 20
411.739060
 30
0.0
 10
225.918576
 20
410.486028
 30
0.0
 10
223.725776
 20
409.232996
 30
0.0
 10
221.532944
 20
407.979940
 30
0.0
 10
219.340144
 20
406.726908
 30
0.0
 10
217.147344
 20
405.473884
 30
0.0
 10
214.954544
 20
404.220852
 30
0.0
 10
212.761744
 20
403.281076
 30
0.0
 10
210.255680
 20
402.341308
 30
0.0
 10
208.062856
 20
401.088276
 30
0.0
 10
205.556792
 20
400.148508
 30
0.0
 10
203.363992
 20
399.208732
 30
0.0
 10
200.857936
 20
398.582220
 30
0.0
 10
198.665128
 20
397.642444
 30
0.0
 10
196.159072
 20
397.015932
 30
0.0
 10
193.652984
 20
396.076164
 30
0.0
 10
191.146928
 20
395.449644
 30
0.0
 10
188.640872
 20
394.823132
 30
0.0
 10
186.134808
 20
394.509876
 30
0.0
 10
183.628752
 20
393.883356
 30
0.0
 10
181.122696
 20
393.256820
 30
0.0
 10
178.616608
 20
392.943556
 30
0.0
 10
176.110544
 20
392.630300
 30
0.0
 10
173.291232
 20
392.317044
 30
0.0
 10
170.785176
 20
392.003788
 30
0.0
 10
169.010104
 20
391.781908
 30
0.0
 10
168.977144
 20
392.311004
 30
0.0
  0
LWPOLYLINE
  5
1de
100
AcDbEntity
  8
Layer_1
 62
5
100
AcDbPolyline
 90
2
 70
0
 10
271.654248
 20
482.848612
 30
0.0
 10
280.425480
 20
482.848612
 30
0.0
  0
LWPOLYLINE
  5
1df
100
AcDbEntity
  8
Layer_1
 62
5
100
AcDbPolyline
 90
64
 70
0
 10
168.976160
 20
358.710972
 30
0.0
 10
151.643680
 20
358.672172
 30
0.0
 10
151.599840
 20
358.168596
 30
0.0
 10
149.483584
 20
358.403732
 30
0.0
 10
146.977528
 20
358.716988
 30
0.0
 10
144.471464
 20
359.030244
 30
0.0
 10
141.652152
 20
359.343500
 30
0.0
 10
139.146096
 20
359.656764
 30
0.0
 10
136.640008
 20
360.283300
 30
0.0
 10
134.133944
 20
360.909820
 30
0.0
 10
131.627888
 20
361.223076
 30
0.0
 10
129.121832
 20
361.849588
 30
0.0
 10
126.615768
 20
362.476108
 30
0.0
 10
124.109680
 20
363.415876
 30
0.0
 10
121.603624
 20
364.042388
 30
0.0
 10
119.410824
 20
364.982164
 30
0.0
 10
116.904768
 20
365.921932
 30
0.0
 10
114.711960
 20
366.548452
 30
0.0
 10
112.205904
 20
367.488220
 30
0.0
 10
110.013072
 20
368.741252
 30
0.0
 10
107.507016
 20
369.681020
 30
0.0
 10
105.314216
 20
370.620796
 30
0.0
 10
103.121416
 20
371.873828
 30
0.0
 10
100.928616
 20
373.126852
 30
0.0
 10
98.735808
 20
374.379884
 30
0.0
 10
96.542984
 20
375.632940
 30
0.0
 10
94.350184
 20
376.885972
 30
0.0
 10
92.157376
 20
378.139004
 30
0.0
 10
90.277832
 20
379.705284
 30
0.0
 10
88.085032
 20
380.958316
 30
0.0
 10
86.205488
 20
382.524604
 30
0.0
 10
84.012688
 20
384.090892
 30
0.0
 10
82.133112
 20
385.657172
 30
0.0
 10
80.253568
 20
387.223460
 30
0.0
 10
78.374024
 20
388.789780
 30
0.0
 10
76.494480
 20
390.356060
 30
0.0
 10
74.614936
 20
391.922348
 30
0.0
 10
73.048656
 20
393.801892
 30
0.0
 10
71.169112
 20
395.681436
 30
0.0
 10
69.289568
 20
397.247724
 30
0.0
 10
67.723248
 20
399.127268
 30
0.0
 10
66.156960
 20
401.006812
 30
0.0
 10
64.590680
 20
402.886388
 30
0.0
 10
63.024392
 20
404.765932
 30
0.0
 10
61.458104
 20
406.958732
 30
0.0
 10
59.891816
 20
408.838276
 30
0.0
 10
58.325528
 20
410.717820
 30
0.0
 10
57.072504
 20
412.910620
 30
0.0
 10
55.506216
 20
415.103420
 30
0.0
 10
54.253160
 20
416.982996
 30
0.0
 10
53.000128
 20
419.175796
 30
0.0
 10
51.747096
 20
421.368596
 30
0.0
 10
50.494064
 20
423.561396
 30
0.0
 10
49.241040
 20
425.754196
 30
0.0
 10
48.301264
 20
427.947004
 30
0.0
 10
47.048240
 20
430.453060
 30
0.0
 10
46.108464
 20
432.645892
 30
0.0
 10
45.168696
 20
434.838692
 30
0.0
 10
44.228920
 20
437.344748
 30
0.0
 10
43.289152
 20
439.537548
 30
0.0
 10
42.349376
 20
442.043612
 30
0.0
 10
41.409608
 20
444.549700
 30
0.0
 10
40.783088
 20
446.742500
 30
0.0
 10
40.156544
 20
449.248556
 30
0.0
  0
LWPOLYLINE
  5
1e0
100
AcDbEntity
  8
Layer_1
 62
5
100
AcDbPolyline
 90
2
 70
0
 10
60.518360
 20
423.248164
 30
0.0
 10
60.518360
 20
428.573540
 30
0.0
  0
LWPOLYLINE
  5
1e1
100
AcDbEntity
  8
Layer_1
 62
5
100
AcDbPolyline
 90
2
 70
0
 10
40.156576
 20
449.248580
 30
0.0
 10
48.927816
 20
449.248580
 30
0.0
  0
LWPOLYLINE
  5
1e2
100
AcDbEntity
  8
Layer_1
 62
5
100
AcDbPolyline
 90
65
 70
0
 10
160.134392
 20
366.235220
 30
0.0
 10
158.568104
 20
366.235220
 30
0.0
 10
156.688560
 20
366.235220
 30
0.0
 10
155.122280
 20
366.548476
 30
0.0
 10
153.242736
 20
366.548476
 30
0.0
 10
151.676416
 20
366.548476
 30
0.0
 10
149.796872
 20
366.861732
 30
0.0
 10
148.230584
 20
366.861732
 30
0.0
 10
146.351040
 20
367.174988
 30
0.0
 10
144.784760
 20
367.488244
 30
0.0
 10
143.218472
 20
367.488244
 30
0.0
 10
141.338928
 20
367.801500
 30
0.0
 10
139.772640
 20
368.114764
 30
0.0
 10
138.206328
 20
368.428020
 30
0.0
 10
136.326784
 20
368.741276
 30
0.0
 10
134.760496
 20
369.054532
 30
0.0
 10
133.194208
 20
369.681044
 30
0.0
 10
131.627920
 20
369.994308
 30
0.0
 10
129.748376
 20
370.307564
 30
0.0
 10
128.182088
 20
370.934076
 30
0.0
 10
126.615800
 20
371.247332
 30
0.0
 10
125.049512
 20
371.873852
 30
0.0
 10
123.483200
 20
372.500364
 30
0.0
 10
121.916912
 20
372.813620
 30
0.0
 10
120.350624
 20
373.440132
 30
0.0
 10
118.784344
 20
374.066676
 30
0.0
 10
117.218056
 20
374.693164
 30
0.0
 10
115.651768
 20
375.319708
 30
0.0
 10
114.085480
 20
375.946220
 30
0.0
 10
112.519192
 20
376.572740
 30
0.0
 10
111.266168
 20
377.199252
 30
0.0
 10
109.699848
 20
378.139028
 30
0.0
 10
108.133560
 20
378.765540
 30
0.0
 10
106.567280
 20
379.392052
 30
0.0
 10
105.314248
 20
380.331828
 30
0.0
 10
103.747960
 20
380.958340
 30
0.0
 10
102.494928
 20
381.898116
 30
0.0
 10
100.928648
 20
382.524628
 30
0.0
 10
99.675616
 20
383.464396
 30
0.0
 10
98.109328
 20
384.404172
 30
0.0
 10
96.856296
 20
385.343940
 30
0.0
 10
95.603240
 20
386.283716
 30
0.0
 10
94.036952
 20
387.223484
 30
0.0
 10
92.783928
 20
388.163284
 30
0.0
 10
91.530896
 20
389.103060
 30
0.0
 10
90.277864
 20
390.042828
 30
0.0
 10
89.024840
 20
390.982604
 30
0.0
 10
87.458552
 20
391.922372
 30
0.0
 10
86.205520
 20
392.862148
 30
0.0
 10
85.265752
 20
394.115172
 30
0.0
 10
84.012720
 20
395.054948
 30
0.0
 10
82.759688
 20
396.307980
 30
0.0
 10
81.506632
 20
397.247748
 30
0.0
 10
80.253600
 20
398.500780
 30
0.0
 10
79.313832
 20
399.440548
 30
0.0
 10
78.060800
 20
400.693580
 30
0.0
 10
76.807776
 20
401.946612
 30
0.0
 10
75.868000
 20
402.886412
 30
0.0
 10
74.614968
 20
404.139436
 30
0.0
 10
73.675200
 20
405.392468
 30
0.0
 10
72.735424
 20
406.645500
 30
0.0
 10
71.795656
 20
407.898524
 30
0.0
 10
70.542624
 20
409.151556
 30
0.0
 10
69.602856
 20
410.404588
 30
0.0
 10
68.663056
 20
411.657612
 30
0.0
  0
LWPOLYLINE
  5
1e3
100
AcDbEntity
  8
Layer_1
 62
5
100
AcDbPolyline
 90
27
 70
0
 10
60.518360
 20
423.248164
 30
0.0
 10
59.578592
 20
424.501196
 30
0.0
 10
58.952080
 20
425.754220
 30
0.0
 10
58.012304
 20
427.320508
 30
0.0
 10
57.699048
 20
427.947028
 30
0.0
 10
57.072536
 20
428.886796
 30
0.0
 10
56.759272
 20
429.513308
 30
0.0
 10
56.132760
 20
430.453084
 30
0.0
 10
55.819504
 20
431.392884
 30
0.0
 10
55.506248
 20
432.019396
 30
0.0
 10
54.879728
 20
432.959172
 30
0.0
 10
54.566472
 20
433.898940
 30
0.0
 10
54.253192
 20
434.838716
 30
0.0
 10
53.626672
 20
435.778484
 30
0.0
 10
53.313416
 20
436.718260
 30
0.0
 10
53.000160
 20
437.658028
 30
0.0
 10
52.373640
 20
438.597804
 30
0.0
 10
52.060384
 20
439.537572
 30
0.0
 10
51.747128
 20
440.477348
 30
0.0
 10
51.433872
 20
441.417116
 30
0.0
 10
51.120616
 20
442.356892
 30
0.0
 10
50.807360
 20
442.983404
 30
0.0
 10
50.494096
 20
443.923180
 30
0.0
 10
50.180840
 20
444.862980
 30
0.0
 10
49.554328
 20
446.429268
 30
0.0
 10
49.241072
 20
447.995548
 30
0.0
 10
48.927816
 20
449.248580
 30
0.0
  0
LWPOLYLINE
  5
1e4
100
AcDbEntity
  8
Layer_1
 62
5
100
AcDbPolyline
 90
2
 70
0
 10
60.831624
 20
428.573540
 30
0.0
 10
68.663056
 20
428.573540
 30
0.0
  0
LWPOLYLINE
  5
1e5
100
AcDbEntity
  8
Layer_1
 62
5
100
AcDbPolyline
 90
2
 70
0
 10
68.663056
 20
411.657612
 30
0.0
 10
68.663056
 20
428.573540
 30
0.0
  0
LWPOLYLINE
  5
1e6
100
AcDbEntity
  8
Layer_1
 62
5
100
AcDbPolyline
 90
2
 70
0
 10
251.605752
 20
410.404588
 30
0.0
 10
251.605752
 20
428.573540
 30
0.0
  0
LWPOLYLINE
  5
1e7
100
AcDbEntity
  8
Layer_1
 62
5
100
AcDbPolyline
 90
2
 70
0
 10
259.750440
 20
428.573540
 30
0.0
 10
251.605752
 20
428.573540
 30
0.0
  0
LWPOLYLINE
  5
1e8
100
AcDbEntity
  8
Layer_1
 62
5
100
AcDbPolyline
 90
2
 70
0
 10
259.750440
 20
422.934908
 30
0.0
 10
259.750440
 20
428.573540
 30
0.0
  0
LWPOLYLINE
  5
1e9
100
AcDbEntity
  8
Layer_1
 62
5
100
AcDbPolyline
 90
25
 70
0
 10
271.654248
 20
449.248580
 30
0.0
 10
271.340992
 20
447.995548
 30
0.0
 10
271.027736
 20
446.742524
 30
0.0
 10
270.401216
 20
445.489492
 30
0.0
 10
270.087960
 20
443.923180
 30
0.0
 10
269.461448
 20
442.356892
 30
0.0
 10
268.834928
 20
441.103860
 30
0.0
 10
268.208416
 20
439.224316
 30
0.0
 10
267.268648
 20
437.658028
 30
0.0
 10
266.955384
 20
437.031516
 30
0.0
 10
266.642128
 20
436.091740
 30
0.0
 10
266.328872
 20
435.151972
 30
0.0
 10
265.702360
 20
434.212196
 30
0.0
 10
265.389104
 20
433.585684
 30
0.0
 10
265.075816
 20
432.645916
 30
0.0
 10
264.449304
 20
431.706140
 30
0.0
 10
264.136040
 20
430.766372
 30
0.0
 10
263.509528
 20
429.826572
 30
0.0
 10
262.883016
 20
428.886796
 30
0.0
 10
262.569760
 20
427.947028
 30
0.0
 10
261.943240
 20
427.007252
 30
0.0
 10
261.316728
 20
426.067484
 30
0.0
 10
261.003472
 20
424.814452
 30
0.0
 10
260.376952
 20
423.874676
 30
0.0
 10
259.750440
 20
422.934908
 30
0.0
  0
LWPOLYLINE
  5
1ea
100
AcDbEntity
  8
Layer_1
 62
5
100
AcDbPolyline
 90
65
 70
0
 10
251.605752
 20
410.404588
 30
0.0
 10
250.665952
 20
409.464812
 30
0.0
 10
249.412920
 20
408.211788
 30
0.0
 10
248.473144
 20
406.958756
 30
0.0
 10
247.533376
 20
405.705724
 30
0.0
 10
246.593600
 20
404.765956
 30
0.0
 10
245.340576
 20
403.512924
 30
0.0
 10
244.400800
 20
402.573156
 30
0.0
 10
243.461032
 20
401.320092
 30
0.0
 10
242.207984
 20
400.380324
 30
0.0
 10
241.268216
 20
399.127292
 30
0.0
 10
240.015184
 20
398.187524
 30
0.0
 10
238.762160
 20
396.934492
 30
0.0
 10
237.822384
 20
395.994716
 30
0.0
 10
236.569328
 20
395.054948
 30
0.0
 10
235.316296
 20
393.801916
 30
0.0
 10
234.063264
 20
392.862148
 30
0.0
 10
232.810240
 20
391.922372
 30
0.0
 10
231.870464
 20
390.982604
 30
0.0
 10
230.617440
 20
390.042828
 30
0.0
 10
229.051152
 20
389.103060
 30
0.0
 10
227.798120
 20
388.163284
 30
0.0
 10
226.545088
 20
387.223484
 30
0.0
 10
225.292064
 20
386.283716
 30
0.0
 10
224.039032
 20
385.343940
 30
0.0
 10
222.786000
 20
384.404172
 30
0.0
 10
221.219688
 20
383.777652
 30
0.0
 10
219.966656
 20
382.837884
 30
0.0
 10
218.713632
 20
382.211372
 30
0.0
 10
217.147344
 20
381.271596
 30
0.0
 10
215.894312
 20
380.331828
 30
0.0
 10
214.328024
 20
379.705308
 30
0.0
 10
212.761744
 20
379.078796
 30
0.0
 10
211.508712
 20
378.139028
 30
0.0
 10
209.942424
 20
377.512508
 30
0.0
 10
208.376112
 20
376.885996
 30
0.0
 10
207.123080
 20
376.259476
 30
0.0
 10
205.556792
 20
375.632964
 30
0.0
 10
203.990504
 20
375.006452
 30
0.0
 10
202.424224
 20
374.379908
 30
0.0
 10
200.857936
 20
373.753420
 30
0.0
 10
199.291648
 20
373.126876
 30
0.0
 10
197.725360
 20
372.500364
 30
0.0
 10
196.159072
 20
372.187108
 30
0.0
 10
194.592760
 20
371.560588
 30
0.0
 10
193.026472
 20
370.934076
 30
0.0
 10
191.460184
 20
370.620820
 30
0.0
 10
189.580640
 20
370.307564
 30
0.0
 10
188.014352
 20
369.681044
 30
0.0
 10
186.448064
 20
369.367788
 30
0.0
 10
184.881784
 20
369.054532
 30
0.0
 10
183.002240
 20
368.741276
 30
0.0
 10
181.435952
 20
368.428020
 30
0.0
 10
179.556376
 20
368.114764
 30
0.0
 10
177.990088
 20
367.801500
 30
0.0
 10
176.110544
 20
367.488244
 30
0.0
 10
174.544264
 20
367.174988
 30
0.0
 10
172.664720
 20
366.861732
 30
0.0
 10
171.098432
 20
366.861732
 30
0.0
 10
169.218888
 20
366.548476
 30
0.0
 10
167.339344
 20
366.548476
 30
0.0
 10
165.459768
 20
366.235220
 30
0.0
 10
163.893480
 20
366.235220
 30
0.0
 10
162.013936
 20
366.235220
 30
0.0
 10
160.134392
 20
366.235220
 30
0.0
  0
LWPOLYLINE
  5
1eb
100
AcDbEntity
  8
Layer_1
 62
5
100
AcDbPolyline
 90
63
 70
0
 10
280.112224
 20
449.248580
 30
0.0
 10
279.485712
 20
446.742524
 30
0.0
 10
278.859168
 20
444.236436
 30
0.0
 10
277.919392
 20
442.043636
 30
0.0
 10
277.292880
 20
439.537572
 30
0.0
 10
276.353104
 20
437.031516
 30
0.0
 10
275.413336
 20
434.838716
 30
0.0
 10
274.160304
 20
432.645916
 30
0.0
 10
273.220536
 20
430.139828
 30
0.0
 10
272.280760
 20
427.947028
 30
0.0
 10
271.027736
 20
425.754220
 30
0.0
 10
269.774704
 20
423.561420
 30
0.0
 10
268.521672
 20
421.368620
 30
0.0
 10
267.268648
 20
419.175820
 30
0.0
 10
266.015616
 20
416.983020
 30
0.0
 10
264.762560
 20
414.790188
 30
0.0
 10
263.509528
 20
412.910644
 30
0.0
 10
261.943240
 20
410.717844
 30
0.0
 10
260.376952
 20
408.838300
 30
0.0
 10
259.123928
 20
406.645500
 30
0.0
 10
257.557640
 20
404.765956
 30
0.0
 10
255.991352
 20
402.886412
 30
0.0
 10
254.111808
 20
401.006836
 30
0.0
 10
252.545520
 20
399.127292
 30
0.0
 10
250.979208
 20
397.247748
 30
0.0
 10
249.099664
 20
395.368204
 30
0.0
 10
247.533376
 20
393.801916
 30
0.0
 10
245.653832
 20
391.922372
 30
0.0
 10
243.774288
 20
390.356084
 30
0.0
 10
241.894728
 20
388.789804
 30
0.0
 10
240.015184
 20
386.910228
 30
0.0
 10
238.135640
 20
385.343940
 30
0.0
 10
236.256072
 20
383.777652
 30
0.0
 10
234.063264
 20
382.524628
 30
0.0
 10
232.183720
 20
380.958340
 30
0.0
 10
229.990920
 20
379.392052
 30
0.0
 10
228.111376
 20
378.139028
 30
0.0
 10
225.918576
 20
376.885996
 30
0.0
 10
223.725776
 20
375.632964
 30
0.0
 10
221.532944
 20
374.379908
 30
0.0
 10
219.340144
 20
373.126876
 30
0.0
 10
217.147344
 20
371.873852
 30
0.0
 10
214.954544
 20
370.620820
 30
0.0
 10
212.761744
 20
369.681044
 30
0.0
 10
210.255680
 20
368.741276
 30
0.0
 10
208.062856
 20
367.488244
 30
0.0
 10
205.556792
 20
366.548476
 30
0.0
 10
203.363992
 20
365.608700
 30
0.0
 10
200.857936
 20
364.982188
 30
0.0
 10
198.665128
 20
364.042412
 30
0.0
 10
196.159072
 20
363.415900
 30
0.0
 10
193.652984
 20
362.476132
 30
0.0
 10
191.146928
 20
361.849612
 30
0.0
 10
188.640872
 20
361.223100
 30
0.0
 10
186.134808
 20
360.909844
 30
0.0
 10
183.628752
 20
360.283324
 30
0.0
 10
181.122696
 20
359.656788
 30
0.0
 10
178.616608
 20
359.343524
 30
0.0
 10
176.110544
 20
359.030268
 30
0.0
 10
173.291232
 20
358.717012
 30
0.0
 10
170.785176
 20
358.403756
 30
0.0
 10
169.010104
 20
358.181876
 30
0.0
 10
168.977144
 20
358.710972
 30
0.0
  0
LWPOLYLINE
  5
1ec
100
AcDbEntity
  8
Layer_1
 62
5
100
AcDbPolyline
 90
2
 70
0
 10
271.654248
 20
449.248580
 30
0.0
 10
280.425480
 20
449.248580
 30
0.0
  0
LWPOLYLINE
  5
1ed
100
AcDbEntity
  8
Layer_1
 62
5
100
AcDbPolyline
 90
64
 70
0
 10
168.811936
 20
324.713452
 30
0.0
 10
151.479456
 20
324.674652
 30
0.0
 10
151.435616
 20
324.171076
 30
0.0
 10
149.319360
 20
324.406212
 30
0.0
 10
146.813304
 20
324.719468
 30
0.0
 10
144.307240
 20
325.032724
 30
0.0
 10
141.487928
 20
325.345980
 30
0.0
 10
138.981872
 20
325.659244
 30
0.0
 10
136.475784
 20
326.285780
 30
0.0
 10
133.969720
 20
326.912300
 30
0.0
 10
131.463664
 20
327.225556
 30
0.0
 10
128.957608
 20
327.852068
 30
0.0
 10
126.451544
 20
328.478588
 30
0.0
 10
123.945456
 20
329.418356
 30
0.0
 10
121.439400
 20
330.044868
 30
0.0
 10
119.246600
 20
330.984644
 30
0.0
 10
116.740544
 20
331.924412
 30
0.0
 10
114.547736
 20
332.550932
 30
0.0
 10
112.041680
 20
333.490700
 30
0.0
 10
109.848848
 20
334.743732
 30
0.0
 10
107.342792
 20
335.683500
 30
0.0
 10
105.149992
 20
336.623276
 30
0.0
 10
102.957192
 20
337.876308
 30
0.0
 10
100.764392
 20
339.129332
 30
0.0
 10
98.571584
 20
340.382364
 30
0.0
 10
96.378760
 20
341.635420
 30
0.0
 10
94.185960
 20
342.888452
 30
0.0
 10
91.993152
 20
344.141484
 30
0.0
 10
90.113608
 20
345.707764
 30
0.0
 10
87.920808
 20
346.960796
 30
0.0
 10
86.041264
 20
348.527084
 30
0.0
 10
83.848464
 20
350.093372
 30
0.0
 10
81.968888
 20
351.659652
 30
0.0
 10
80.089344
 20
353.225940
 30
0.0
 10
78.209800
 20
354.792260
 30
0.0
 10
76.330256
 20
356.358540
 30
0.0
 10
74.450712
 20
357.924828
 30
0.0
 10
72.884432
 20
359.804372
 30
0.0
 10
71.004888
 20
361.683916
 30
0.0
 10
69.125344
 20
363.250204
 30
0.0
 10
67.559024
 20
365.129748
 30
0.0
 10
65.992736
 20
367.009292
 30
0.0
 10
64.426456
 20
368.888868
 30
0.0
 10
62.860168
 20
370.768412
 30
0.0
 10
61.293880
 20
372.961212
 30
0.0
 10
59.727592
 20
374.840756
 30
0.0
 10
58.161304
 20
376.720300
 30
0.0
 10
56.908280
 20
378.913100
 30
0.0
 10
55.341992
 20
381.105900
 30
0.0
 10
54.088936
 20
382.985476
 30
0.0
 10
52.835904
 20
385.178276
 30
0.0
 10
51.582872
 20
387.371076
 30
0.0
 10
50.329840
 20
389.563876
 30
0.0
 10
49.076816
 20
391.756676
 30
0.0
 10
48.137040
 20
393.949484
 30
0.0
 10
46.884016
 20
396.455540
 30
0.0
 10
45.944240
 20
398.648372
 30
0.0
 10
45.004472
 20
400.841172
 30
0.0
 10
44.064696
 20
403.347228
 30
0.0
 10
43.124928
 20
405.540028
 30
0.0
 10
42.185152
 20
408.046092
 30
0.0
 10
41.245384
 20
410.552180
 30
0.0
 10
40.618864
 20
412.744980
 30
0.0
 10
39.992320
 20
415.251036
 30
0.0
  0
LWPOLYLINE
  5
1ee
100
AcDbEntity
  8
Layer_1
 62
5
100
AcDbPolyline
 90
2
 70
0
 10
60.354136
 20
389.250644
 30
0.0
 10
60.354136
 20
394.576020
 30
0.0
  0
LWPOLYLINE
  5
1ef
100
AcDbEntity
  8
Layer_1
 62
5
100
AcDbPolyline
 90
2
 70
0
 10
39.992352
 20
415.251060
 30
0.0
 10
48.763592
 20
415.251060
 30
0.0
  0
LWPOLYLINE
  5
1f0
100
AcDbEntity
  8
Layer_1
 62
5
100
AcDbPolyline
 90
65
 70
0
 10
159.970168
 20
332.237700
 30
0.0
 10
158.403880
 20
332.237700
 30
0.0
 10
156.524336
 20
332.237700
 30
0.0
 10
154.958056
 20
332.550956
 30
0.0
 10
153.078512
 20
332.550956
 30
0.0
 10
151.512192
 20
332.550956
 30
0.0
 10
149.632648
 20
332.864212
 30
0.0
 10
148.066360
 20
332.864212
 30
0.0
 10
146.186816
 20
333.177468
 30
0.0
 10
144.620536
 20
333.490724
 30
0.0
 10
143.054248
 20
333.490724
 30
0.0
 10
141.174704
 20
333.803980
 30
0.0
 10
139.608416
 20
334.117244
 30
0.0
 10
138.042104
 20
334.430500
 30
0.0
 10
136.162560
 20
334.743756
 30
0.0
 10
134.596272
 20
335.057012
 30
0.0
 10
133.029984
 20
335.683524
 30
0.0
 10
131.463696
 20
335.996788
 30
0.0
 10
129.584152
 20
336.310044
 30
0.0
 10
128.017864
 20
336.936556
 30
0.0
 10
126.451576
 20
337.249812
 30
0.0
 10
124.885288
 20
337.876332
 30
0.0
 10
123.318976
 20
338.502844
 30
0.0
 10
121.752688
 20
338.816100
 30
0.0
 10
120.186400
 20
339.442612
 30
0.0
 10
118.620120
 20
340.069156
 30
0.0
 10
117.053832
 20
340.695644
 30
0.0
 10
115.487544
 20
341.322188
 30
0.0
 10
113.921256
 20
341.948700
 30
0.0
 10
112.354968
 20
342.575220
 30
0.0
 10
111.101944
 20
343.201732
 30
0.0
 10
109.535624
 20
344.141508
 30
0.0
 10
107.969336
 20
344.768020
 30
0.0
 10
106.403056
 20
345.394532
 30
0.0
 10
105.150024
 20
346.334308
 30
0.0
 10
103.583736
 20
346.960820
 30
0.0
 10
102.330704
 20
347.900596
 30
0.0
 10
100.764424
 20
348.527108
 30
0.0
 10
99.511392
 20
349.466876
 30
0.0
 10
97.945104
 20
350.406652
 30
0.0
 10
96.692072
 20
351.346420
 30
0.0
 10
95.439016
 20
352.286196
 30
0.0
 10
93.872728
 20
353.225964
 30
0.0
 10
92.619704
 20
354.165764
 30
0.0
 10
91.366672
 20
355.105540
 30
0.0
 10
90.113640
 20
356.045308
 30
0.0
 10
88.860616
 20
356.985084
 30
0.0
 10
87.294328
 20
357.924852
 30
0.0
 10
86.041296
 20
358.864628
 30
0.0
 10
85.101528
 20
360.117652
 30
0.0
 10
83.848496
 20
361.057428
 30
0.0
 10
82.595464
 20
362.310460
 30
0.0
 10
81.342408
 20
363.250228
 30
0.0
 10
80.089376
 20
364.503260
 30
0.0
 10
79.149608
 20
365.443028
 30
0.0
 10
77.896576
 20
366.696060
 30
0.0
 10
76.643552
 20
367.949092
 30
0.0
 10
75.703776
 20
368.888892
 30
0.0
 10
74.450744
 20
370.141916
 30
0.0
 10
73.510976
 20
371.394948
 30
0.0
 10
72.571200
 20
372.647980
 30
0.0
 10
71.631432
 20
373.901004
 30
0.0
 10
70.378400
 20
375.154036
 30
0.0
 10
69.438632
 20
376.407068
 30
0.0
 10
68.498832
 20
377.660092
 30
0.0
  0
LWPOLYLINE
  5
1f1
100
AcDbEntity
  8
Layer_1
 62
5
100
AcDbPolyline
 90
27
 70
0
 10
60.354136
 20
389.250644
 30
0.0
 10
59.414368
 20
390.503676
 30
0.0
 10
58.787856
 20
391.756700
 30
0.0
 10
57.848080
 20
393.322988
 30
0.0
 10
57.534824
 20
393.949508
 30
0.0
 10
56.908312
 20
394.889276
 30
0.0
 10
56.595048
 20
395.515788
 30
0.0
 10
55.968536
 20
396.455564
 30
0.0
 10
55.655280
 20
397.395364
 30
0.0
 10
55.342024
 20
398.021876
 30
0.0
 10
54.715504
 20
398.961652
 30
0.0
 10
54.402248
 20
399.901420
 30
0.0
 10
54.088968
 20
400.841196
 30
0.0
 10
53.462448
 20
401.780964
 30
0.0
 10
53.149192
 20
402.720740
 30
0.0
 10
52.835936
 20
403.660508
 30
0.0
 10
52.209416
 20
404.600284
 30
0.0
 10
51.896160
 20
405.540052
 30
0.0
 10
51.582904
 20
406.479828
 30
0.0
 10
51.269648
 20
407.419596
 30
0.0
 10
50.956392
 20
408.359372
 30
0.0
 10
50.643136
 20
408.985884
 30
0.0
 10
50.329872
 20
409.925660
 30
0.0
 10
50.016616
 20
410.865460
 30
0.0
 10
49.390104
 20
412.431748
 30
0.0
 10
49.076848
 20
413.998028
 30
0.0
 10
48.763592
 20
415.251060
 30
0.0
  0
LWPOLYLINE
  5
1f2
100
AcDbEntity
  8
Layer_1
 62
5
100
AcDbPolyline
 90
2
 70
0
 10
60.667400
 20
394.576020
 30
0.0
 10
68.498832
 20
394.576020
 30
0.0
  0
LWPOLYLINE
  5
1f3
100
AcDbEntity
  8
Layer_1
 62
5
100
AcDbPolyline
 90
2
 70
0
 10
68.498832
 20
377.660092
 30
0.0
 10
68.498832
 20
394.576020
 30
0.0
  0
LWPOLYLINE
  5
1f4
100
AcDbEntity
  8
Layer_1
 62
5
100
AcDbPolyline
 90
2
 70
0
 10
251.441528
 20
376.407068
 30
0.0
 10
251.441528
 20
394.576020
 30
0.0
  0
LWPOLYLINE
  5
1f5
100
AcDbEntity
  8
Layer_1
 62
5
100
AcDbPolyline
 90
2
 70
0
 10
259.586216
 20
394.576020
 30
0.0
 10
251.441528
 20
394.576020
 30
0.0
  0
LWPOLYLINE
  5
1f6
100
AcDbEntity
  8
Layer_1
 62
5
100
AcDbPolyline
 90
2
 70
0
 10
259.586216
 20
388.937388
 30
0.0
 10
259.586216
 20
394.576020
 30
0.0
  0
LWPOLYLINE
  5
1f7
100
AcDbEntity
  8
Layer_1
 62
5
100
AcDbPolyline
 90
25
 70
0
 10
271.490024
 20
415.251060
 30
0.0
 10
271.176768
 20
413.998028
 30
0.0
 10
270.863512
 20
412.745004
 30
0.0
 10
270.236992
 20
411.491972
 30
0.0
 10
269.923736
 20
409.925660
 30
0.0
 10
269.297224
 20
408.359372
 30
0.0
 10
268.670704
 20
407.106340
 30
0.0
 10
268.044192
 20
405.226796
 30
0.0
 10
267.104424
 20
403.660508
 30
0.0
 10
266.791160
 20
403.033996
 30
0.0
 10
266.477904
 20
402.094220
 30
0.0
 10
266.164648
 20
401.154452
 30
0.0
 10
265.538136
 20
400.214676
 30
0.0
 10
265.224880
 20
399.588164
 30
0.0
 10
264.911592
 20
398.648396
 30
0.0
 10
264.285080
 20
397.708620
 30
0.0
 10
263.971816
 20
396.768852
 30
0.0
 10
263.345304
 20
395.829052
 30
0.0
 10
262.718792
 20
394.889276
 30
0.0
 10
262.405536
 20
393.949508
 30
0.0
 10
261.779016
 20
393.009732
 30
0.0
 10
261.152504
 20
392.069964
 30
0.0
 10
260.839248
 20
390.816932
 30
0.0
 10
260.212728
 20
389.877156
 30
0.0
 10
259.586216
 20
388.937388
 30
0.0
  0
LWPOLYLINE
  5
1f8
100
AcDbEntity
  8
Layer_1
 62
5
100
AcDbPolyline
 90
65
 70
0
 10
251.441528
 20
376.407068
 30
0.0
 10
250.501728
 20
375.467292
 30
0.0
 10
249.248696
 20
374.214268
 30
0.0
 10
248.308920
 20
372.961236
 30
0.0
 10
247.369152
 20
371.708204
 30
0.0
 10
246.429376
 20
370.768436
 30
0.0
 10
245.176352
 20
369.515404
 30
0.0
 10
244.236576
 20
368.575636
 30
0.0
 10
243.296808
 20
367.322572
 30
0.0
 10
242.043760
 20
366.382804
 30
0.0
 10
241.103992
 20
365.129772
 30
0.0
 10
239.850960
 20
364.190004
 30
0.0
 10
238.597936
 20
362.936972
 30
0.0
 10
237.658160
 20
361.997196
 30
0.0
 10
236.405104
 20
361.057428
 30
0.0
 10
235.152072
 20
359.804396
 30
0.0
 10
233.899040
 20
358.864628
 30
0.0
 10
232.646016
 20
357.924852
 30
0.0
 10
231.706240
 20
356.985084
 30
0.0
 10
230.453216
 20
356.045308
 30
0.0
 10
228.886928
 20
355.105540
 30
0.0
 10
227.633896
 20
354.165764
 30
0.0
 10
226.380864
 20
353.225964
 30
0.0
 10
225.127840
 20
352.286196
 30
0.0
 10
223.874808
 20
351.346420
 30
0.0
 10
222.621776
 20
350.406652
 30
0.0
 10
221.055464
 20
349.780132
 30
0.0
 10
219.802432
 20
348.840364
 30
0.0
 10
218.549408
 20
348.213852
 30
0.0
 10
216.983120
 20
347.274076
 30
0.0
 10
215.730088
 20
346.334308
 30
0.0
 10
214.163800
 20
345.707788
 30
0.0
 10
212.597520
 20
345.081276
 30
0.0
 10
211.344488
 20
344.141508
 30
0.0
 10
209.778200
 20
343.514988
 30
0.0
 10
208.211888
 20
342.888476
 30
0.0
 10
206.958856
 20
342.261956
 30
0.0
 10
205.392568
 20
341.635444
 30
0.0
 10
203.826280
 20
341.008932
 30
0.0
 10
202.260000
 20
340.382388
 30
0.0
 10
200.693712
 20
339.755900
 30
0.0
 10
199.127424
 20
339.129356
 30
0.0
 10
197.561136
 20
338.502844
 30
0.0
 10
195.994848
 20
338.189588
 30
0.0
 10
194.428536
 20
337.563068
 30
0.0
 10
192.862248
 20
336.936556
 30
0.0
 10
191.295960
 20
336.623300
 30
0.0
 10
189.416416
 20
336.310044
 30
0.0
 10
187.850128
 20
335.683524
 30
0.0
 10
186.283840
 20
335.370268
 30
0.0
 10
184.717560
 20
335.057012
 30
0.0
 10
182.838016
 20
334.743756
 30
0.0
 10
181.271728
 20
334.430500
 30
0.0
 10
179.392152
 20
334.117244
 30
0.0
 10
177.825864
 20
333.803980
 30
0.0
 10
175.946320
 20
333.490724
 30
0.0
 10
174.380040
 20
333.177468
 30
0.0
 10
172.500496
 20
332.864212
 30
0.0
 10
170.934208
 20
332.864212
 30
0.0
 10
169.054664
 20
332.550956
 30
0.0
 10
167.175120
 20
332.550956
 30
0.0
 10
165.295544
 20
332.237700
 30
0.0
 10
163.729256
 20
332.237700
 30
0.0
 10
161.849712
 20
332.237700
 30
0.0
 10
159.970168
 20
332.237700
 30
0.0
  0
LWPOLYLINE
  5
1f9
100
AcDbEntity
  8
Layer_1
 62
5
100
AcDbPolyline
 90
63
 70
0
 10
279.948000
 20
415.251060
 30
0.0
 10
279.321488
 20
412.745004
 30
0.0
 10
278.694944
 20
410.238916
 30
0.0
 10
277.755168
 20
408.046116
 30
0.0
 10
277.128656
 20
405.540052
 30
0.0
 10
276.188880
 20
403.033996
 30
0.0
 10
275.249112
 20
400.841196
 30
0.0
 10
273.996080
 20
398.648396
 30
0.0
 10
273.056312
 20
396.142308
 30
0.0
 10
272.116536
 20
393.949508
 30
0.0
 10
270.863512
 20
391.756700
 30
0.0
 10
269.610480
 20
389.563900
 30
0.0
 10
268.357448
 20
387.371100
 30
0.0
 10
267.104424
 20
385.178300
 30
0.0
 10
265.851392
 20
382.985500
 30
0.0
 10
264.598336
 20
380.792668
 30
0.0
 10
263.345304
 20
378.913124
 30
0.0
 10
261.779016
 20
376.720324
 30
0.0
 10
260.212728
 20
374.840780
 30
0.0
 10
258.959704
 20
372.647980
 30
0.0
 10
257.393416
 20
370.768436
 30
0.0
 10
255.827128
 20
368.888892
 30
0.0
 10
253.947584
 20
367.009316
 30
0.0
 10
252.381296
 20
365.129772
 30
0.0
 10
250.814984
 20
363.250228
 30
0.0
 10
248.935440
 20
361.370684
 30
0.0
 10
247.369152
 20
359.804396
 30
0.0
 10
245.489608
 20
357.924852
 30
0.0
 10
243.610064
 20
356.358564
 30
0.0
 10
241.730504
 20
354.792284
 30
0.0
 10
239.850960
 20
352.912708
 30
0.0
 10
237.971416
 20
351.346420
 30
0.0
 10
236.091848
 20
349.780132
 30
0.0
 10
233.899040
 20
348.527108
 30
0.0
 10
232.019496
 20
346.960820
 30
0.0
 10
229.826696
 20
345.394532
 30
0.0
 10
227.947152
 20
344.141508
 30
0.0
 10
225.754352
 20
342.888476
 30
0.0
 10
223.561552
 20
341.635444
 30
0.0
 10
221.368720
 20
340.382388
 30
0.0
 10
219.175920
 20
339.129356
 30
0.0
 10
216.983120
 20
337.876332
 30
0.0
 10
214.790320
 20
336.623300
 30
0.0
 10
212.597520
 20
335.683524
 30
0.0
 10
210.091456
 20
334.743756
 30
0.0
 10
207.898632
 20
333.490724
 30
0.0
 10
205.392568
 20
332.550956
 30
0.0
 10
203.199768
 20
331.611180
 30
0.0
 10
200.693712
 20
330.984668
 30
0.0
 10
198.500904
 20
330.044892
 30
0.0
 10
195.994848
 20
329.418380
 30
0.0
 10
193.488760
 20
328.478612
 30
0.0
 10
190.982704
 20
327.852092
 30
0.0
 10
188.476648
 20
327.225580
 30
0.0
 10
185.970584
 20
326.912324
 30
0.0
 10
183.464528
 20
326.285804
 30
0.0
 10
180.958472
 20
325.659268
 30
0.0
 10
178.452384
 20
325.346004
 30
0.0
 10
175.946320
 20
325.032748
 30
0.0
 10
173.127008
 20
324.719492
 30
0.0
 10
170.620952
 20
324.406236
 30
0.0
 10
168.845880
 20
324.184356
 30
0.0
 10
168.812920
 20
324.713452
 30
0.0
  0
SPLINE
  5
1fa
100
AcDbEntity
  8
Layer_1
 62
5
100
AcDbSpline
 70
0
 71
3
 72
10
 73
6
 74
4
 40
0.000000
 40
0.000000
 40
0.000000
 40
0.000000
 40
10.173654
 40
20.328731
 40
30.500898
 40
30.500898
 40
30.500898
 40
30.500898
 10
318.157707
 20
360.208555
 30
0.0
 10
315.392339
 20
362.177395
 30
0.0
 10
309.866653
 20
366.111479
 30
0.0
 10
302.612727
 20
373.324783
 30
0.0
 10
298.647736
 20
378.827712
 30
0.0
 10
296.663574
 20
381.581489
 30
0.0
 11
318.157707
 21
360.208555
 31
0.0
 11
310.034663
 21
366.333862
 31
0.0
 11
302.833768
 21
373.494359
 31
0.0
 11
296.663574
 21
381.581489
 31
0.0
  0
LWPOLYLINE
  5
1fb
100
AcDbEntity
  8
Layer_1
 62
5
100
AcDbPolyline
 90
2
 70
0
 10
271.490024
 20
415.251060
 30
0.0
 10
280.261256
 20
415.251060
 30
0.0
  0
LWPOLYLINE
  5
1fc
100
AcDbEntity
  8
Layer_1
 62
5
100
AcDbPolyline
 90
2
 70
1
 10
477.605530
 20
468.579718
 30
0.0
 10
477.605530
 20
468.579718
 30
0.0
  0
LWPOLYLINE
  5
1fd
100
AcDbEntity
  8
Layer_1
 62
3
100
AcDbPolyline
 90
2
 70
0
 10
508.054522
 20
446.824491
 30
0.0
 10
484.802016
 20
433.219136
 30
0.0
  0
LWPOLYLINE
  5
1fe
100
AcDbEntity
  8
Layer_1
 62
3
100
AcDbPolyline
 90
2
 70
0
 10
481.837790
 20
431.484680
 30
0.0
 10
472.938166
 20
426.277414
 30
0.0
  0
SPLINE
  5
1ff
100
AcDbEntity
  8
Layer_1
 62
5
100
AcDbSpline
 70
0
 71
3
 72
19
 73
15
 74
13
 40
0.000000
 40
0.000000
 40
0.000000
 40
0.000000
 40
20.682367
 40
40.751301
 40
61.433668
 40
82.116043
 40
102.184980
 40
122.867347
 40
143.549714
 40
163.618651
 40
184.301026
 40
204.983393
 40
225.052327
 40
245.734694
 40
245.734694
 40
245.734694
 40
245.734694
 10
477.605530
 20
468.579718
 30
0.0
 10
484.578651
 20
467.492521
 30
0.0
 10
498.318073
 20
465.350372
 30
0.0
 10
513.444054
 20
449.602348
 30
0.0
 10
519.048684
 20
429.059732
 30
0.0
 10
513.444055
 20
408.301436
 30
0.0
 10
498.318074
 20
393.187645
 30
0.0
 10
477.605530
 20
387.578866
 30
0.0
 10
456.892987
 20
393.187645
 30
0.0
 10
441.767006
 20
408.301436
 30
0.0
 10
436.162377
 20
429.059732
 30
0.0
 10
441.767007
 20
449.602348
 30
0.0
 10
456.892988
 20
465.350372
 30
0.0
 10
470.632409
 20
467.492521
 30
0.0
 10
477.605530
 20
468.579718
 30
0.0
 11
477.605530
 21
468.579718
 31
0.0
 11
497.570347
 21
463.179125
 31
0.0
 11
511.761226
 21
448.988246
 31
0.0
 11
517.161819
 21
429.023429
 31
0.0
 11
511.761226
 21
409.058604
 31
0.0
 11
497.570347
 21
394.867721
 31
0.0
 11
477.605530
 21
389.467127
 31
0.0
 11
457.640714
 21
394.867721
 31
0.0
 11
443.449835
 21
409.058604
 31
0.0
 11
438.049241
 21
429.023429
 31
0.0
 11
443.449835
 21
448.988246
 31
0.0
 11
457.640714
 21
463.179125
 31
0.0
 11
477.605530
 21
468.579718
 31
0.0
  0
LWPOLYLINE
  5
200
100
AcDbEntity
  8
Layer_1
 62
3
100
AcDbPolyline
 90
2
 70
0
 10
470.092546
 20
424.612404
 30
0.0
 10
446.723468
 20
410.938848
 30
0.0
  0
SPLINE
  5
201
100
AcDbEntity
  8
Layer_1
 62
3
100
AcDbSpline
 70
0
 71
3
 72
19
 73
15
 74
13
 40
0.000000
 40
0.000000
 40
0.000000
 40
0.000000
 40
4.297754
 40
8.468037
 40
12.765791
 40
17.063546
 40
21.233830
 40
25.531584
 40
29.829338
 40
33.999622
 40
38.297377
 40
42.595131
 40
46.765414
 40
51.063168
 40
51.063168
 40
51.063168
 40
51.063168
 10
477.583226
 20
437.228539
 30
0.0
 10
479.032226
 20
437.002621
 30
0.0
 10
481.887250
 20
436.557487
 30
0.0
 10
485.030398
 20
433.285080
 30
0.0
 10
486.195028
 20
429.016366
 30
0.0
 10
485.030398
 20
424.702835
 30
0.0
 10
481.887250
 20
421.562220
 30
0.0
 10
477.583226
 20
420.396727
 30
0.0
 10
473.279201
 20
421.562220
 30
0.0
 10
470.136053
 20
424.702835
 30
0.0
 10
468.971423
 20
429.016366
 30
0.0
 10
470.136054
 20
433.285080
 30
0.0
 10
473.279202
 20
436.557487
 30
0.0
 10
476.134225
 20
437.002621
 30
0.0
 10
477.583226
 20
437.228539
 30
0.0
 11
477.583226
 21
437.228539
 31
0.0
 11
481.731874
 21
436.106307
 31
0.0
 11
484.680709
 21
433.157471
 31
0.0
 11
485.802942
 21
429.008823
 31
0.0
 11
484.680709
 21
424.860173
 31
0.0
 11
481.731874
 21
421.911336
 31
0.0
 11
477.583226
 21
420.789104
 31
0.0
 11
473.434577
 21
421.911336
 31
0.0
 11
470.485742
 21
424.860173
 31
0.0
 11
469.363509
 21
429.008823
 31
0.0
 11
470.485742
 21
433.157471
 31
0.0
 11
473.434577
 21
436.106307
 31
0.0
 11
477.583226
 21
437.228539
 31
0.0
  0
LWPOLYLINE
  5
202
100
AcDbEntity
  8
Layer_1
 62
3
100
AcDbPolyline
 90
2
 70
1
 10
477.583226
 20
437.228539
 30
0.0
 10
477.583226
 20
437.228539
 30
0.0
  0
LWPOLYLINE
  5
203
100
AcDbEntity
  8
Layer_1
 62
3
100
AcDbPolyline
 90
2
 70
1
 10
477.583224
 20
434.228360
 30
0.0
 10
477.583224
 20
434.228360
 30
0.0
  0
LWPOLYLINE
  5
204
100
AcDbEntity
  8
Layer_1
 62
3
100
AcDbPolyline
 90
2
 70
0
 10
477.595172
 20
393.353126
 30
0.0
 10
477.438848
 20
420.293077
 30
0.0
  0
LWPOLYLINE
  5
205
100
AcDbEntity
  8
Layer_1
 62
3
100
AcDbPolyline
 90
2
 70
0
 10
477.418879
 20
423.727399
 30
0.0
 10
477.359065
 20
434.038326
 30
0.0
  0
LWPOLYLINE
  5
206
100
AcDbEntity
  8
Layer_1
 62
3
100
AcDbPolyline
 90
2
 70
0
 10
477.339932
 20
437.335207
 30
0.0
 10
477.182818
 20
464.410203
 30
0.0
  0
LWPOLYLINE
  5
207
100
AcDbEntity
  8
Layer_1
 62
3
100
AcDbPolyline
 90
2
 70
0
 10
512.917533
 20
429.087842
 30
0.0
 10
485.977583
 20
428.931517
 30
0.0
  0
LWPOLYLINE
  5
208
100
AcDbEntity
  8
Layer_1
 62
3
100
AcDbPolyline
 90
2
 70
0
 10
482.543260
 20
428.911549
 30
0.0
 10
472.232333
 20
428.851735
 30
0.0
  0
LWPOLYLINE
  5
209
100
AcDbEntity
  8
Layer_1
 62
3
100
AcDbPolyline
 90
2
 70
0
 10
468.935453
 20
428.832602
 30
0.0
 10
441.860457
 20
428.675488
 30
0.0
  0
LWPOLYLINE
  5
20a
100
AcDbEntity
  8
Layer_1
 62
3
100
AcDbPolyline
 90
2
 70
0
 10
495.331821
 20
398.216138
 30
0.0
 10
481.726466
 20
421.468653
 30
0.0
  0
LWPOLYLINE
  5
20b
100
AcDbEntity
  8
Layer_1
 62
3
100
AcDbPolyline
 90
2
 70
0
 10
479.992011
 20
424.432879
 30
0.0
 10
474.784744
 20
433.332503
 30
0.0
  0
LWPOLYLINE
  5
20c
100
AcDbEntity
  8
Layer_1
 62
3
100
AcDbPolyline
 90
2
 70
0
 10
473.119734
 20
436.178114
 30
0.0
 10
459.446169
 20
459.547192
 30
0.0
  0
LWPOLYLINE
  5
20d
100
AcDbEntity
  8
Layer_1
 62
3
100
AcDbPolyline
 90
2
 70
0
 10
508.260704
 20
411.295948
 30
0.0
 10
484.851864
 20
424.630543
 30
0.0
  0
LWPOLYLINE
  5
20e
100
AcDbEntity
  8
Layer_1
 62
3
100
AcDbPolyline
 90
2
 70
0
 10
481.867670
 20
426.330410
 30
0.0
 10
472.908231
 20
431.434080
 30
0.0
  0
LWPOLYLINE
  5
20f
100
AcDbEntity
  8
Layer_1
 62
3
100
AcDbPolyline
 90
2
 70
0
 10
470.043478
 20
433.065941
 30
0.0
 10
446.517287
 20
446.467382
 30
0.0
  0
LWPOLYLINE
  5
210
100
AcDbEntity
  8
Layer_1
 62
3
100
AcDbPolyline
 90
2
 70
0
 10
494.974712
 20
459.753373
 30
0.0
 10
481.640126
 20
436.344534
 30
0.0
  0
LWPOLYLINE
  5
211
100
AcDbEntity
  8
Layer_1
 62
3
100
AcDbPolyline
 90
2
 70
0
 10
479.940259
 20
433.360339
 30
0.0
 10
474.836589
 20
424.400900
 30
0.0
  0
SPLINE
  5
212
100
AcDbEntity
  8
Layer_1
 62
3
100
AcDbSpline
 70
0
 71
3
 72
19
 73
15
 74
13
 40
0.000000
 40
0.000000
 40
0.000000
 40
0.000000
 40
2.729078
 40
5.377213
 40
8.106291
 40
10.835371
 40
13.483506
 40
16.212584
 40
18.941662
 40
21.589797
 40
24.318876
 40
27.047955
 40
29.696089
 40
32.425168
 40
32.425168
 40
32.425168
 40
32.425168
 10
477.583224
 20
434.228360
 30
0.0
 10
478.503341
 20
434.084902
 30
0.0
 10
480.316284
 20
433.802242
 30
0.0
 10
482.312186
 20
431.724259
 30
0.0
 10
483.051728
 20
429.013621
 30
0.0
 10
482.312187
 20
426.274524
 30
0.0
 10
480.316284
 20
424.280230
 30
0.0
 10
477.583224
 20
423.540141
 30
0.0
 10
474.850164
 20
424.280230
 30
0.0
 10
472.854261
 20
426.274524
 30
0.0
 10
472.114720
 20
429.013621
 30
0.0
 10
472.854262
 20
431.724259
 30
0.0
 10
474.850164
 20
433.802242
 30
0.0
 10
476.663107
 20
434.084902
 30
0.0
 10
477.583224
 20
434.228360
 30
0.0
 11
477.583224
 21
434.228360
 31
0.0
 11
480.217620
 21
433.515741
 31
0.0
 11
482.090134
 21
431.643227
 31
0.0
 11
482.802753
 21
429.008831
 31
0.0
 11
482.090134
 21
426.374434
 31
0.0
 11
480.217620
 21
424.501920
 31
0.0
 11
477.583224
 21
423.789301
 31
0.0
 11
474.948828
 21
424.501920
 31
0.0
 11
473.076314
 21
426.374434
 31
0.0
 11
472.363695
 21
429.008831
 31
0.0
 11
473.076314
 21
431.643227
 31
0.0
 11
474.948828
 21
433.515741
 31
0.0
 11
477.583224
 21
434.228360
 31
0.0
  0
LWPOLYLINE
  5
213
100
AcDbEntity
  8
Layer_1
 62
3
100
AcDbPolyline
 90
2
 70
0
 10
473.204718
 20
421.536157
 30
0.0
 10
459.803278
 20
398.009966
 30
0.0
  0
SPLINE
  5
214
100
AcDbEntity
  8
Layer_1
 62
3
100
AcDbSpline
 70
0
 71
3
 72
19
 73
15
 74
13
 40
0.000000
 40
0.000000
 40
0.000000
 40
0.000000
 40
18.583199
 40
36.615227
 40
55.198426
 40
73.781633
 40
91.813663
 40
110.396863
 40
128.980062
 40
147.012092
 40
165.595299
 40
184.178498
 40
202.210526
 40
220.793725
 40
220.793725
 40
220.793725
 40
220.793725
 10
477.605560
 20
464.564894
 30
0.0
 10
483.870940
 20
463.588042
 30
0.0
 10
496.215872
 20
461.663312
 30
0.0
 10
509.806634
 20
447.513642
 30
0.0
 10
514.842420
 20
429.056009
 30
0.0
 10
509.806635
 20
410.404587
 30
0.0
 10
496.215873
 20
396.824777
 30
0.0
 10
477.605560
 20
391.785265
 30
0.0
 10
458.995247
 20
396.824777
 30
0.0
 10
445.404485
 20
410.404587
 30
0.0
 10
440.368700
 20
429.056009
 30
0.0
 10
445.404486
 20
447.513642
 30
0.0
 10
458.995248
 20
461.663312
 30
0.0
 10
471.340180
 20
463.588042
 30
0.0
 10
477.605560
 20
464.564894
 30
0.0
 11
477.605560
 21
464.564894
 31
0.0
 11
495.544037
 21
459.712437
 31
0.0
 11
508.294606
 21
446.961868
 31
0.0
 11
513.147063
 21
429.023391
 31
0.0
 11
508.294606
 21
411.084906
 31
0.0
 11
495.544037
 21
398.334334
 31
0.0
 11
477.605560
 21
393.481876
 31
0.0
 11
459.667083
 21
398.334334
 31
0.0
 11
446.916514
 21
411.084906
 31
0.0
 11
442.064057
 21
429.023391
 31
0.0
 11
446.916514
 21
446.961868
 31
0.0
 11
459.667083
 21
459.712437
 31
0.0
 11
477.605560
 21
464.564894
 31
0.0
  0
SPLINE
  5
215
100
AcDbEntity
  8
Layer_1
 62
5
100
AcDbSpline
 70
0
 71
3
 72
10
 73
6
 74
4
 40
0.000000
 40
0.000000
 40
0.000000
 40
0.000000
 40
18.717964
 40
37.728873
 40
57.199547
 40
57.199547
 40
57.199547
 40
57.199547
 10
351.193296
 20
755.443708
 30
0.0
 10
356.823634
 20
758.149894
 30
0.0
 10
368.172429
 20
763.604620
 30
0.0
 10
386.714551
 20
768.647123
 30
0.0
 10
399.518726
 20
769.664780
 30
0.0
 10
405.997304
 20
770.179689
 30
0.0
 11
351.193296
 21
755.443708
 31
0.0
 11
368.301303
 21
763.038327
 31
0.0
 11
386.645995
 21
768.027008
 31
0.0
 11
405.997304
 21
770.179689
 31
0.0
  0
SPLINE
  5
216
100
AcDbEntity
  8
Layer_1
 62
5
100
AcDbSpline
 70
0
 71
3
 72
10
 73
6
 74
4
 40
0.000000
 40
0.000000
 40
0.000000
 40
0.000000
 40
19.267771
 40
38.084322
 40
56.611791
 40
56.611791
 40
56.611791
 40
56.611791
 10
414.545920
 20
770.176489
 30
0.0
 10
420.956667
 20
769.665307
 30
0.0
 10
433.628031
 20
768.654913
 30
0.0
 10
451.985102
 20
763.695919
 30
0.0
 10
463.236883
 20
758.336734
 30
0.0
 10
468.819224
 20
755.677884
 30
0.0
 11
414.545920
 21
770.176489
 31
0.0
 11
433.695728
 21
768.047669
 31
0.0
 11
451.861139
 21
763.140488
 31
0.0
 11
468.819224
 21
755.677884
 31
0.0
  0
SPLINE
  5
217
100
AcDbEntity
  8
Layer_1
 62
5
100
AcDbSpline
 70
0
 71
3
 72
10
 73
6
 74
4
 40
0.000000
 40
0.000000
 40
0.000000
 40
0.000000
 40
19.105923
 40
38.167573
 40
57.268514
 40
57.268514
 40
57.268514
 40
57.268514
 10
475.654592
 20
751.757252
 30
0.0
 10
480.924029
 20
748.166302
 30
0.0
 10
491.450692
 20
740.992722
 30
0.0
 10
505.113079
 20
727.451035
 30
0.0
 10
512.379658
 20
716.990418
 30
0.0
 10
516.016688
 20
711.754724
 30
0.0
 11
475.654592
 21
751.757252
 31
0.0
 11
491.106795
 21
740.520450
 31
0.0
 11
504.645211
 21
727.101888
 31
0.0
 11
516.016688
 21
711.754724
 31
0.0
  0
SPLINE
  5
218
100
AcDbEntity
  8
Layer_1
 62
5
100
AcDbSpline
 70
0
 71
3
 72
10
 73
6
 74
4
 40
0.000000
 40
0.000000
 40
0.000000
 40
0.000000
 40
18.912634
 40
38.122431
 40
57.801177
 40
57.801177
 40
57.801177
 40
57.801177
 10
520.074488
 20
704.815252
 30
0.0
 10
522.827561
 20
699.135224
 30
0.0
 10
528.376965
 20
687.685922
 30
0.0
 10
533.499354
 20
668.952811
 30
0.0
 10
534.520071
 20
656.012225
 30
0.0
 10
535.036584
 20
649.463908
 30
0.0
 11
520.074488
 21
704.815252
 31
0.0
 11
527.799395
 21
687.552183
 31
0.0
 11
532.865927
 21
669.022571
 31
0.0
 11
535.036584
 21
649.463908
 31
0.0
  0
SPLINE
  5
219
100
AcDbEntity
  8
Layer_1
 62
5
100
AcDbSpline
 70
0
 71
3
 72
10
 73
6
 74
4
 40
0.000000
 40
0.000000
 40
0.000000
 40
0.000000
 40
19.542271
 40
38.617317
 40
57.394546
 40
57.394546
 40
57.394546
 40
57.394546
 10
535.049064
 20
641.689612
 30
0.0
 10
534.559366
 20
635.185057
 30
0.0
 10
533.591678
 20
622.331460
 30
0.0
 10
528.598184
 20
603.707238
 30
0.0
 10
523.159232
 20
592.305109
 30
0.0
 10
520.461152
 20
586.648900
 30
0.0
 11
535.049064
 21
641.689612
 31
0.0
 11
532.967379
 21
622.258530
 31
0.0
 11
528.027376
 21
603.834259
 31
0.0
 11
520.461152
 21
586.648900
 31
0.0
  0
SPLINE
  5
21a
100
AcDbEntity
  8
Layer_1
 62
5
100
AcDbSpline
 70
0
 71
3
 72
10
 73
6
 74
4
 40
0.000000
 40
0.000000
 40
0.000000
 40
0.000000
 40
19.212997
 40
38.381970
 40
57.591924
 40
57.591924
 40
57.591924
 40
57.591924
 10
516.578360
 20
579.892508
 30
0.0
 10
512.963344
 20
574.596118
 30
0.0
 10
505.741596
 20
564.015475
 30
0.0
 10
492.098156
 20
550.298677
 30
0.0
 10
481.557601
 20
543.020366
 30
0.0
 10
476.281696
 20
539.377324
 30
0.0
 11
516.578360
 21
579.892508
 31
0.0
 11
505.264519
 21
564.363945
 31
0.0
 11
491.746476
 21
550.773065
 31
0.0
 11
476.281696
 21
539.377324
 31
0.0
  0
SPLINE
  5
21b
100
AcDbEntity
  8
Layer_1
 62
5
100
AcDbSpline
 70
0
 71
3
 72
10
 73
6
 74
4
 40
0.000000
 40
0.000000
 40
0.000000
 40
0.000000
 40
18.784711
 40
37.864752
 40
57.408921
 40
57.408921
 40
57.408921
 40
57.408921
 10
469.284992
 20
535.316820
 30
0.0
 10
463.634779
 20
532.600431
 30
0.0
 10
452.245522
 20
527.124948
 30
0.0
 10
433.631620
 20
522.074249
 30
0.0
 10
420.778594
 20
521.068833
 30
0.0
 10
414.274856
 20
520.560084
 30
0.0
 11
469.284992
 21
535.316820
 31
0.0
 11
452.115860
 21
527.695383
 31
0.0
 11
433.701636
 21
522.698955
 31
0.0
 11
414.274856
 21
520.560084
 31
0.0
  0
SPLINE
  5
21c
100
AcDbEntity
  8
Layer_1
 62
5
100
AcDbSpline
 70
0
 71
3
 72
10
 73
6
 74
4
 40
0.000000
 40
0.000000
 40
0.000000
 40
0.000000
 40
19.502913
 40
38.542713
 40
57.287378
 40
57.287378
 40
57.287378
 40
57.287378
 10
406.242808
 20
520.557684
 30
0.0
 10
399.752520
 20
521.061252
 30
0.0
 10
386.926061
 20
522.056430
 30
0.0
 10
368.346942
 20
527.076904
 30
0.0
 10
356.974116
 20
532.524546
 30
0.0
 10
351.332120
 20
535.227092
 30
0.0
 11
406.242808
 21
520.557684
 31
0.0
 11
386.855543
 21
522.678432
 31
0.0
 11
368.474985
 21
527.645229
 31
0.0
 11
351.332120
 21
535.227092
 31
0.0
  0
SPLINE
  5
21d
100
AcDbEntity
  8
Layer_1
 62
5
100
AcDbSpline
 70
0
 71
3
 72
10
 73
6
 74
4
 40
0.000000
 40
0.000000
 40
0.000000
 40
0.000000
 40
19.100033
 40
38.158421
 40
57.258670
 40
57.258670
 40
57.258670
 40
57.258670
 10
344.293152
 20
539.299476
 30
0.0
 10
339.042322
 20
542.914094
 30
0.0
 10
328.552112
 20
550.135449
 30
0.0
 10
314.955049
 20
563.737978
 30
0.0
 10
307.737906
 20
574.231177
 30
0.0
 10
304.125376
 20
579.483532
 30
0.0
 11
344.293152
 21
539.299476
 31
0.0
 11
328.898651
 21
550.605253
 31
0.0
 11
315.425050
 21
564.084282
 31
0.0
 11
304.125376
 21
579.483532
 31
0.0
  0
SPLINE
  5
21e
100
AcDbEntity
  8
Layer_1
 62
5
100
AcDbSpline
 70
0
 71
3
 72
10
 73
6
 74
4
 40
0.000000
 40
0.000000
 40
0.000000
 40
0.000000
 40
18.435621
 40
37.159567
 40
56.332082
 40
56.332082
 40
56.332082
 40
56.332082
 10
299.733728
 20
587.129980
 30
0.0
 10
297.104655
 20
592.692442
 30
0.0
 10
291.805392
 20
603.904361
 30
0.0
 10
286.909603
 20
622.179671
 30
0.0
 10
285.918822
 20
634.789511
 30
0.0
 10
285.417568
 20
641.169060
 30
0.0
 11
299.733728
 21
587.129980
 31
0.0
 11
292.355948
 21
604.024963
 31
0.0
 11
287.510735
 21
622.111148
 31
0.0
 11
285.417568
 21
641.169060
 31
0.0
  0
SPLINE
  5
21f
100
AcDbEntity
  8
Layer_1
 62
5
100
AcDbSpline
 70
0
 71
3
 72
10
 73
6
 74
4
 40
0.000000
 40
0.000000
 40
0.000000
 40
0.000000
 40
19.264466
 40
38.082384
 40
56.614882
 40
56.614882
 40
56.614882
 40
56.614882
 10
285.440928
 20
650.232956
 30
0.0
 10
285.979538
 20
656.640356
 30
0.0
 10
287.044274
 20
669.306634
 30
0.0
 10
292.083374
 20
687.643011
 30
0.0
 10
297.492471
 20
698.873249
 30
0.0
 10
300.176352
 20
704.445460
 30
0.0
 11
285.440928
 21
650.232956
 31
0.0
 11
287.651682
 21
669.370151
 31
0.0
 11
292.637940
 21
687.515433
 31
0.0
 11
300.176352
 21
704.445460
 31
0.0
  0
SPLINE
  5
220
100
AcDbEntity
  8
Layer_1
 62
5
100
AcDbSpline
 70
0
 71
3
 72
10
 73
6
 74
4
 40
0.000000
 40
0.000000
 40
0.000000
 40
0.000000
 40
19.129050
 40
38.216793
 40
57.347135
 40
57.347135
 40
57.347135
 40
57.347135
 10
304.192280
 20
711.368908
 30
0.0
 10
307.815952
 20
716.625290
 30
0.0
 10
315.055470
 20
727.126702
 30
0.0
 10
328.692272
 20
740.732142
 30
0.0
 10
339.210839
 20
747.947492
 30
0.0
 10
344.475984
 20
751.559188
 30
0.0
 11
304.192280
 21
711.368908
 31
0.0
 11
315.526345
 21
726.778630
 31
0.0
 11
329.038980
 21
740.260122
 31
0.0
 11
344.475984
 21
751.559188
 31
0.0
  0
SPLINE
  5
221
100
AcDbEntity
  8
Layer_1
 62
5
100
AcDbSpline
 70
0
 71
3
 72
10
 73
6
 74
4
 40
0.000000
 40
0.000000
 40
0.000000
 40
0.000000
 40
2.458030
 40
4.918717
 40
7.382328
 40
7.382328
 40
7.382328
 40
7.382328
 10
349.508664
 20
743.820452
 30
0.0
 10
350.208382
 20
744.246774
 30
0.0
 10
351.608574
 20
745.099878
 30
0.0
 10
353.742340
 20
746.326376
 30
0.0
 10
355.185940
 20
747.107691
 30
0.0
 10
355.908168
 20
747.498580
 30
0.0
 11
349.508664
 21
743.820452
 31
0.0
 11
351.613187
 21
745.090449
 31
0.0
 11
353.746563
 21
746.316699
 31
0.0
 11
355.908168
 21
747.498580
 31
0.0
  0
SPLINE
  5
222
100
AcDbEntity
  8
Layer_1
 62
5
100
AcDbSpline
 70
0
 71
3
 72
13
 73
9
 74
7
 40
0.000000
 40
0.000000
 40
0.000000
 40
0.000000
 40
1.385092
 40
2.773822
 40
4.166293
 40
5.586669
 40
7.003152
 40
8.415854
 40
8.415854
 40
8.415854
 40
8.415854
 10
406.059784
 20
760.948316
 30
0.0
 10
406.521250
 20
760.963087
 30
0.0
 10
407.445395
 20
760.992667
 30
0.0
 10
408.834006
 20
761.016314
 30
0.0
 10
410.234534
 20
761.024895
 30
0.0
 10
411.644312
 20
761.016092
 30
0.0
 10
413.060670
 20
760.991510
 30
0.0
 10
414.003241
 20
760.960727
 30
0.0
 10
414.473896
 20
760.945356
 30
0.0
 11
406.059784
 21
760.948316
 31
0.0
 11
407.444273
 21
760.989178
 31
0.0
 11
408.832785
 21
761.013774
 31
0.0
 11
410.225232
 21
761.021996
 31
0.0
 11
411.645582
 21
761.013451
 31
0.0
 11
413.061834
 21
760.987874
 31
0.0
 11
414.473896
 21
760.945356
 31
0.0
  0
SPLINE
  5
223
100
AcDbEntity
  8
Layer_1
 62
5
100
AcDbSpline
 70
0
 71
3
 72
10
 73
6
 74
4
 40
0.000000
 40
0.000000
 40
0.000000
 40
0.000000
 40
2.514423
 40
5.025803
 40
7.534427
 40
7.534427
 40
7.534427
 40
7.534427
 10
464.544912
 20
747.497204
 30
0.0
 10
465.281974
 20
747.098135
 30
0.0
 10
466.755205
 20
746.300480
 30
0.0
 10
468.932087
 20
745.047210
 30
0.0
 10
470.360061
 20
744.174812
 30
0.0
 10
471.073656
 20
743.738852
 30
0.0
 11
464.544912
 21
747.497204
 31
0.0
 11
466.750803
 21
746.290402
 31
0.0
 11
468.927269
 21
745.037398
 31
0.0
 11
471.073656
 21
743.738852
 31
0.0
  0
SPLINE
  5
224
100
AcDbEntity
  8
Layer_1
 62
5
100
AcDbSpline
 70
0
 71
3
 72
10
 73
6
 74
4
 40
0.000000
 40
0.000000
 40
0.000000
 40
0.000000
 40
2.590908
 40
5.184714
 40
7.781738
 40
7.781738
 40
7.781738
 40
7.781738
 10
508.379168
 20
706.562044
 30
0.0
 10
508.831828
 20
705.826513
 30
0.0
 10
509.737654
 20
704.354628
 30
0.0
 10
511.037479
 20
702.109389
 30
0.0
 10
511.863682
 20
700.589057
 30
0.0
 10
512.277040
 20
699.828420
 30
0.0
 11
508.379168
 21
706.562044
 31
0.0
 11
509.727210
 21
704.349447
 31
0.0
 11
511.026742
 21
702.104665
 31
0.0
 11
512.277040
 21
699.828420
 31
0.0
  0
SPLINE
  5
225
100
AcDbEntity
  8
Layer_1
 62
5
100
AcDbSpline
 70
0
 71
3
 72
13
 73
9
 74
7
 40
0.000000
 40
0.000000
 40
0.000000
 40
0.000000
 40
1.428268
 40
2.860402
 40
4.296517
 40
5.426278
 40
6.553572
 40
7.678447
 40
7.678447
 40
7.678447
 40
7.678447
 10
525.796032
 20
649.668444
 30
0.0
 10
525.811736
 20
649.192607
 30
0.0
 10
525.843185
 20
648.239647
 30
0.0
 10
525.868256
 20
646.807641
 30
0.0
 10
525.876645
 20
645.474969
 30
0.0
 10
525.870537
 20
644.243912
 30
0.0
 10
525.854983
 20
643.116683
 30
0.0
 10
525.835515
 20
642.366207
 30
0.0
 10
525.825792
 20
641.991372
 30
0.0
 11
525.796032
 21
649.668444
 31
0.0
 11
525.839463
 21
648.240836
 31
0.0
 11
525.865561
 21
646.808940
 31
0.0
 11
525.874272
 21
645.372852
 31
0.0
 11
525.868868
 21
644.243103
 31
0.0
 11
525.852690
 21
643.115926
 31
0.0
 11
525.825792
 21
641.991372
 31
0.0
  0
SPLINE
  5
226
100
AcDbEntity
  8
Layer_1
 62
5
100
AcDbSpline
 70
0
 71
3
 72
10
 73
6
 74
4
 40
0.000000
 40
0.000000
 40
0.000000
 40
0.000000
 40
2.724701
 40
5.445772
 40
8.163573
 40
8.163573
 40
8.163573
 40
8.163573
 10
512.654648
 20
591.629540
 30
0.0
 10
512.226288
 20
590.828637
 30
0.0
 10
511.370140
 20
589.227898
 30
0.0
 10
510.019064
 20
586.865227
 30
0.0
 10
509.075013
 20
585.317397
 30
0.0
 10
508.603272
 20
584.543948
 30
0.0
 11
512.654648
 21
591.629540
 31
0.0
 11
511.358272
 21
589.233000
 31
0.0
 11
510.007531
 21
586.870855
 31
0.0
 11
508.603272
 21
584.543948
 31
0.0
  0
SPLINE
  5
227
100
AcDbEntity
  8
Layer_1
 62
5
100
AcDbSpline
 70
0
 71
3
 72
10
 73
6
 74
4
 40
0.000000
 40
0.000000
 40
0.000000
 40
0.000000
 40
2.483413
 40
4.969463
 40
7.458428
 40
7.458428
 40
7.458428
 40
7.458428
 10
471.552928
 20
547.305612
 30
0.0
 10
470.848649
 20
546.870543
 30
0.0
 10
469.439344
 20
545.999943
 30
0.0
 10
467.290926
 20
544.748098
 30
0.0
 10
465.836939
 20
543.950511
 30
0.0
 10
465.109520
 20
543.551484
 30
0.0
 11
471.552928
 21
547.305612
 31
0.0
 11
469.434557
 21
546.009523
 31
0.0
 11
467.286542
 21
544.757935
 31
0.0
 11
465.109520
 21
543.551484
 31
0.0
  0
SPLINE
  5
228
100
AcDbEntity
  8
Layer_1
 62
5
100
AcDbSpline
 70
0
 71
3
 72
13
 73
9
 74
7
 40
0.000000
 40
0.000000
 40
0.000000
 40
0.000000
 40
1.329754
 40
2.662870
 40
3.999441
 40
5.225541
 40
6.448739
 40
7.669090
 40
7.669090
 40
7.669090
 40
7.669090
 10
414.223872
 20
529.791588
 30
0.0
 10
413.780825
 20
529.777985
 30
0.0
 10
412.893610
 20
529.750744
 30
0.0
 10
411.560597
 20
529.729036
 30
0.0
 10
410.262000
 20
529.721432
 30
0.0
 10
409.000042
 20
529.728224
 30
0.0
 10
407.776930
 20
529.746543
 30
0.0
 10
406.962730
 20
529.769488
 30
0.0
 10
406.556104
 20
529.780948
 30
0.0
 11
414.223872
 21
529.791588
 31
0.0
 11
412.894650
 21
529.753967
 31
0.0
 11
411.561726
 21
529.731369
 31
0.0
 11
410.225176
 21
529.723828
 31
0.0
 11
408.999092
 21
529.730192
 31
0.0
 11
407.776044
 21
529.749250
 31
0.0
 11
406.556104
 21
529.780948
 31
0.0
  0
SPLINE
  5
229
100
AcDbEntity
  8
Layer_1
 62
5
100
AcDbSpline
 70
0
 71
3
 72
10
 73
6
 74
4
 40
0.000000
 40
0.000000
 40
0.000000
 40
0.000000
 40
2.892151
 40
5.780317
 40
8.664926
 40
8.664926
 40
8.664926
 40
8.664926
 10
356.008336
 20
543.193844
 30
0.0
 10
355.160531
 20
543.652844
 30
0.0
 10
353.466088
 20
544.570213
 30
0.0
 10
350.968081
 20
546.021338
 30
0.0
 10
349.333830
 20
547.037329
 30
0.0
 10
348.517208
 20
547.545012
 30
0.0
 11
356.008336
 21
543.193844
 31
0.0
 11
353.471939
 21
544.583530
 31
0.0
 11
350.974559
 21
546.034254
 31
0.0
 11
348.517208
 21
547.545012
 31
0.0
  0
SPLINE
  5
22a
100
AcDbEntity
  8
Layer_1
 62
5
100
AcDbSpline
 70
0
 71
3
 72
10
 73
6
 74
4
 40
0.000000
 40
0.000000
 40
0.000000
 40
0.000000
 40
2.924918
 40
5.853585
 40
8.786460
 40
8.786460
 40
8.786460
 40
8.786460
 10
312.069096
 20
584.187180
 30
0.0
 10
311.558829
 20
585.018001
 30
0.0
 10
310.537640
 20
586.680708
 30
0.0
 10
309.081027
 20
589.222349
 30
0.0
 10
308.161602
 20
590.946426
 30
0.0
 10
307.701560
 20
591.809084
 30
0.0
 11
312.069096
 21
584.187180
 31
0.0
 11
310.550975
 21
586.687270
 31
0.0
 11
309.094780
 21
589.228252
 31
0.0
 11
307.701560
 21
591.809084
 31
0.0
  0
SPLINE
  5
22b
100
AcDbEntity
  8
Layer_1
 62
5
100
AcDbSpline
 70
0
 71
3
 72
13
 73
9
 74
7
 40
0.000000
 40
0.000000
 40
0.000000
 40
0.000000
 40
1.118312
 40
2.239011
 40
3.362155
 40
4.878319
 40
6.390057
 40
7.897499
 40
7.897499
 40
7.897499
 40
7.897499
 10
294.624064
 20
642.011124
 30
0.0
 10
294.614442
 20
642.383773
 30
0.0
 10
294.595177
 20
643.129867
 30
0.0
 10
294.579827
 20
644.250506
 30
0.0
 10
294.573649
 20
645.503842
 30
0.0
 10
294.582886
 20
646.887527
 30
0.0
 10
294.610921
 20
648.399110
 30
0.0
 10
294.645913
 20
649.404908
 30
0.0
 10
294.663384
 20
649.907092
 30
0.0
 11
294.624064
 21
642.011124
 31
0.0
 11
294.597454
 21
643.129120
 31
0.0
 11
294.581474
 21
644.249704
 31
0.0
 11
294.576144
 21
645.372836
 31
0.0
 11
294.585900
 21
646.888969
 31
0.0
 11
294.615042
 21
648.400426
 31
0.0
 11
294.663384
 21
649.907092
 31
0.0
  0
SPLINE
  5
22c
100
AcDbEntity
  8
Layer_1
 62
5
100
AcDbSpline
 70
0
 71
3
 72
10
 73
6
 74
4
 40
0.000000
 40
0.000000
 40
0.000000
 40
0.000000
 40
2.760794
 40
5.517991
 40
8.271965
 40
8.271965
 40
8.271965
 40
8.271965
 10
308.239104
 20
699.951044
 30
0.0
 10
308.679848
 20
700.758932
 30
0.0
 10
309.560763
 20
702.373656
 30
0.0
 10
310.950444
 20
704.755776
 30
0.0
 10
311.921142
 20
706.315496
 30
0.0
 10
312.406208
 20
707.094900
 30
0.0
 11
308.239104
 21
699.951044
 31
0.0
 11
309.572878
 21
702.368280
 31
0.0
 11
310.962205
 21
704.749856
 31
0.0
 11
312.406208
 21
707.094900
 31
0.0
  0
LWPOLYLINE
  5
22d
100
AcDbEntity
  8
Layer_1
 62
3
100
AcDbPolyline
 90
2
 70
1
 10
477.605560
 20
464.564894
 30
0.0
 10
477.605560
 20
464.564894
 30
0.0
  0
LWPOLYLINE
  5
22e
100
AcDbEntity
  8
Layer_1
 62
1
100
AcDbPolyline
 90
2
 70
1
 10
518.490336
 20
645.372836
 30
0.0
 10
518.490336
 20
645.372836
 30
0.0
  0
LWPOLYLINE
  5
22f
100
AcDbEntity
  8
Layer_1
 62
5
100
AcDbPolyline
 90
2
 70
0
 10
534.659688
 20
641.770604
 30
0.0
 10
525.846368
 20
641.770604
 30
0.0
  0
LWPOLYLINE
  5
230
100
AcDbEntity
  8
Layer_1
 62
5
100
AcDbPolyline
 90
2
 70
0
 10
294.825296
 20
641.770604
 30
0.0
 10
286.001872
 20
641.770604
 30
0.0
  0
LWPOLYLINE
  5
231
100
AcDbEntity
  8
Layer_1
 62
5
100
AcDbPolyline
 90
2
 70
0
 10
286.001872
 20
649.690940
 30
0.0
 10
294.697480
 20
649.415508
 30
0.0
  0
LWPOLYLINE
  5
232
100
AcDbEntity
  8
Layer_1
 62
5
100
AcDbPolyline
 90
2
 70
0
 10
525.915288
 20
649.690940
 30
0.0
 10
534.659688
 20
649.690940
 30
0.0
  0
LWPOLYLINE
  5
233
100
AcDbEntity
  8
Layer_1
 62
5
100
AcDbPolyline
 90
2
 70
0
 10
406.370624
 20
761.026988
 30
0.0
 10
406.370624
 20
770.059633
 30
0.0
  0
LWPOLYLINE
  5
234
100
AcDbEntity
  8
Layer_1
 62
5
100
AcDbPolyline
 90
2
 70
0
 10
414.290960
 20
770.059633
 30
0.0
 10
414.290960
 20
761.577860
 30
0.0
  0
LWPOLYLINE
  5
235
100
AcDbEntity
  8
Layer_1
 62
5
100
AcDbPolyline
 90
2
 70
0
 10
414.290960
 20
529.789604
 30
0.0
 10
414.290960
 20
520.850956
 30
0.0
  0
LWPOLYLINE
  5
236
100
AcDbEntity
  8
Layer_1
 62
5
100
AcDbPolyline
 90
2
 70
0
 10
406.370624
 20
520.575524
 30
0.0
 10
406.370624
 20
529.967828
 30
0.0
  0
LWPOLYLINE
  5
237
100
AcDbEntity
  8
Layer_1
 62
5
100
AcDbPolyline
 90
2
 70
0
 10
311.655176
 20
584.377796
 30
0.0
 10
304.087992
 20
579.861276
 30
0.0
  0
LWPOLYLINE
  5
238
100
AcDbEntity
  8
Layer_1
 62
5
100
AcDbPolyline
 90
2
 70
0
 10
299.852392
 20
586.720492
 30
0.0
 10
307.616592
 20
591.191740
 30
0.0
  0
LWPOLYLINE
  5
239
100
AcDbEntity
  8
Layer_1
 62
5
100
AcDbPolyline
 90
2
 70
0
 10
508.265760
 20
706.539740
 30
0.0
 10
516.298104
 20
711.049396
 30
0.0
  0
LWPOLYLINE
  5
23a
100
AcDbEntity
  8
Layer_1
 62
5
100
AcDbPolyline
 90
2
 70
0
 10
519.982840
 20
704.465612
 30
0.0
 10
511.943984
 20
700.111228
 30
0.0
  0
LWPOLYLINE
  5
23b
100
AcDbEntity
  8
Layer_1
 62
5
100
AcDbPolyline
 90
2
 70
0
 10
471.812888
 20
547.382372
 30
0.0
 10
476.475704
 20
539.212556
 30
0.0
  0
LWPOLYLINE
  5
23c
100
AcDbEntity
  8
Layer_1
 62
5
100
AcDbPolyline
 90
2
 70
0
 10
469.341064
 20
535.252396
 30
0.0
 10
465.340432
 20
543.357236
 30
0.0
  0
LWPOLYLINE
  5
23d
100
AcDbEntity
  8
Layer_1
 62
5
100
AcDbPolyline
 90
2
 70
0
 10
348.983136
 20
744.121708
 30
0.0
 10
344.736720
 20
751.422676
 30
0.0
  0
LWPOLYLINE
  5
23e
100
AcDbEntity
  8
Layer_1
 62
5
100
AcDbPolyline
 90
2
 70
0
 10
351.595928
 20
755.382844
 30
0.0
 10
355.775600
 20
747.646596
 30
0.0
  0
LWPOLYLINE
  5
23f
100
AcDbEntity
  8
Layer_1
 62
5
100
AcDbPolyline
 90
2
 70
0
 10
464.313632
 20
746.856972
 30
0.0
 10
469.065616
 20
755.382852
 30
0.0
  0
LWPOLYLINE
  5
240
100
AcDbEntity
  8
Layer_1
 62
5
100
AcDbPolyline
 90
2
 70
0
 10
475.924824
 20
751.422692
 30
0.0
 10
471.124600
 20
743.713356
 30
0.0
  0
LWPOLYLINE
  5
241
100
AcDbEntity
  8
Layer_1
 62
5
100
AcDbPolyline
 90
2
 70
0
 10
355.341752
 20
543.816012
 30
0.0
 10
351.320488
 20
535.252404
 30
0.0
  0
LWPOLYLINE
  5
242
100
AcDbEntity
  8
Layer_1
 62
5
100
AcDbPolyline
 90
2
 70
0
 10
344.461280
 20
539.488004
 30
0.0
 10
348.897992
 20
546.916964
 30
0.0
  0
LWPOLYLINE
  5
243
100
AcDbEntity
  8
Layer_1
 62
5
100
AcDbPolyline
 90
2
 70
0
 10
307.945704
 20
700.079820
 30
0.0
 10
300.678712
 20
704.465636
 30
0.0
  0
LWPOLYLINE
  5
244
100
AcDbEntity
  8
Layer_1
 62
5
100
AcDbPolyline
 90
2
 70
0
 10
304.638872
 20
711.324844
 30
0.0
 10
312.131464
 20
707.285844
 30
0.0
  0
LWPOLYLINE
  5
245
100
AcDbEntity
  8
Layer_1
 62
5
100
AcDbPolyline
 90
2
 70
0
 10
512.320928
 20
591.450748
 30
0.0
 10
519.982856
 20
586.995940
 30
0.0
  0
SPLINE
  5
246
100
AcDbEntity
  8
Layer_1
 62
1
100
AcDbSpline
 70
0
 71
3
 72
19
 73
15
 74
13
 40
0.000000
 40
0.000000
 40
0.000000
 40
0.000000
 40
56.607399
 40
111.535839
 40
168.143238
 40
224.750637
 40
279.679076
 40
336.286475
 40
392.893874
 40
447.822314
 40
504.429713
 40
561.037112
 40
615.965552
 40
672.572951
 40
672.572951
 40
672.572951
 40
672.572951
 10
518.490336
 20
645.372836
 30
0.0
 10
515.514690
 20
626.287484
 30
0.0
 10
509.651654
 20
588.682847
 30
0.0
 10
466.549496
 20
547.283213
 30
0.0
 10
410.324599
 20
531.943405
 30
0.0
 10
353.509396
 20
547.283213
 30
0.0
 10
312.143138
 20
588.682847
 30
0.0
 10
296.791980
 20
645.372836
 30
0.0
 10
312.143138
 20
702.062825
 30
0.0
 10
353.509396
 20
743.462459
 30
0.0
 10
410.324599
 20
758.802266
 30
0.0
 10
466.549496
 20
743.462459
 30
0.0
 10
509.651654
 20
702.062825
 30
0.0
 10
515.514690
 20
664.458187
 30
0.0
 10
518.490336
 20
645.372836
 30
0.0
 11
518.490336
 21
645.372836
 31
0.0
 11
503.708976
 21
590.729364
 31
0.0
 11
464.868704
 21
551.889092
 31
0.0
 11
410.225232
 21
537.107732
 31
0.0
 11
355.581760
 21
551.889092
 31
0.0
 11
316.741488
 21
590.729364
 31
0.0
 11
301.960128
 21
645.372836
 31
0.0
 11
316.741488
 21
700.016308
 31
0.0
 11
355.581760
 21
738.856580
 31
0.0
 11
410.225232
 21
753.637940
 31
0.0
 11
464.868704
 21
738.856580
 31
0.0
 11
503.708976
 21
700.016308
 31
0.0
 11
518.490336
 21
645.372836
 31
0.0
  0
LWPOLYLINE
  5
247
100
AcDbEntity
  8
Layer_1
 62
5
100
AcDbPolyline
 90
2
 70
0
 10
516.022688
 20
580.136732
 30
0.0
 10
508.483984
 20
584.563012
 30
0.0
  0
SPLINE
  5
248
100
AcDbEntity
  8
Layer_1
 62
5
100
AcDbSpline
 70
0
 71
3
 72
10
 73
6
 74
4
 40
0.000000
 40
0.000000
 40
0.000000
 40
0.000000
 40
3.719021
 40
7.487258
 40
11.543882
 40
11.543882
 40
11.543882
 40
11.543882
 10
282.433039
 20
532.292661
 30
0.0
 10
282.385458
 20
531.025718
 30
0.0
 10
282.289669
 20
528.475065
 30
0.0
 10
284.788802
 20
525.120038
 30
0.0
 10
287.270041
 20
524.215063
 30
0.0
 10
288.556384
 20
523.745900
 30
0.0
 11
282.433039
 21
532.292661
 31
0.0
 11
282.713851
 21
528.584257
 31
0.0
 11
284.908938
 21
525.521383
 31
0.0
 11
288.556384
 21
523.745900
 31
0.0
  0
LWPOLYLINE
  5
249
100
AcDbEntity
  8
Layer_1
 62
5
100
AcDbPolyline
 90
3
 70
1
 10
288.556384
 20
523.745900
 30
0.0
 10
508.562038
 20
475.891600
 30
0.0
 10
507.456808
 20
470.810412
 30
0.0
  0
SPLINE
  5
24a
100
AcDbEntity
  8
Layer_1
 62
5
100
AcDbSpline
 70
0
 71
3
 72
13
 73
9
 74
7
 40
0.000000
 40
0.000000
 40
0.000000
 40
0.000000
 40
6.604088
 40
13.105419
 40
19.900087
 40
26.694755
 40
33.196086
 40
39.800174
 40
39.800174
 40
39.800174
 40
39.800174
 10
507.456808
 20
470.810412
 30
0.0
 10
509.710107
 20
470.692151
 30
0.0
 10
514.181644
 20
470.457469
 30
0.0
 10
519.972250
 20
474.531712
 30
0.0
 10
523.117283
 20
480.733601
 30
0.0
 10
522.832516
 20
487.681519
 30
0.0
 10
519.257433
 20
493.792930
 30
0.0
 10
515.092418
 20
495.436819
 30
0.0
 10
512.993582
 20
496.265208
 30
0.0
 11
507.456808
 21
470.810412
 31
0.0
 11
514.049597
 21
471.196567
 31
0.0
 11
519.459509
 21
474.802139
 31
0.0
 11
522.537304
 21
480.859754
 31
0.0
 11
522.253773
 21
487.648505
 31
0.0
 11
518.830313
 21
493.175458
 31
0.0
 11
512.993582
 21
496.265208
 31
0.0
  0
LWPOLYLINE
  5
24b
100
AcDbEntity
  8
Layer_1
 62
5
100
AcDbPolyline
 90
3
 70
1
 10
512.993582
 20
496.265208
 30
0.0
 10
511.564223
 20
489.693864
 30
0.0
 10
291.558569
 20
537.548164
 30
0.0
  0
SPLINE
  5
24c
100
AcDbEntity
  8
Layer_1
 62
5
100
AcDbSpline
 70
0
 71
3
 72
10
 73
6
 74
4
 40
0.000000
 40
0.000000
 40
0.000000
 40
0.000000
 40
4.058163
 40
7.834480
 40
11.559713
 40
11.559713
 40
11.559713
 40
11.559713
 10
291.558569
 20
537.548164
 30
0.0
 10
290.192628
 20
537.653886
 30
0.0
 10
287.555612
 20
537.857986
 30
0.0
 10
283.890485
 20
535.830195
 30
0.0
 10
282.916643
 20
533.466474
 30
0.0
 10
282.433039
 20
532.292661
 30
0.0
 11
291.558569
 21
537.548164
 31
0.0
 11
287.501800
 21
537.441822
 31
0.0
 11
284.230237
 21
535.555702
 31
0.0
 11
282.433039
 21
532.292661
 31
0.0
  0
LWPOLYLINE
  5
24d
100
AcDbEntity
  8
Layer_1
 62
5
100
AcDbPolyline
 90
2
 70
1
 10
282.433039
 20
532.292661
 30
0.0
 10
282.433039
 20
532.292661
 30
0.0
  0
LWPOLYLINE
  5
24e
100
AcDbEntity
  8
Layer_1
 62
7
100
AcDbPolyline
 90
2
 70
1
 10
291.593515
 20
532.730332
 30
0.0
 10
291.593515
 20
532.730332
 30
0.0
  0
LWPOLYLINE
  5
24f
100
AcDbEntity
  8
Layer_1
 62
3
100
AcDbPolyline
 90
2
 70
0
 10
322.491020
 20
518.513211
 30
0.0
 10
324.478155
 20
527.907777
 30
0.0
  0
LWPOLYLINE
  5
250
100
AcDbEntity
  8
Layer_1
 62
5
100
AcDbPolyline
 90
7
 70
0
 10
167.607668
 20
687.731852
 30
0.0
 10
150.275188
 20
687.693052
 30
0.0
 10
150.231348
 20
687.189476
 30
0.0
 10
148.115092
 20
687.424612
 30
0.0
 10
145.609036
 20
687.737868
 30
0.0
 10
143.102972
 20
688.051124
 30
0.0
 10
140.283660
 20
688.364380
 30
0.0
  0
LWPOLYLINE
  5
251
100
AcDbEntity
  8
Layer_1
 62
5
100
AcDbPolyline
 90
26
 70
0
 10
69.800620
 20
724.702316
 30
0.0
 10
67.921076
 20
726.268604
 30
0.0
 10
66.354756
 20
728.148148
 30
0.0
 10
64.788468
 20
730.027692
 30
0.0
 10
63.222188
 20
731.907268
 30
0.0
 10
61.655900
 20
733.786812
 30
0.0
 10
60.089612
 20
735.979612
 30
0.0
 10
58.523324
 20
737.859156
 30
0.0
 10
56.957036
 20
739.738700
 30
0.0
 10
55.704012
 20
741.931500
 30
0.0
 10
54.137724
 20
744.124300
 30
0.0
 10
52.884668
 20
746.003876
 30
0.0
 10
51.631636
 20
748.196676
 30
0.0
 10
50.378604
 20
750.389476
 30
0.0
 10
49.125572
 20
752.582276
 30
0.0
 10
47.872548
 20
754.775076
 30
0.0
 10
46.932772
 20
756.967884
 30
0.0
 10
45.679748
 20
759.473940
 30
0.0
 10
44.739972
 20
761.666772
 30
0.0
 10
43.800204
 20
763.859572
 30
0.0
 10
42.860428
 20
766.365628
 30
0.0
 10
41.920660
 20
768.558428
 30
0.0
 10
40.980884
 20
771.064492
 30
0.0
 10
40.041116
 20
773.570580
 30
0.0
 10
39.414596
 20
775.763380
 30
0.0
 10
38.788052
 20
778.269436
 30
0.0
  0
LWPOLYLINE
  5
252
100
AcDbEntity
  8
Layer_1
 62
5
100
AcDbPolyline
 90
10
 70
0
 10
158.765900
 20
695.256100
 30
0.0
 10
157.199612
 20
695.256100
 30
0.0
 10
155.320068
 20
695.256100
 30
0.0
 10
153.753788
 20
695.569356
 30
0.0
 10
151.874244
 20
695.569356
 30
0.0
 10
150.307924
 20
695.569356
 30
0.0
 10
148.428380
 20
695.882612
 30
0.0
 10
146.862092
 20
695.882612
 30
0.0
 10
144.982548
 20
696.195868
 30
0.0
 10
143.761572
 20
696.440060
 30
0.0
  0
LWPOLYLINE
  5
253
100
AcDbEntity
  8
Layer_1
 62
5
100
AcDbPolyline
 90
8
 70
0
 10
74.499508
 20
731.907292
 30
0.0
 10
73.246476
 20
733.160316
 30
0.0
 10
72.306708
 20
734.413348
 30
0.0
 10
71.366932
 20
735.666380
 30
0.0
 10
70.427164
 20
736.919404
 30
0.0
 10
69.174132
 20
738.172436
 30
0.0
 10
68.234364
 20
739.425468
 30
0.0
 10
67.294564
 20
740.678492
 30
0.0
  0
LWPOLYLINE
  5
254
100
AcDbEntity
  8
Layer_1
 62
5
100
AcDbPolyline
 90
2
 70
0
 10
250.237260
 20
739.425468
 30
0.0
 10
250.237260
 20
757.594420
 30
0.0
  0
LWPOLYLINE
  5
255
100
AcDbEntity
  8
Layer_1
 62
5
100
AcDbPolyline
 90
2
 70
0
 10
258.381948
 20
757.594420
 30
0.0
 10
250.237260
 20
757.594420
 30
0.0
  0
LWPOLYLINE
  5
256
100
AcDbEntity
  8
Layer_1
 62
5
100
AcDbPolyline
 90
2
 70
0
 10
258.381948
 20
751.955788
 30
0.0
 10
258.381948
 20
757.594420
 30
0.0
  0
LWPOLYLINE
  5
257
100
AcDbEntity
  8
Layer_1
 62
5
100
AcDbPolyline
 90
25
 70
0
 10
270.285756
 20
778.269460
 30
0.0
 10
269.972500
 20
777.016428
 30
0.0
 10
269.659244
 20
775.763404
 30
0.0
 10
269.032724
 20
774.510372
 30
0.0
 10
268.719468
 20
772.944060
 30
0.0
 10
268.092956
 20
771.377772
 30
0.0
 10
267.466436
 20
770.124740
 30
0.0
 10
266.839924
 20
768.245196
 30
0.0
 10
265.900156
 20
766.678908
 30
0.0
 10
265.586892
 20
766.052396
 30
0.0
 10
265.273636
 20
765.112620
 30
0.0
 10
264.960380
 20
764.172852
 30
0.0
 10
264.333868
 20
763.233076
 30
0.0
 10
264.020612
 20
762.606564
 30
0.0
 10
263.707324
 20
761.666796
 30
0.0
 10
263.080812
 20
760.727020
 30
0.0
 10
262.767548
 20
759.787252
 30
0.0
 10
262.141036
 20
758.847452
 30
0.0
 10
261.514524
 20
757.907676
 30
0.0
 10
261.201268
 20
756.967908
 30
0.0
 10
260.574748
 20
756.028132
 30
0.0
 10
259.948236
 20
755.088364
 30
0.0
 10
259.634980
 20
753.835332
 30
0.0
 10
259.008460
 20
752.895556
 30
0.0
 10
258.381948
 20
751.955788
 30
0.0
  0
LWPOLYLINE
  5
258
100
AcDbEntity
  8
Layer_1
 62
5
100
AcDbPolyline
 90
65
 70
0
 10
250.237260
 20
739.425468
 30
0.0
 10
249.297460
 20
738.485692
 30
0.0
 10
248.044428
 20
737.232668
 30
0.0
 10
247.104652
 20
735.979636
 30
0.0
 10
246.164884
 20
734.726604
 30
0.0
 10
245.225108
 20
733.786836
 30
0.0
 10
243.972084
 20
732.533804
 30
0.0
 10
243.032308
 20
731.594036
 30
0.0
 10
242.092540
 20
730.340972
 30
0.0
 10
240.839492
 20
729.401204
 30
0.0
 10
239.899724
 20
728.148172
 30
0.0
 10
238.646692
 20
727.208404
 30
0.0
 10
237.393668
 20
725.955372
 30
0.0
 10
236.453892
 20
725.015596
 30
0.0
 10
235.200836
 20
724.075828
 30
0.0
 10
233.947804
 20
722.822796
 30
0.0
 10
232.694772
 20
721.883028
 30
0.0
 10
231.441748
 20
720.943252
 30
0.0
 10
230.501972
 20
720.003484
 30
0.0
 10
229.248948
 20
719.063708
 30
0.0
 10
227.682660
 20
718.123940
 30
0.0
 10
226.429628
 20
717.184164
 30
0.0
 10
225.176596
 20
716.244364
 30
0.0
 10
223.923572
 20
715.304596
 30
0.0
 10
222.670540
 20
714.364820
 30
0.0
 10
221.417508
 20
713.425052
 30
0.0
 10
219.851196
 20
712.798532
 30
0.0
 10
218.598164
 20
711.858764
 30
0.0
 10
217.345140
 20
711.232252
 30
0.0
 10
215.778852
 20
710.292476
 30
0.0
 10
214.525820
 20
709.352708
 30
0.0
 10
212.959532
 20
708.726188
 30
0.0
 10
211.393252
 20
708.099676
 30
0.0
 10
210.140220
 20
707.159908
 30
0.0
 10
208.573932
 20
706.533388
 30
0.0
 10
207.007620
 20
705.906876
 30
0.0
 10
205.754588
 20
705.280356
 30
0.0
 10
204.188300
 20
704.653844
 30
0.0
 10
202.622012
 20
704.027332
 30
0.0
 10
201.055732
 20
703.400788
 30
0.0
 10
199.489444
 20
702.774300
 30
0.0
 10
197.923156
 20
702.147756
 30
0.0
 10
196.356868
 20
701.521244
 30
0.0
 10
194.790580
 20
701.207988
 30
0.0
 10
193.224268
 20
700.581468
 30
0.0
 10
191.657980
 20
699.954956
 30
0.0
 10
190.091692
 20
699.641700
 30
0.0
 10
188.212148
 20
699.328444
 30
0.0
 10
186.645860
 20
698.701924
 30
0.0
 10
185.079572
 20
698.388668
 30
0.0
 10
183.513292
 20
698.075412
 30
0.0
 10
181.633748
 20
697.762156
 30
0.0
 10
180.067460
 20
697.448900
 30
0.0
 10
178.187884
 20
697.135644
 30
0.0
 10
176.621596
 20
696.822380
 30
0.0
 10
174.742052
 20
696.509124
 30
0.0
 10
173.175772
 20
696.195868
 30
0.0
 10
171.296228
 20
695.882612
 30
0.0
 10
169.729940
 20
695.882612
 30
0.0
 10
167.850396
 20
695.569356
 30
0.0
 10
165.970852
 20
695.569356
 30
0.0
 10
164.091276
 20
695.256100
 30
0.0
 10
162.524988
 20
695.256100
 30
0.0
 10
160.645444
 20
695.256100
 30
0.0
 10
158.765900
 20
695.256100
 30
0.0
  0
LWPOLYLINE
  5
259
100
AcDbEntity
  8
Layer_1
 62
5
100
AcDbPolyline
 90
63
 70
0
 10
278.743732
 20
778.269460
 30
0.0
 10
278.117220
 20
775.763404
 30
0.0
 10
277.490676
 20
773.257316
 30
0.0
 10
276.550900
 20
771.064516
 30
0.0
 10
275.924388
 20
768.558452
 30
0.0
 10
274.984612
 20
766.052396
 30
0.0
 10
274.044844
 20
763.859596
 30
0.0
 10
272.791812
 20
761.666796
 30
0.0
 10
271.852044
 20
759.160708
 30
0.0
 10
270.912268
 20
756.967908
 30
0.0
 10
269.659244
 20
754.775100
 30
0.0
 10
268.406212
 20
752.582300
 30
0.0
 10
267.153180
 20
750.389500
 30
0.0
 10
265.900156
 20
748.196700
 30
0.0
 10
264.647124
 20
746.003900
 30
0.0
 10
263.394068
 20
743.811068
 30
0.0
 10
262.141036
 20
741.931524
 30
0.0
 10
260.574748
 20
739.738724
 30
0.0
 10
259.008460
 20
737.859180
 30
0.0
 10
257.755436
 20
735.666380
 30
0.0
 10
256.189148
 20
733.786836
 30
0.0
 10
254.622860
 20
731.907292
 30
0.0
 10
252.743316
 20
730.027716
 30
0.0
 10
251.177028
 20
728.148172
 30
0.0
 10
249.610716
 20
726.268628
 30
0.0
 10
247.731172
 20
724.389084
 30
0.0
 10
246.164884
 20
722.822796
 30
0.0
 10
244.285340
 20
720.943252
 30
0.0
 10
242.405796
 20
719.376964
 30
0.0
 10
240.526236
 20
717.810684
 30
0.0
 10
238.646692
 20
715.931108
 30
0.0
 10
236.767148
 20
714.364820
 30
0.0
 10
234.887580
 20
712.798532
 30
0.0
 10
232.694772
 20
711.545508
 30
0.0
 10
230.815228
 20
709.979220
 30
0.0
 10
228.622428
 20
708.412932
 30
0.0
 10
226.742884
 20
707.159908
 30
0.0
 10
224.550084
 20
705.906876
 30
0.0
 10
222.357284
 20
704.653844
 30
0.0
 10
220.164452
 20
703.400788
 30
0.0
 10
217.971652
 20
702.147756
 30
0.0
 10
215.778852
 20
700.894732
 30
0.0
 10
213.586052
 20
699.641700
 30
0.0
 10
211.393252
 20
698.701924
 30
0.0
 10
208.887188
 20
697.762156
 30
0.0
 10
206.694364
 20
696.509124
 30
0.0
 10
204.188300
 20
695.569356
 30
0.0
 10
201.995500
 20
694.629580
 30
0.0
 10
199.489444
 20
694.003068
 30
0.0
 10
197.296636
 20
693.063292
 30
0.0
 10
194.790580
 20
692.436780
 30
0.0
 10
192.284492
 20
691.497012
 30
0.0
 10
189.778436
 20
690.870492
 30
0.0
 10
187.272380
 20
690.243980
 30
0.0
 10
184.766316
 20
689.930724
 30
0.0
 10
182.260260
 20
689.304204
 30
0.0
 10
179.754204
 20
688.677668
 30
0.0
 10
177.248116
 20
688.364404
 30
0.0
 10
174.742052
 20
688.051148
 30
0.0
 10
171.922740
 20
687.737892
 30
0.0
 10
169.416684
 20
687.424636
 30
0.0
 10
167.641612
 20
687.202756
 30
0.0
 10
167.608652
 20
687.731852
 30
0.0
  0
LWPOLYLINE
  5
25a
100
AcDbEntity
  8
Layer_1
 62
5
100
AcDbPolyline
 90
2
 70
0
 10
270.285756
 20
778.269460
 30
0.0
 10
279.056988
 20
778.269460
 30
0.0
  0
LWPOLYLINE
  5
25b
100
AcDbEntity
  8
Layer_1
 62
5
100
AcDbPolyline
 90
2
 70
0
 10
59.149868
 20
752.269044
 30
0.0
 10
59.149868
 20
757.594420
 30
0.0
  0
LWPOLYLINE
  5
25c
100
AcDbEntity
  8
Layer_1
 62
5
100
AcDbPolyline
 90
2
 70
0
 10
38.788084
 20
778.269460
 30
0.0
 10
47.559324
 20
778.269460
 30
0.0
  0
LWPOLYLINE
  5
25d
100
AcDbEntity
  8
Layer_1
 62
5
100
AcDbPolyline
 90
27
 70
0
 10
59.149868
 20
752.269044
 30
0.0
 10
58.210100
 20
753.522076
 30
0.0
 10
57.583588
 20
754.775100
 30
0.0
 10
56.643812
 20
756.341388
 30
0.0
 10
56.330556
 20
756.967908
 30
0.0
 10
55.704044
 20
757.907676
 30
0.0
 10
55.390780
 20
758.534188
 30
0.0
 10
54.764268
 20
759.473964
 30
0.0
 10
54.451012
 20
760.413764
 30
0.0
 10
54.137756
 20
761.040276
 30
0.0
 10
53.511236
 20
761.980052
 30
0.0
 10
53.197980
 20
762.919820
 30
0.0
 10
52.884700
 20
763.859596
 30
0.0
 10
52.258180
 20
764.799364
 30
0.0
 10
51.944924
 20
765.739140
 30
0.0
 10
51.631668
 20
766.678908
 30
0.0
 10
51.005148
 20
767.618684
 30
0.0
 10
50.691892
 20
768.558452
 30
0.0
 10
50.378636
 20
769.498228
 30
0.0
 10
50.065380
 20
770.437996
 30
0.0
 10
49.752124
 20
771.377772
 30
0.0
 10
49.438868
 20
772.004284
 30
0.0
 10
49.125604
 20
772.944060
 30
0.0
 10
48.812348
 20
773.883860
 30
0.0
 10
48.185836
 20
775.450148
 30
0.0
 10
47.872580
 20
777.016428
 30
0.0
 10
47.559324
 20
778.269460
 30
0.0
  0
LWPOLYLINE
  5
25e
100
AcDbEntity
  8
Layer_1
 62
5
100
AcDbPolyline
 90
2
 70
0
 10
59.463132
 20
757.594420
 30
0.0
 10
67.294564
 20
757.594420
 30
0.0
  0
LWPOLYLINE
  5
25f
100
AcDbEntity
  8
Layer_1
 62
5
100
AcDbPolyline
 90
2
 70
0
 10
67.294564
 20
740.678492
 30
0.0
 10
67.294564
 20
757.594420
 30
0.0
  0
LWPOLYLINE
  5
260
100
AcDbEntity
  8
Layer_1
 62
5
100
AcDbPolyline
 90
2
 70
0
 10
70.016612
 20
724.675004
 30
0.0
 10
74.175212
 20
732.308092
 30
0.0
  0
SPLINE
  5
261
100
AcDbEntity
  8
Layer_1
 62
7
100
AcDbSpline
 70
0
 71
3
 72
19
 73
15
 74
13
 40
0.000000
 40
0.000000
 40
0.000000
 40
0.000000
 40
1.461130
 40
2.878922
 40
4.340050
 40
5.801179
 40
7.218970
 40
8.680100
 40
10.141229
 40
11.559021
 40
13.020149
 40
14.481278
 40
15.899071
 40
17.360199
 40
17.360199
 40
17.360199
 40
17.360199
 10
291.593515
 20
532.730332
 30
0.0
 10
292.058559
 20
532.550576
 30
0.0
 10
292.974853
 20
532.196397
 30
0.0
 10
293.782566
 20
530.882156
 30
0.0
 10
293.861007
 20
529.379904
 30
0.0
 10
293.162416
 20
528.031075
 30
0.0
 10
291.891300
 20
527.214863
 30
0.0
 10
290.377254
 20
527.138686
 30
0.0
 10
289.031645
 20
527.836879
 30
0.0
 10
288.214409
 20
529.107335
 30
0.0
 10
288.139204
 20
530.624476
 30
0.0
 10
288.834559
 20
531.958417
 30
0.0
 10
290.115198
 20
532.818411
 30
0.0
 10
291.095822
 20
532.759985
 30
0.0
 10
291.593515
 20
532.730332
 30
0.0
 11
291.593515
 21
532.730332
 31
0.0
 11
292.890634
 21
532.057738
 31
0.0
 11
293.657176
 21
530.865032
 31
0.0
 11
293.730209
 21
529.405730
 31
0.0
 11
293.057616
 21
528.108612
 31
0.0
 11
291.864911
 21
527.342070
 31
0.0
 11
290.405607
 21
527.269037
 31
0.0
 11
289.108489
 21
527.941630
 31
0.0
 11
288.341947
 21
529.134336
 31
0.0
 11
288.268913
 21
530.593638
 31
0.0
 11
288.941507
 21
531.890756
 31
0.0
 11
290.134213
 21
532.657298
 31
0.0
 11
291.593515
 21
532.730332
 31
0.0
  0
LWPOLYLINE
  5
262
100
AcDbEntity
  8
Layer_1
 62
5
100
AcDbPolyline
 90
2
 70
0
 10
140.373356
 20
688.201108
 30
0.0
 10
143.842060
 20
696.453276
 30
0.0
  0
ENDSEC
  0
SECTION
  2
OBJECTS
  0
DICTIONARY
  5
C
330
0
100
AcDbDictionary
  3
ACAD_GROUP
350
D
  3
ACAD_MLINESTYLE
350
17
  0
DICTIONARY
  5
D
330
C
100
AcDbDictionary
  0
DICTIONARY
  5
1A
330
C
100
AcDbDictionary
  0
DICTIONARY
  5
17
330
C
100
AcDbDictionary
  3
STANDARD
350
18
  0
DICTIONARY
  5
19
330
C
100
AcDbDictionary
  0
ENDSEC
  0
EOF
