  0
SECTION
  2
HEADER
  9
$EXTMIN
 10
0.249999
 20
0.499422
  9
$EXTMAX
 10
11.691922
 20
11.502322
  0
ENDSEC
  0
SECTION
  2
TABLES
  0
ENDSEC
  0
SECTION
  2
ENTITIES
  0
POLYLINE
  8
1
 66
1
 70
1
  0
VERTEX
  8
1
 10
1.099329
 20
2.251971
 42
-0.203606
  0
VERTEX
  8
1
 10
1.065070
 20
2.266162
 42
-0.429692
  0
VERTEX
  8
1
 10
1.065070
 20
2.334680
 42
-0.429692
  0
VERTEX
  8
1
 10
1.133588
 20
2.334680
 42
-0.429691
  0
VERTEX
  8
1
 10
1.133588
 20
2.266162
 42
-0.200593
  0
SEQEND
  0
POLYLINE
  8
1
 66
1
 70
1
  0
VERTEX
  8
1
 10
1.099325
 20
2.498036
 42
-0.117005
  0
VERTEX
  8
1
 10
1.428577
 20
2.419382
 42
-0.147151
  0
VERTEX
  8
1
 10
1.801606
 20
2.057259
 42
-0.130789
  0
VERTEX
  8
1
 10
1.946683
 20
1.499713
 42
-0.176806
  0
VERTEX
  8
1
 10
1.697983
 20
0.794327
 42
-0.101167
  0
VERTEX
  8
1
 10
1.428577
 20
0.580044
 42
-0.117005
  0
VERTEX
  8
1
 10
1.099325
 20
0.501391
 42
-0.117005
  0
VERTEX
  8
1
 10
0.770074
 20
0.580044
 42
-0.147151
  0
VERTEX
  8
1
 10
0.397045
 20
0.942168
 42
-0.130789
  0
VERTEX
  8
1
 10
0.251968
 20
1.499713
 42
-0.176806
  0
VERTEX
  8
1
 10
0.500667
 20
2.205100
 42
-0.101167
  0
VERTEX
  8
1
 10
0.770074
 20
2.419382
 42
-0.117005
  0
SEQEND
  0
POLYLINE
  8
1
 66
1
 70
1
  0
VERTEX
  8
1
 10
3.047981
 20
2.251969
 42
-0.203606
  0
VERTEX
  8
1
 10
3.013722
 20
2.266160
 42
-0.429692
  0
VERTEX
  8
1
 10
3.013722
 20
2.334678
 42
-0.429692
  0
VERTEX
  8
1
 10
3.082240
 20
2.334678
 42
-0.429691
  0
VERTEX
  8
1
 10
3.082240
 20
2.266160
 42
-0.200593
  0
SEQEND
  0
POLYLINE
  8
1
 66
1
 70
1
  0
VERTEX
  8
1
 10
3.047981
 20
2.498032
 42
-0.117004
  0
VERTEX
  8
1
 10
3.377232
 20
2.419378
 42
-0.147151
  0
VERTEX
  8
1
 10
3.750262
 20
2.057255
 42
-0.130790
  0
VERTEX
  8
1
 10
3.895339
 20
1.499711
 42
-0.176806
  0
VERTEX
  8
1
 10
3.646640
 20
0.794326
 42
-0.101167
  0
VERTEX
  8
1
 10
3.377232
 20
0.580044
 42
-0.117004
  0
VERTEX
  8
1
 10
3.047981
 20
0.501390
 42
-0.117004
  0
VERTEX
  8
1
 10
2.718729
 20
0.580044
 42
-0.147151
  0
VERTEX
  8
1
 10
2.345699
 20
0.942167
 42
-0.130790
  0
VERTEX
  8
1
 10
2.200622
 20
1.499711
 42
-0.176806
  0
VERTEX
  8
1
 10
2.449322
 20
2.205096
 42
-0.101167
  0
VERTEX
  8
1
 10
2.718729
 20
2.419378
 42
-0.117004
  0
SEQEND
  0
POLYLINE
  8
1
 66
1
 70
1
  0
VERTEX
  8
1
 10
4.996634
 20
2.251969
 42
-0.203606
  0
VERTEX
  8
1
 10
4.962375
 20
2.266160
 42
-0.429692
  0
VERTEX
  8
1
 10
4.962375
 20
2.334678
 42
-0.429692
  0
VERTEX
  8
1
 10
5.030893
 20
2.334678
 42
-0.429691
  0
VERTEX
  8
1
 10
5.030893
 20
2.266160
 42
-0.200593
  0
SEQEND
  0
POLYLINE
  8
1
 66
1
 70
1
  0
VERTEX
  8
1
 10
4.996634
 20
2.498032
 42
-0.117004
  0
VERTEX
  8
1
 10
5.325886
 20
2.419378
 42
-0.147151
  0
VERTEX
  8
1
 10
5.698916
 20
2.057255
 42
-0.130790
  0
VERTEX
  8
1
 10
5.843993
 20
1.499711
 42
-0.176806
  0
VERTEX
  8
1
 10
5.595293
 20
0.794326
 42
-0.101167
  0
VERTEX
  8
1
 10
5.325886
 20
0.580044
 42
-0.117004
  0
VERTEX
  8
1
 10
4.996634
 20
0.501390
 42
-0.117004
  0
VERTEX
  8
1
 10
4.667382
 20
0.580044
 42
-0.147151
  0
VERTEX
  8
1
 10
4.294353
 20
0.942167
 42
-0.130790
  0
VERTEX
  8
1
 10
4.149276
 20
1.499711
 42
-0.176806
  0
VERTEX
  8
1
 10
4.397975
 20
2.205096
 42
-0.101167
  0
VERTEX
  8
1
 10
4.667382
 20
2.419378
 42
-0.117004
  0
SEQEND
  0
POLYLINE
  8
1
 66
1
 70
1
  0
VERTEX
  8
1
 10
6.945272
 20
2.251969
 42
-0.203606
  0
VERTEX
  8
1
 10
6.911013
 20
2.266160
 42
-0.429692
  0
VERTEX
  8
1
 10
6.911013
 20
2.334678
 42
-0.429692
  0
VERTEX
  8
1
 10
6.979531
 20
2.334678
 42
-0.429691
  0
VERTEX
  8
1
 10
6.979531
 20
2.266160
 42
-0.200593
  0
SEQEND
  0
POLYLINE
  8
1
 66
1
 70
1
  0
VERTEX
  8
1
 10
6.945272
 20
2.498032
 42
-0.117004
  0
VERTEX
  8
1
 10
7.274524
 20
2.419378
 42
-0.147151
  0
VERTEX
  8
1
 10
7.647554
 20
2.057255
 42
-0.130790
  0
VERTEX
  8
1
 10
7.792631
 20
1.499711
 42
-0.176806
  0
VERTEX
  8
1
 10
7.543931
 20
0.794326
 42
-0.101167
  0
VERTEX
  8
1
 10
7.274524
 20
0.580044
 42
-0.117004
  0
VERTEX
  8
1
 10
6.945272
 20
0.501390
 42
-0.117004
  0
VERTEX
  8
1
 10
6.616020
 20
0.580044
 42
-0.147151
  0
VERTEX
  8
1
 10
6.242990
 20
0.942167
 42
-0.130790
  0
VERTEX
  8
1
 10
6.097913
 20
1.499711
 42
-0.176806
  0
VERTEX
  8
1
 10
6.346613
 20
2.205096
 42
-0.101167
  0
VERTEX
  8
1
 10
6.616020
 20
2.419378
 42
-0.117004
  0
SEQEND
  0
POLYLINE
  8
1
 66
1
 70
1
  0
VERTEX
  8
1
 10
8.893933
 20
2.251969
 42
-0.203606
  0
VERTEX
  8
1
 10
8.859674
 20
2.266160
 42
-0.429692
  0
VERTEX
  8
1
 10
8.859674
 20
2.334678
 42
-0.429692
  0
VERTEX
  8
1
 10
8.928192
 20
2.334678
 42
-0.429691
  0
VERTEX
  8
1
 10
8.928192
 20
2.266160
 42
-0.200593
  0
SEQEND
  0
POLYLINE
  8
1
 66
1
 70
1
  0
VERTEX
  8
1
 10
8.893933
 20
2.498032
 42
-0.117004
  0
VERTEX
  8
1
 10
9.223185
 20
2.419378
 42
-0.147151
  0
VERTEX
  8
1
 10
9.596215
 20
2.057255
 42
-0.130790
  0
VERTEX
  8
1
 10
9.741292
 20
1.499711
 42
-0.176806
  0
VERTEX
  8
1
 10
9.492592
 20
0.794326
 42
-0.101167
  0
VERTEX
  8
1
 10
9.223185
 20
0.580044
 42
-0.117004
  0
VERTEX
  8
1
 10
8.893933
 20
0.501390
 42
-0.117004
  0
VERTEX
  8
1
 10
8.564682
 20
0.580044
 42
-0.147151
  0
VERTEX
  8
1
 10
8.191652
 20
0.942167
 42
-0.130790
  0
VERTEX
  8
1
 10
8.046575
 20
1.499711
 42
-0.176806
  0
VERTEX
  8
1
 10
8.295275
 20
2.205096
 42
-0.101167
  0
VERTEX
  8
1
 10
8.564682
 20
2.419378
 42
-0.117004
  0
SEQEND
  0
POLYLINE
  8
1
 66
1
 70
1
  0
VERTEX
  8
1
 10
10.842595
 20
2.251969
 42
-0.203606
  0
VERTEX
  8
1
 10
10.808336
 20
2.266160
 42
-0.429692
  0
VERTEX
  8
1
 10
10.808336
 20
2.334678
 42
-0.429692
  0
VERTEX
  8
1
 10
10.876854
 20
2.334678
 42
-0.429691
  0
VERTEX
  8
1
 10
10.876854
 20
2.266160
 42
-0.200593
  0
SEQEND
  0
POLYLINE
  8
1
 66
1
 70
1
  0
VERTEX
  8
1
 10
10.842595
 20
2.498032
 42
-0.117004
  0
VERTEX
  8
1
 10
11.171847
 20
2.419378
 42
-0.147151
  0
VERTEX
  8
1
 10
11.544876
 20
2.057255
 42
-0.130790
  0
VERTEX
  8
1
 10
11.689953
 20
1.499711
 42
-0.176806
  0
VERTEX
  8
1
 10
11.441254
 20
0.794326
 42
-0.101167
  0
VERTEX
  8
1
 10
11.171847
 20
0.580044
 42
-0.117004
  0
VERTEX
  8
1
 10
10.842595
 20
0.501390
 42
-0.117004
  0
VERTEX
  8
1
 10
10.513343
 20
0.580044
 42
-0.147151
  0
VERTEX
  8
1
 10
10.140313
 20
0.942167
 42
-0.130790
  0
VERTEX
  8
1
 10
9.995236
 20
1.499711
 42
-0.176806
  0
VERTEX
  8
1
 10
10.243936
 20
2.205096
 42
-0.101167
  0
VERTEX
  8
1
 10
10.513343
 20
2.419378
 42
-0.117004
  0
SEQEND
  0
POLYLINE
  8
1
 66
1
 70
1
  0
VERTEX
  8
1
 10
1.099327
 20
4.502548
 42
-0.203606
  0
VERTEX
  8
1
 10
1.065068
 20
4.516739
 42
-0.429692
  0
VERTEX
  8
1
 10
1.065068
 20
4.585257
 42
-0.429692
  0
VERTEX
  8
1
 10
1.133586
 20
4.585257
 42
-0.429691
  0
VERTEX
  8
1
 10
1.133586
 20
4.516739
 42
-0.200593
  0
SEQEND
  0
POLYLINE
  8
1
 66
1
 70
1
  0
VERTEX
  8
1
 10
1.099327
 20
4.748610
 42
-0.117004
  0
VERTEX
  8
1
 10
1.428579
 20
4.669957
 42
-0.147151
  0
VERTEX
  8
1
 10
1.801609
 20
4.307834
 42
-0.130790
  0
VERTEX
  8
1
 10
1.946686
 20
3.750290
 42
-0.176806
  0
VERTEX
  8
1
 10
1.697986
 20
3.044905
 42
-0.101167
  0
VERTEX
  8
1
 10
1.428579
 20
2.830622
 42
-0.117004
  0
VERTEX
  8
1
 10
1.099327
 20
2.751969
 42
-0.117004
  0
VERTEX
  8
1
 10
0.770075
 20
2.830622
 42
-0.147151
  0
VERTEX
  8
1
 10
0.397046
 20
3.192745
 42
-0.130790
  0
VERTEX
  8
1
 10
0.251969
 20
3.750290
 42
-0.176806
  0
VERTEX
  8
1
 10
0.500668
 20
4.455675
 42
-0.101167
  0
VERTEX
  8
1
 10
0.770075
 20
4.669957
 42
-0.117004
  0
SEQEND
  0
POLYLINE
  8
1
 66
1
 70
1
  0
VERTEX
  8
1
 10
3.047981
 20
4.502548
 42
-0.203606
  0
VERTEX
  8
1
 10
3.013722
 20
4.516739
 42
-0.429692
  0
VERTEX
  8
1
 10
3.013722
 20
4.585257
 42
-0.429692
  0
VERTEX
  8
1
 10
3.082240
 20
4.585257
 42
-0.429691
  0
VERTEX
  8
1
 10
3.082240
 20
4.516739
 42
-0.200593
  0
SEQEND
  0
POLYLINE
  8
1
 66
1
 70
1
  0
VERTEX
  8
1
 10
3.047981
 20
4.748610
 42
-0.117004
  0
VERTEX
  8
1
 10
3.377232
 20
4.669957
 42
-0.147151
  0
VERTEX
  8
1
 10
3.750262
 20
4.307834
 42
-0.130790
  0
VERTEX
  8
1
 10
3.895339
 20
3.750290
 42
-0.176806
  0
VERTEX
  8
1
 10
3.646640
 20
3.044905
 42
-0.101167
  0
VERTEX
  8
1
 10
3.377232
 20
2.830622
 42
-0.117004
  0
VERTEX
  8
1
 10
3.047981
 20
2.751969
 42
-0.117004
  0
VERTEX
  8
1
 10
2.718729
 20
2.830622
 42
-0.147151
  0
VERTEX
  8
1
 10
2.345699
 20
3.192745
 42
-0.130790
  0
VERTEX
  8
1
 10
2.200622
 20
3.750290
 42
-0.176806
  0
VERTEX
  8
1
 10
2.449322
 20
4.455675
 42
-0.101167
  0
VERTEX
  8
1
 10
2.718729
 20
4.669957
 42
-0.117004
  0
SEQEND
  0
POLYLINE
  8
1
 66
1
 70
1
  0
VERTEX
  8
1
 10
4.996634
 20
4.502548
 42
-0.203606
  0
VERTEX
  8
1
 10
4.962375
 20
4.516739
 42
-0.429692
  0
VERTEX
  8
1
 10
4.962375
 20
4.585257
 42
-0.429692
  0
VERTEX
  8
1
 10
5.030893
 20
4.585257
 42
-0.429691
  0
VERTEX
  8
1
 10
5.030893
 20
4.516739
 42
-0.200593
  0
SEQEND
  0
POLYLINE
  8
1
 66
1
 70
1
  0
VERTEX
  8
1
 10
4.996634
 20
4.748610
 42
-0.117004
  0
VERTEX
  8
1
 10
5.325886
 20
4.669957
 42
-0.147151
  0
VERTEX
  8
1
 10
5.698916
 20
4.307834
 42
-0.130790
  0
VERTEX
  8
1
 10
5.843993
 20
3.750290
 42
-0.176806
  0
VERTEX
  8
1
 10
5.595293
 20
3.044905
 42
-0.101167
  0
VERTEX
  8
1
 10
5.325886
 20
2.830622
 42
-0.117004
  0
VERTEX
  8
1
 10
4.996634
 20
2.751969
 42
-0.117004
  0
VERTEX
  8
1
 10
4.667382
 20
2.830622
 42
-0.147151
  0
VERTEX
  8
1
 10
4.294353
 20
3.192745
 42
-0.130790
  0
VERTEX
  8
1
 10
4.149276
 20
3.750290
 42
-0.176806
  0
VERTEX
  8
1
 10
4.397975
 20
4.455675
 42
-0.101167
  0
VERTEX
  8
1
 10
4.667382
 20
4.669957
 42
-0.117004
  0
SEQEND
  0
POLYLINE
  8
1
 66
1
 70
1
  0
VERTEX
  8
1
 10
6.945272
 20
4.502548
 42
-0.203606
  0
VERTEX
  8
1
 10
6.911013
 20
4.516739
 42
-0.429692
  0
VERTEX
  8
1
 10
6.911013
 20
4.585257
 42
-0.429692
  0
VERTEX
  8
1
 10
6.979531
 20
4.585257
 42
-0.429691
  0
VERTEX
  8
1
 10
6.979531
 20
4.516739
 42
-0.200593
  0
SEQEND
  0
POLYLINE
  8
1
 66
1
 70
1
  0
VERTEX
  8
1
 10
6.945272
 20
4.748610
 42
-0.117004
  0
VERTEX
  8
1
 10
7.274524
 20
4.669957
 42
-0.147151
  0
VERTEX
  8
1
 10
7.647554
 20
4.307834
 42
-0.130790
  0
VERTEX
  8
1
 10
7.792631
 20
3.750290
 42
-0.176806
  0
VERTEX
  8
1
 10
7.543931
 20
3.044905
 42
-0.101167
  0
VERTEX
  8
1
 10
7.274524
 20
2.830622
 42
-0.117004
  0
VERTEX
  8
1
 10
6.945272
 20
2.751969
 42
-0.117004
  0
VERTEX
  8
1
 10
6.616020
 20
2.830622
 42
-0.147151
  0
VERTEX
  8
1
 10
6.242990
 20
3.192745
 42
-0.130790
  0
VERTEX
  8
1
 10
6.097913
 20
3.750290
 42
-0.176806
  0
VERTEX
  8
1
 10
6.346613
 20
4.455675
 42
-0.101167
  0
VERTEX
  8
1
 10
6.616020
 20
4.669957
 42
-0.117004
  0
SEQEND
  0
POLYLINE
  8
1
 66
1
 70
1
  0
VERTEX
  8
1
 10
8.893933
 20
4.502548
 42
-0.203606
  0
VERTEX
  8
1
 10
8.859674
 20
4.516739
 42
-0.429692
  0
VERTEX
  8
1
 10
8.859674
 20
4.585257
 42
-0.429692
  0
VERTEX
  8
1
 10
8.928192
 20
4.585257
 42
-0.429691
  0
VERTEX
  8
1
 10
8.928192
 20
4.516739
 42
-0.200593
  0
SEQEND
  0
POLYLINE
  8
1
 66
1
 70
1
  0
VERTEX
  8
1
 10
8.893933
 20
4.748610
 42
-0.117004
  0
VERTEX
  8
1
 10
9.223185
 20
4.669957
 42
-0.147151
  0
VERTEX
  8
1
 10
9.596215
 20
4.307834
 42
-0.130790
  0
VERTEX
  8
1
 10
9.741292
 20
3.750290
 42
-0.176806
  0
VERTEX
  8
1
 10
9.492592
 20
3.044905
 42
-0.101167
  0
VERTEX
  8
1
 10
9.223185
 20
2.830622
 42
-0.117004
  0
VERTEX
  8
1
 10
8.893933
 20
2.751969
 42
-0.117004
  0
VERTEX
  8
1
 10
8.564682
 20
2.830622
 42
-0.147151
  0
VERTEX
  8
1
 10
8.191652
 20
3.192745
 42
-0.130790
  0
VERTEX
  8
1
 10
8.046575
 20
3.750290
 42
-0.176806
  0
VERTEX
  8
1
 10
8.295275
 20
4.455675
 42
-0.101167
  0
VERTEX
  8
1
 10
8.564682
 20
4.669957
 42
-0.117004
  0
SEQEND
  0
POLYLINE
  8
1
 66
1
 70
1
  0
VERTEX
  8
1
 10
10.842595
 20
4.502548
 42
-0.203606
  0
VERTEX
  8
1
 10
10.808336
 20
4.516739
 42
-0.429692
  0
VERTEX
  8
1
 10
10.808336
 20
4.585257
 42
-0.429692
  0
VERTEX
  8
1
 10
10.876854
 20
4.585257
 42
-0.429691
  0
VERTEX
  8
1
 10
10.876854
 20
4.516739
 42
-0.200593
  0
SEQEND
  0
POLYLINE
  8
1
 66
1
 70
1
  0
VERTEX
  8
1
 10
10.842595
 20
4.748610
 42
-0.117004
  0
VERTEX
  8
1
 10
11.171847
 20
4.669957
 42
-0.147151
  0
VERTEX
  8
1
 10
11.544876
 20
4.307834
 42
-0.130790
  0
VERTEX
  8
1
 10
11.689953
 20
3.750290
 42
-0.176806
  0
VERTEX
  8
1
 10
11.441254
 20
3.044905
 42
-0.101167
  0
VERTEX
  8
1
 10
11.171847
 20
2.830622
 42
-0.117004
  0
VERTEX
  8
1
 10
10.842595
 20
2.751969
 42
-0.117004
  0
VERTEX
  8
1
 10
10.513343
 20
2.830622
 42
-0.147151
  0
VERTEX
  8
1
 10
10.140313
 20
3.192745
 42
-0.130790
  0
VERTEX
  8
1
 10
9.995236
 20
3.750290
 42
-0.176806
  0
VERTEX
  8
1
 10
10.243936
 20
4.455675
 42
-0.101167
  0
VERTEX
  8
1
 10
10.513343
 20
4.669957
 42
-0.117004
  0
SEQEND
  0
POLYLINE
  8
1
 66
1
 70
1
  0
VERTEX
  8
1
 10
1.099327
 20
6.753111
 42
-0.203606
  0
VERTEX
  8
1
 10
1.065068
 20
6.767302
 42
-0.429692
  0
VERTEX
  8
1
 10
1.065068
 20
6.835820
 42
-0.429692
  0
VERTEX
  8
1
 10
1.133586
 20
6.835820
 42
-0.429691
  0
VERTEX
  8
1
 10
1.133586
 20
6.767302
 42
-0.200593
  0
SEQEND
  0
POLYLINE
  8
1
 66
1
 70
1
  0
VERTEX
  8
1
 10
1.099327
 20
6.999173
 42
-0.117004
  0
VERTEX
  8
1
 10
1.428579
 20
6.920520
 42
-0.147151
  0
VERTEX
  8
1
 10
1.801609
 20
6.558397
 42
-0.130790
  0
VERTEX
  8
1
 10
1.946686
 20
6.000853
 42
-0.176806
  0
VERTEX
  8
1
 10
1.697986
 20
5.295468
 42
-0.101167
  0
VERTEX
  8
1
 10
1.428579
 20
5.081185
 42
-0.117004
  0
VERTEX
  8
1
 10
1.099327
 20
5.002532
 42
-0.117004
  0
VERTEX
  8
1
 10
0.770075
 20
5.081185
 42
-0.147151
  0
VERTEX
  8
1
 10
0.397046
 20
5.443308
 42
-0.130790
  0
VERTEX
  8
1
 10
0.251969
 20
6.000853
 42
-0.176806
  0
VERTEX
  8
1
 10
0.500668
 20
6.706238
 42
-0.101167
  0
VERTEX
  8
1
 10
0.770075
 20
6.920520
 42
-0.117004
  0
SEQEND
  0
POLYLINE
  8
1
 66
1
 70
1
  0
VERTEX
  8
1
 10
3.047981
 20
6.753111
 42
-0.203606
  0
VERTEX
  8
1
 10
3.013722
 20
6.767302
 42
-0.429692
  0
VERTEX
  8
1
 10
3.013722
 20
6.835820
 42
-0.429692
  0
VERTEX
  8
1
 10
3.082240
 20
6.835820
 42
-0.429691
  0
VERTEX
  8
1
 10
3.082240
 20
6.767302
 42
-0.200593
  0
SEQEND
  0
POLYLINE
  8
1
 66
1
 70
1
  0
VERTEX
  8
1
 10
3.047981
 20
6.999173
 42
-0.117004
  0
VERTEX
  8
1
 10
3.377232
 20
6.920520
 42
-0.147151
  0
VERTEX
  8
1
 10
3.750262
 20
6.558397
 42
-0.130790
  0
VERTEX
  8
1
 10
3.895339
 20
6.000853
 42
-0.176806
  0
VERTEX
  8
1
 10
3.646640
 20
5.295468
 42
-0.101167
  0
VERTEX
  8
1
 10
3.377232
 20
5.081185
 42
-0.117004
  0
VERTEX
  8
1
 10
3.047981
 20
5.002532
 42
-0.117004
  0
VERTEX
  8
1
 10
2.718729
 20
5.081185
 42
-0.147151
  0
VERTEX
  8
1
 10
2.345699
 20
5.443308
 42
-0.130790
  0
VERTEX
  8
1
 10
2.200622
 20
6.000853
 42
-0.176806
  0
VERTEX
  8
1
 10
2.449322
 20
6.706238
 42
-0.101167
  0
VERTEX
  8
1
 10
2.718729
 20
6.920520
 42
-0.117004
  0
SEQEND
  0
POLYLINE
  8
1
 66
1
 70
1
  0
VERTEX
  8
1
 10
4.996634
 20
6.753111
 42
-0.203606
  0
VERTEX
  8
1
 10
4.962375
 20
6.767302
 42
-0.429692
  0
VERTEX
  8
1
 10
4.962375
 20
6.835820
 42
-0.429692
  0
VERTEX
  8
1
 10
5.030893
 20
6.835820
 42
-0.429691
  0
VERTEX
  8
1
 10
5.030893
 20
6.767302
 42
-0.200593
  0
SEQEND
  0
POLYLINE
  8
1
 66
1
 70
1
  0
VERTEX
  8
1
 10
4.996634
 20
6.999173
 42
-0.117004
  0
VERTEX
  8
1
 10
5.325886
 20
6.920520
 42
-0.147151
  0
VERTEX
  8
1
 10
5.698916
 20
6.558397
 42
-0.130790
  0
VERTEX
  8
1
 10
5.843993
 20
6.000853
 42
-0.176806
  0
VERTEX
  8
1
 10
5.595293
 20
5.295468
 42
-0.101167
  0
VERTEX
  8
1
 10
5.325886
 20
5.081185
 42
-0.117004
  0
VERTEX
  8
1
 10
4.996634
 20
5.002532
 42
-0.117004
  0
VERTEX
  8
1
 10
4.667382
 20
5.081185
 42
-0.147151
  0
VERTEX
  8
1
 10
4.294353
 20
5.443308
 42
-0.130790
  0
VERTEX
  8
1
 10
4.149276
 20
6.000853
 42
-0.176806
  0
VERTEX
  8
1
 10
4.397975
 20
6.706238
 42
-0.101167
  0
VERTEX
  8
1
 10
4.667382
 20
6.920520
 42
-0.117004
  0
SEQEND
  0
POLYLINE
  8
1
 66
1
 70
1
  0
VERTEX
  8
1
 10
6.945272
 20
6.753111
 42
-0.203606
  0
VERTEX
  8
1
 10
6.911013
 20
6.767302
 42
-0.429692
  0
VERTEX
  8
1
 10
6.911013
 20
6.835820
 42
-0.429692
  0
VERTEX
  8
1
 10
6.979531
 20
6.835820
 42
-0.429691
  0
VERTEX
  8
1
 10
6.979531
 20
6.767302
 42
-0.200593
  0
SEQEND
  0
POLYLINE
  8
1
 66
1
 70
1
  0
VERTEX
  8
1
 10
6.945272
 20
6.999173
 42
-0.117004
  0
VERTEX
  8
1
 10
7.274524
 20
6.920520
 42
-0.147151
  0
VERTEX
  8
1
 10
7.647554
 20
6.558397
 42
-0.130790
  0
VERTEX
  8
1
 10
7.792631
 20
6.000853
 42
-0.176806
  0
VERTEX
  8
1
 10
7.543931
 20
5.295468
 42
-0.101167
  0
VERTEX
  8
1
 10
7.274524
 20
5.081185
 42
-0.117004
  0
VERTEX
  8
1
 10
6.945272
 20
5.002532
 42
-0.117004
  0
VERTEX
  8
1
 10
6.616020
 20
5.081185
 42
-0.147151
  0
VERTEX
  8
1
 10
6.242990
 20
5.443308
 42
-0.130790
  0
VERTEX
  8
1
 10
6.097913
 20
6.000853
 42
-0.176806
  0
VERTEX
  8
1
 10
6.346613
 20
6.706238
 42
-0.101167
  0
VERTEX
  8
1
 10
6.616020
 20
6.920520
 42
-0.117004
  0
SEQEND
  0
POLYLINE
  8
1
 66
1
 70
1
  0
VERTEX
  8
1
 10
8.893933
 20
6.753111
 42
-0.203606
  0
VERTEX
  8
1
 10
8.859674
 20
6.767302
 42
-0.429692
  0
VERTEX
  8
1
 10
8.859674
 20
6.835820
 42
-0.429692
  0
VERTEX
  8
1
 10
8.928192
 20
6.835820
 42
-0.429691
  0
VERTEX
  8
1
 10
8.928192
 20
6.767302
 42
-0.200593
  0
SEQEND
  0
POLYLINE
  8
1
 66
1
 70
1
  0
VERTEX
  8
1
 10
8.893933
 20
6.999173
 42
-0.117004
  0
VERTEX
  8
1
 10
9.223185
 20
6.920520
 42
-0.147151
  0
VERTEX
  8
1
 10
9.596215
 20
6.558397
 42
-0.130790
  0
VERTEX
  8
1
 10
9.741292
 20
6.000853
 42
-0.176806
  0
VERTEX
  8
1
 10
9.492592
 20
5.295468
 42
-0.101167
  0
VERTEX
  8
1
 10
9.223185
 20
5.081185
 42
-0.117004
  0
VERTEX
  8
1
 10
8.893933
 20
5.002532
 42
-0.117004
  0
VERTEX
  8
1
 10
8.564682
 20
5.081185
 42
-0.147151
  0
VERTEX
  8
1
 10
8.191652
 20
5.443308
 42
-0.130790
  0
VERTEX
  8
1
 10
8.046575
 20
6.000853
 42
-0.176806
  0
VERTEX
  8
1
 10
8.295275
 20
6.706238
 42
-0.101167
  0
VERTEX
  8
1
 10
8.564682
 20
6.920520
 42
-0.117004
  0
SEQEND
  0
POLYLINE
  8
1
 66
1
 70
1
  0
VERTEX
  8
1
 10
10.842595
 20
6.753111
 42
-0.203606
  0
VERTEX
  8
1
 10
10.808336
 20
6.767302
 42
-0.429692
  0
VERTEX
  8
1
 10
10.808336
 20
6.835820
 42
-0.429692
  0
VERTEX
  8
1
 10
10.876854
 20
6.835820
 42
-0.429691
  0
VERTEX
  8
1
 10
10.876854
 20
6.767302
 42
-0.200593
  0
SEQEND
  0
POLYLINE
  8
1
 66
1
 70
1
  0
VERTEX
  8
1
 10
10.842595
 20
6.999173
 42
-0.117004
  0
VERTEX
  8
1
 10
11.171847
 20
6.920520
 42
-0.147151
  0
VERTEX
  8
1
 10
11.544876
 20
6.558397
 42
-0.130790
  0
VERTEX
  8
1
 10
11.689953
 20
6.000853
 42
-0.176806
  0
VERTEX
  8
1
 10
11.441254
 20
5.295468
 42
-0.101167
  0
VERTEX
  8
1
 10
11.171847
 20
5.081185
 42
-0.117004
  0
VERTEX
  8
1
 10
10.842595
 20
5.002532
 42
-0.117004
  0
VERTEX
  8
1
 10
10.513343
 20
5.081185
 42
-0.147151
  0
VERTEX
  8
1
 10
10.140313
 20
5.443308
 42
-0.130790
  0
VERTEX
  8
1
 10
9.995236
 20
6.000853
 42
-0.176806
  0
VERTEX
  8
1
 10
10.243936
 20
6.706238
 42
-0.101167
  0
VERTEX
  8
1
 10
10.513343
 20
6.920520
 42
-0.117004
  0
SEQEND
  0
POLYLINE
  8
1
 66
1
 70
1
  0
VERTEX
  8
1
 10
1.099327
 20
9.003701
 42
-0.203606
  0
VERTEX
  8
1
 10
1.065068
 20
9.017892
 42
-0.429692
  0
VERTEX
  8
1
 10
1.065068
 20
9.086410
 42
-0.429692
  0
VERTEX
  8
1
 10
1.133586
 20
9.086410
 42
-0.429691
  0
VERTEX
  8
1
 10
1.133586
 20
9.017892
 42
-0.200593
  0
SEQEND
  0
POLYLINE
  8
1
 66
1
 70
1
  0
VERTEX
  8
1
 10
1.099327
 20
9.249764
 42
-0.117004
  0
VERTEX
  8
1
 10
1.428579
 20
9.171111
 42
-0.147151
  0
VERTEX
  8
1
 10
1.801609
 20
8.808988
 42
-0.130790
  0
VERTEX
  8
1
 10
1.946686
 20
8.251443
 42
-0.176806
  0
VERTEX
  8
1
 10
1.697986
 20
7.546058
 42
-0.101167
  0
VERTEX
  8
1
 10
1.428579
 20
7.331776
 42
-0.117004
  0
VERTEX
  8
1
 10
1.099327
 20
7.253123
 42
-0.117004
  0
VERTEX
  8
1
 10
0.770075
 20
7.331776
 42
-0.147151
  0
VERTEX
  8
1
 10
0.397046
 20
7.693899
 42
-0.130790
  0
VERTEX
  8
1
 10
0.251969
 20
8.251443
 42
-0.176806
  0
VERTEX
  8
1
 10
0.500668
 20
8.956828
 42
-0.101167
  0
VERTEX
  8
1
 10
0.770075
 20
9.171111
 42
-0.117004
  0
SEQEND
  0
POLYLINE
  8
1
 66
1
 70
1
  0
VERTEX
  8
1
 10
3.047981
 20
9.003701
 42
-0.203606
  0
VERTEX
  8
1
 10
3.013722
 20
9.017892
 42
-0.429692
  0
VERTEX
  8
1
 10
3.013722
 20
9.086410
 42
-0.429692
  0
VERTEX
  8
1
 10
3.082240
 20
9.086410
 42
-0.429691
  0
VERTEX
  8
1
 10
3.082240
 20
9.017892
 42
-0.200593
  0
SEQEND
  0
POLYLINE
  8
1
 66
1
 70
1
  0
VERTEX
  8
1
 10
3.047981
 20
9.249764
 42
-0.117004
  0
VERTEX
  8
1
 10
3.377232
 20
9.171111
 42
-0.147151
  0
VERTEX
  8
1
 10
3.750262
 20
8.808988
 42
-0.130790
  0
VERTEX
  8
1
 10
3.895339
 20
8.251443
 42
-0.176806
  0
VERTEX
  8
1
 10
3.646640
 20
7.546058
 42
-0.101167
  0
VERTEX
  8
1
 10
3.377232
 20
7.331776
 42
-0.117004
  0
VERTEX
  8
1
 10
3.047981
 20
7.253123
 42
-0.117004
  0
VERTEX
  8
1
 10
2.718729
 20
7.331776
 42
-0.147151
  0
VERTEX
  8
1
 10
2.345699
 20
7.693899
 42
-0.130790
  0
VERTEX
  8
1
 10
2.200622
 20
8.251443
 42
-0.176806
  0
VERTEX
  8
1
 10
2.449322
 20
8.956828
 42
-0.101167
  0
VERTEX
  8
1
 10
2.718729
 20
9.171111
 42
-0.117004
  0
SEQEND
  0
POLYLINE
  8
1
 66
1
 70
1
  0
VERTEX
  8
1
 10
4.996634
 20
9.003701
 42
-0.203606
  0
VERTEX
  8
1
 10
4.962375
 20
9.017892
 42
-0.429692
  0
VERTEX
  8
1
 10
4.962375
 20
9.086410
 42
-0.429692
  0
VERTEX
  8
1
 10
5.030893
 20
9.086410
 42
-0.429691
  0
VERTEX
  8
1
 10
5.030893
 20
9.017892
 42
-0.200593
  0
SEQEND
  0
POLYLINE
  8
1
 66
1
 70
1
  0
VERTEX
  8
1
 10
4.996634
 20
9.249764
 42
-0.117004
  0
VERTEX
  8
1
 10
5.325886
 20
9.171111
 42
-0.147151
  0
VERTEX
  8
1
 10
5.698916
 20
8.808988
 42
-0.130790
  0
VERTEX
  8
1
 10
5.843993
 20
8.251443
 42
-0.176806
  0
VERTEX
  8
1
 10
5.595293
 20
7.546058
 42
-0.101167
  0
VERTEX
  8
1
 10
5.325886
 20
7.331776
 42
-0.117004
  0
VERTEX
  8
1
 10
4.996634
 20
7.253123
 42
-0.117004
  0
VERTEX
  8
1
 10
4.667382
 20
7.331776
 42
-0.147151
  0
VERTEX
  8
1
 10
4.294353
 20
7.693899
 42
-0.130790
  0
VERTEX
  8
1
 10
4.149276
 20
8.251443
 42
-0.176806
  0
VERTEX
  8
1
 10
4.397975
 20
8.956828
 42
-0.101167
  0
VERTEX
  8
1
 10
4.667382
 20
9.171111
 42
-0.117004
  0
SEQEND
  0
POLYLINE
  8
1
 66
1
 70
1
  0
VERTEX
  8
1
 10
6.945272
 20
9.003701
 42
-0.203606
  0
VERTEX
  8
1
 10
6.911013
 20
9.017892
 42
-0.429692
  0
VERTEX
  8
1
 10
6.911013
 20
9.086410
 42
-0.429692
  0
VERTEX
  8
1
 10
6.979531
 20
9.086410
 42
-0.429691
  0
VERTEX
  8
1
 10
6.979531
 20
9.017892
 42
-0.200593
  0
SEQEND
  0
POLYLINE
  8
1
 66
1
 70
1
  0
VERTEX
  8
1
 10
6.945272
 20
9.249764
 42
-0.117004
  0
VERTEX
  8
1
 10
7.274524
 20
9.171111
 42
-0.147151
  0
VERTEX
  8
1
 10
7.647554
 20
8.808988
 42
-0.130790
  0
VERTEX
  8
1
 10
7.792631
 20
8.251443
 42
-0.176806
  0
VERTEX
  8
1
 10
7.543931
 20
7.546058
 42
-0.101167
  0
VERTEX
  8
1
 10
7.274524
 20
7.331776
 42
-0.117004
  0
VERTEX
  8
1
 10
6.945272
 20
7.253123
 42
-0.117004
  0
VERTEX
  8
1
 10
6.616020
 20
7.331776
 42
-0.147151
  0
VERTEX
  8
1
 10
6.242990
 20
7.693899
 42
-0.130790
  0
VERTEX
  8
1
 10
6.097913
 20
8.251443
 42
-0.176806
  0
VERTEX
  8
1
 10
6.346613
 20
8.956828
 42
-0.101167
  0
VERTEX
  8
1
 10
6.616020
 20
9.171111
 42
-0.117004
  0
SEQEND
  0
POLYLINE
  8
1
 66
1
 70
1
  0
VERTEX
  8
1
 10
8.893933
 20
9.003701
 42
-0.203606
  0
VERTEX
  8
1
 10
8.859674
 20
9.017892
 42
-0.429692
  0
VERTEX
  8
1
 10
8.859674
 20
9.086410
 42
-0.429692
  0
VERTEX
  8
1
 10
8.928192
 20
9.086410
 42
-0.429691
  0
VERTEX
  8
1
 10
8.928192
 20
9.017892
 42
-0.200593
  0
SEQEND
  0
POLYLINE
  8
1
 66
1
 70
1
  0
VERTEX
  8
1
 10
8.893933
 20
9.249764
 42
-0.117004
  0
VERTEX
  8
1
 10
9.223185
 20
9.171111
 42
-0.147151
  0
VERTEX
  8
1
 10
9.596215
 20
8.808988
 42
-0.130790
  0
VERTEX
  8
1
 10
9.741292
 20
8.251443
 42
-0.176806
  0
VERTEX
  8
1
 10
9.492592
 20
7.546058
 42
-0.101167
  0
VERTEX
  8
1
 10
9.223185
 20
7.331776
 42
-0.117004
  0
VERTEX
  8
1
 10
8.893933
 20
7.253123
 42
-0.117004
  0
VERTEX
  8
1
 10
8.564682
 20
7.331776
 42
-0.147151
  0
VERTEX
  8
1
 10
8.191652
 20
7.693899
 42
-0.130790
  0
VERTEX
  8
1
 10
8.046575
 20
8.251443
 42
-0.176806
  0
VERTEX
  8
1
 10
8.295275
 20
8.956828
 42
-0.101167
  0
VERTEX
  8
1
 10
8.564682
 20
9.171111
 42
-0.117004
  0
SEQEND
  0
POLYLINE
  8
1
 66
1
 70
1
  0
VERTEX
  8
1
 10
10.842595
 20
9.003701
 42
-0.203606
  0
VERTEX
  8
1
 10
10.808336
 20
9.017892
 42
-0.429692
  0
VERTEX
  8
1
 10
10.808336
 20
9.086410
 42
-0.429692
  0
VERTEX
  8
1
 10
10.876854
 20
9.086410
 42
-0.429691
  0
VERTEX
  8
1
 10
10.876854
 20
9.017892
 42
-0.200593
  0
SEQEND
  0
POLYLINE
  8
1
 66
1
 70
1
  0
VERTEX
  8
1
 10
10.842595
 20
9.249764
 42
-0.117004
  0
VERTEX
  8
1
 10
11.171847
 20
9.171111
 42
-0.147151
  0
VERTEX
  8
1
 10
11.544876
 20
8.808988
 42
-0.130790
  0
VERTEX
  8
1
 10
11.689953
 20
8.251443
 42
-0.176806
  0
VERTEX
  8
1
 10
11.441254
 20
7.546058
 42
-0.101167
  0
VERTEX
  8
1
 10
11.171847
 20
7.331776
 42
-0.117004
  0
VERTEX
  8
1
 10
10.842595
 20
7.253123
 42
-0.117004
  0
VERTEX
  8
1
 10
10.513343
 20
7.331776
 42
-0.147151
  0
VERTEX
  8
1
 10
10.140313
 20
7.693899
 42
-0.130790
  0
VERTEX
  8
1
 10
9.995236
 20
8.251443
 42
-0.176806
  0
VERTEX
  8
1
 10
10.243936
 20
8.956828
 42
-0.101167
  0
VERTEX
  8
1
 10
10.513343
 20
9.171111
 42
-0.117004
  0
SEQEND
  0
POLYLINE
  8
1
 66
1
 70
1
  0
VERTEX
  8
1
 10
1.099327
 20
11.254292
 42
-0.203606
  0
VERTEX
  8
1
 10
1.065068
 20
11.268483
 42
-0.429692
  0
VERTEX
  8
1
 10
1.065068
 20
11.337001
 42
-0.429692
  0
VERTEX
  8
1
 10
1.133586
 20
11.337001
 42
-0.429691
  0
VERTEX
  8
1
 10
1.133586
 20
11.268483
 42
-0.200593
  0
SEQEND
  0
POLYLINE
  8
1
 66
1
 70
1
  0
VERTEX
  8
1
 10
1.099327
 20
11.500355
 42
-0.117004
  0
VERTEX
  8
1
 10
1.428579
 20
11.421701
 42
-0.147151
  0
VERTEX
  8
1
 10
1.801609
 20
11.059578
 42
-0.130790
  0
VERTEX
  8
1
 10
1.946686
 20
10.502034
 42
-0.176806
  0
VERTEX
  8
1
 10
1.697986
 20
9.796649
 42
-0.101167
  0
VERTEX
  8
1
 10
1.428579
 20
9.582367
 42
-0.117004
  0
VERTEX
  8
1
 10
1.099327
 20
9.503713
 42
-0.117004
  0
VERTEX
  8
1
 10
0.770075
 20
9.582367
 42
-0.147151
  0
VERTEX
  8
1
 10
0.397046
 20
9.944490
 42
-0.130790
  0
VERTEX
  8
1
 10
0.251969
 20
10.502034
 42
-0.176806
  0
VERTEX
  8
1
 10
0.500668
 20
11.207419
 42
-0.101167
  0
VERTEX
  8
1
 10
0.770075
 20
11.421701
 42
-0.117004
  0
SEQEND
  0
POLYLINE
  8
1
 66
1
 70
1
  0
VERTEX
  8
1
 10
3.047981
 20
11.254292
 42
-0.203606
  0
VERTEX
  8
1
 10
3.013722
 20
11.268483
 42
-0.429692
  0
VERTEX
  8
1
 10
3.013722
 20
11.337001
 42
-0.429692
  0
VERTEX
  8
1
 10
3.082240
 20
11.337001
 42
-0.429691
  0
VERTEX
  8
1
 10
3.082240
 20
11.268483
 42
-0.200593
  0
SEQEND
  0
POLYLINE
  8
1
 66
1
 70
1
  0
VERTEX
  8
1
 10
3.047981
 20
11.500355
 42
-0.117004
  0
VERTEX
  8
1
 10
3.377232
 20
11.421701
 42
-0.147151
  0
VERTEX
  8
1
 10
3.750262
 20
11.059578
 42
-0.130790
  0
VERTEX
  8
1
 10
3.895339
 20
10.502034
 42
-0.176806
  0
VERTEX
  8
1
 10
3.646640
 20
9.796649
 42
-0.101167
  0
VERTEX
  8
1
 10
3.377232
 20
9.582367
 42
-0.117004
  0
VERTEX
  8
1
 10
3.047981
 20
9.503713
 42
-0.117004
  0
VERTEX
  8
1
 10
2.718729
 20
9.582367
 42
-0.147151
  0
VERTEX
  8
1
 10
2.345699
 20
9.944490
 42
-0.130790
  0
VERTEX
  8
1
 10
2.200622
 20
10.502034
 42
-0.176806
  0
VERTEX
  8
1
 10
2.449322
 20
11.207419
 42
-0.101167
  0
VERTEX
  8
1
 10
2.718729
 20
11.421701
 42
-0.117004
  0
SEQEND
  0
POLYLINE
  8
1
 66
1
 70
1
  0
VERTEX
  8
1
 10
4.996634
 20
11.254292
 42
-0.203606
  0
VERTEX
  8
1
 10
4.962375
 20
11.268483
 42
-0.429692
  0
VERTEX
  8
1
 10
4.962375
 20
11.337001
 42
-0.429692
  0
VERTEX
  8
1
 10
5.030893
 20
11.337001
 42
-0.429691
  0
VERTEX
  8
1
 10
5.030893
 20
11.268483
 42
-0.200593
  0
SEQEND
  0
POLYLINE
  8
1
 66
1
 70
1
  0
VERTEX
  8
1
 10
4.996634
 20
11.500355
 42
-0.117004
  0
VERTEX
  8
1
 10
5.325886
 20
11.421701
 42
-0.147151
  0
VERTEX
  8
1
 10
5.698916
 20
11.059578
 42
-0.130790
  0
VERTEX
  8
1
 10
5.843993
 20
10.502034
 42
-0.176806
  0
VERTEX
  8
1
 10
5.595293
 20
9.796649
 42
-0.101167
  0
VERTEX
  8
1
 10
5.325886
 20
9.582367
 42
-0.117004
  0
VERTEX
  8
1
 10
4.996634
 20
9.503713
 42
-0.117004
  0
VERTEX
  8
1
 10
4.667382
 20
9.582367
 42
-0.147151
  0
VERTEX
  8
1
 10
4.294353
 20
9.944490
 42
-0.130790
  0
VERTEX
  8
1
 10
4.149276
 20
10.502034
 42
-0.176806
  0
VERTEX
  8
1
 10
4.397975
 20
11.207419
 42
-0.101167
  0
VERTEX
  8
1
 10
4.667382
 20
11.421701
 42
-0.117004
  0
SEQEND
  0
POLYLINE
  8
1
 66
1
 70
1
  0
VERTEX
  8
1
 10
6.945272
 20
11.254292
 42
-0.203606
  0
VERTEX
  8
1
 10
6.911013
 20
11.268483
 42
-0.429692
  0
VERTEX
  8
1
 10
6.911013
 20
11.337001
 42
-0.429692
  0
VERTEX
  8
1
 10
6.979531
 20
11.337001
 42
-0.429691
  0
VERTEX
  8
1
 10
6.979531
 20
11.268483
 42
-0.200593
  0
SEQEND
  0
POLYLINE
  8
1
 66
1
 70
1
  0
VERTEX
  8
1
 10
6.945272
 20
11.500355
 42
-0.117004
  0
VERTEX
  8
1
 10
7.274524
 20
11.421701
 42
-0.147151
  0
VERTEX
  8
1
 10
7.647554
 20
11.059578
 42
-0.130790
  0
VERTEX
  8
1
 10
7.792631
 20
10.502034
 42
-0.176806
  0
VERTEX
  8
1
 10
7.543931
 20
9.796649
 42
-0.101167
  0
VERTEX
  8
1
 10
7.274524
 20
9.582367
 42
-0.117004
  0
VERTEX
  8
1
 10
6.945272
 20
9.503713
 42
-0.117004
  0
VERTEX
  8
1
 10
6.616020
 20
9.582367
 42
-0.147151
  0
VERTEX
  8
1
 10
6.242990
 20
9.944490
 42
-0.130790
  0
VERTEX
  8
1
 10
6.097913
 20
10.502034
 42
-0.176806
  0
VERTEX
  8
1
 10
6.346613
 20
11.207419
 42
-0.101167
  0
VERTEX
  8
1
 10
6.616020
 20
11.421701
 42
-0.117004
  0
SEQEND
  0
POLYLINE
  8
1
 66
1
 70
1
  0
VERTEX
  8
1
 10
8.893933
 20
11.254292
 42
-0.203606
  0
VERTEX
  8
1
 10
8.859674
 20
11.268483
 42
-0.429692
  0
VERTEX
  8
1
 10
8.859674
 20
11.337001
 42
-0.429692
  0
VERTEX
  8
1
 10
8.928192
 20
11.337001
 42
-0.429691
  0
VERTEX
  8
1
 10
8.928192
 20
11.268483
 42
-0.200593
  0
SEQEND
  0
POLYLINE
  8
1
 66
1
 70
1
  0
VERTEX
  8
1
 10
8.893933
 20
11.500355
 42
-0.117004
  0
VERTEX
  8
1
 10
9.223185
 20
11.421701
 42
-0.147151
  0
VERTEX
  8
1
 10
9.596215
 20
11.059578
 42
-0.130790
  0
VERTEX
  8
1
 10
9.741292
 20
10.502034
 42
-0.176806
  0
VERTEX
  8
1
 10
9.492592
 20
9.796649
 42
-0.101167
  0
VERTEX
  8
1
 10
9.223185
 20
9.582367
 42
-0.117004
  0
VERTEX
  8
1
 10
8.893933
 20
9.503713
 42
-0.117004
  0
VERTEX
  8
1
 10
8.564682
 20
9.582367
 42
-0.147151
  0
VERTEX
  8
1
 10
8.191652
 20
9.944490
 42
-0.130790
  0
VERTEX
  8
1
 10
8.046575
 20
10.502034
 42
-0.176806
  0
VERTEX
  8
1
 10
8.295275
 20
11.207419
 42
-0.101167
  0
VERTEX
  8
1
 10
8.564682
 20
11.421701
 42
-0.117004
  0
SEQEND
  0
POLYLINE
  8
1
 66
1
 70
1
  0
VERTEX
  8
1
 10
10.842595
 20
11.254292
 42
-0.203606
  0
VERTEX
  8
1
 10
10.808336
 20
11.268483
 42
-0.429692
  0
VERTEX
  8
1
 10
10.808336
 20
11.337001
 42
-0.429692
  0
VERTEX
  8
1
 10
10.876854
 20
11.337001
 42
-0.429691
  0
VERTEX
  8
1
 10
10.876854
 20
11.268483
 42
-0.200593
  0
SEQEND
  0
POLYLINE
  8
1
 66
1
 70
1
  0
VERTEX
  8
1
 10
10.842595
 20
11.500355
 42
-0.117004
  0
VERTEX
  8
1
 10
11.171847
 20
11.421701
 42
-0.147151
  0
VERTEX
  8
1
 10
11.544876
 20
11.059578
 42
-0.130790
  0
VERTEX
  8
1
 10
11.689953
 20
10.502034
 42
-0.176806
  0
VERTEX
  8
1
 10
11.441254
 20
9.796649
 42
-0.101167
  0
VERTEX
  8
1
 10
11.171847
 20
9.582367
 42
-0.117004
  0
VERTEX
  8
1
 10
10.842595
 20
9.503713
 42
-0.117004
  0
VERTEX
  8
1
 10
10.513343
 20
9.582367
 42
-0.147151
  0
VERTEX
  8
1
 10
10.140313
 20
9.944490
 42
-0.130790
  0
VERTEX
  8
1
 10
9.995236
 20
10.502034
 42
-0.176806
  0
VERTEX
  8
1
 10
10.243936
 20
11.207419
 42
-0.101167
  0
VERTEX
  8
1
 10
10.513343
 20
11.421701
 42
-0.117004
  0
SEQEND
  0
ENDSEC
   0
EOF
