  0
SECTION
  2
HEADER
  9
$ACADVER
  1
AC1009
  0
ENDSEC
  0
SECTION
  2
ENTITIES
  0
POLYLINE
  5
90
  8
Layer_0
  62
0
  70
1
  66
1
  10
0
  20
0
  30
0
  0
VERTEX
  5
90
  8
Layer_0
  10
643.3454
  20
328.68262
  0
VERTEX
  5
91
  8
Layer_0
  10
433.3454
  20
328.68262
  0
VERTEX
  5
92
  8
Layer_0
  10
438.01208
  20
248.68262
  0
VERTEX
  5
93
  8
Layer_0
  10
523.3454
  20
228.68262
  0
VERTEX
  5
94
  8
Layer_0
  10
553.3454
  20
228.68262
  0
VERTEX
  5
95
  8
Layer_0
  10
638.67871
  20
248.68262
  0
VERTEX
  5
96
  8
Layer_0
  10
643.3454
  20
328.68262
  0
SEQEND
  0
POLYLINE
  5
98
  8
Layer_0
  62
0
  70
1
  66
1
  10
0
  20
0
  30
0
  0
VERTEX
  5
98
  8
Layer_0
  10
523.8103
  20
227.4834
  0
VERTEX
  5
99
  8
Layer_0
  10
553.8103
  20
227.4834
  0
VERTEX
  5
9a
  8
Layer_0
  10
607.9353
  20
212.4834
  0
VERTEX
  5
9b
  8
Layer_0
  10
605.3103
  20
167.4834
  0
VERTEX
  5
9c
  8
Layer_0
  10
553.8103
  20
152.4834
  0
VERTEX
  5
9d
  8
Layer_0
  10
523.8103
  20
152.4834
  0
VERTEX
  5
9e
  8
Layer_0
  10
472.31033
  20
167.4834
  0
VERTEX
  5
9f
  8
Layer_0
  10
469.68533
  20
212.4834
  0
VERTEX
  5
a0
  8
Layer_0
  10
523.8103
  20
227.4834
  0
VERTEX
  5
a1
  8
Layer_0
  10
523.8103
  20
152.4834
  0
VERTEX
  5
a2
  8
Layer_0
  10
523.8103
  20
227.4834
  0
SEQEND
  0
POLYLINE
  5
a4
  8
Layer_0
  62
0
  70
1
  66
1
  10
0
  20
0
  30
0
  0
VERTEX
  5
a4
  8
Layer_0
  10
603.36981
  20
220.0769
  0
VERTEX
  5
a5
  8
Layer_0
  10
582.36981
  20
220.0769
  0
VERTEX
  5
a6
  8
Layer_0
  10
582.36981
  20
235.0769
  0
VERTEX
  5
a7
  8
Layer_0
  10
603.36981
  20
235.0769
  0
VERTEX
  5
a8
  8
Layer_0
  10
603.36981
  20
220.0769
  0
SEQEND
  0
POLYLINE
  5
aa
  8
Layer_0
  62
0
  70
1
  66
1
  10
0
  20
0
  30
0
  0
VERTEX
  5
aa
  8
Layer_0
  10
476.8454
  20
232.55371
  0
VERTEX
  5
ab
  8
Layer_0
  10
476.8454
  20
222.55371
  0
VERTEX
  5
ac
  8
Layer_0
  10
480.3454
  20
222.55371
  0
VERTEX
  5
ad
  8
Layer_0
  10
480.3454
  20
232.55371
  0
VERTEX
  5
ae
  8
Layer_0
  10
476.8454
  20
232.55371
  0
SEQEND
  0
POLYLINE
  5
b0
  8
Layer_0
  62
0
  70
1
  66
1
  10
0
  20
0
  30
0
  0
VERTEX
  5
b0
  8
Layer_0
  10
494.8454
  20
235.05371
  0
VERTEX
  5
b1
  8
Layer_0
  10
494.8454
  20
220.05371
  0
VERTEX
  5
b2
  8
Layer_0
  10
473.8454
  20
220.05371
  0
VERTEX
  5
b3
  8
Layer_0
  10
473.8454
  20
235.05371
  0
VERTEX
  5
b4
  8
Layer_0
  10
494.8454
  20
235.05371
  0
SEQEND
  0
POLYLINE
  5
b6
  8
Layer_0
  62
0
  70
1
  66
1
  10
0
  20
0
  30
0
  0
VERTEX
  5
b6
  8
Layer_0
  10
596.86981
  20
222.5769
  0
VERTEX
  5
b7
  8
Layer_0
  10
600.36981
  20
222.5769
  0
VERTEX
  5
b8
  8
Layer_0
  10
600.36981
  20
232.5769
  0
VERTEX
  5
b9
  8
Layer_0
  10
596.86981
  20
232.5769
  0
VERTEX
  5
ba
  8
Layer_0
  10
596.86981
  20
222.5769
  0
SEQEND
  0
POLYLINE
  5
bc
  8
Layer_0
  62
0
  66
1
  10
0
  20
0
  30
0
  0
VERTEX
  5
bc
  8
Layer_0
  10
523.3454
  20
328.68262
  0
VERTEX
  5
bd
  8
Layer_0
  10
523.3454
  20
228.68262
  0
SEQEND
  0
POLYLINE
  5
bf
  8
Layer_0
  62
0
  66
1
  10
0
  20
0
  30
0
  0
VERTEX
  5
bf
  8
Layer_0
  10
553.3454
  20
228.68262
  0
VERTEX
  5
c0
  8
Layer_0
  10
553.3454
  20
328.68262
  0
SEQEND
  0
POLYLINE
  5
c2
  8
Layer_0
  62
0
  66
1
  10
0
  20
0
  30
0
  0
VERTEX
  5
c2
  8
Layer_0
  10
553.76068
  20
152.4248
  0
VERTEX
  5
c3
  8
Layer_0
  10
553.76068
  20
227.55127
  0
SEQEND
  0
POLYLINE
  5
c5
  8
Layer_0
  62
0
  70
1
  66
1
  10
0
  20
0
  30
0
  0
VERTEX
  5
c5
  8
Layer_0
  10
536.7948
  20
270.29736
  0
VERTEX
  5
c6
  8
Layer_0
  10
537.25134
  20
270.3385
  0
VERTEX
  5
c7
  8
Layer_0
  10
537.70184
  20
270.4126
  0
VERTEX
  5
c8
  8
Layer_0
  10
538.14465
  20
270.51904
  0
VERTEX
  5
c9
  8
Layer_0
  10
538.57788
  20
270.65735
  0
VERTEX
  5
ca
  8
Layer_0
  10
538.99994
  20
270.82684
  0
VERTEX
  5
cb
  8
Layer_0
  10
539.40906
  20
271.02686
  0
VERTEX
  5
cc
  8
Layer_0
  10
539.80347
  20
271.25684
  0
VERTEX
  5
cd
  8
Layer_0
  10
540.18152
  20
271.51611
  0
VERTEX
  5
ce
  8
Layer_0
  10
540.49426
  20
271.77124
  0
VERTEX
  5
cf
  8
Layer_0
  10
540.7854
  20
272.04822
  0
VERTEX
  5
d0
  8
Layer_0
  10
541.05389
  20
272.3457
  0
VERTEX
  5
d1
  8
Layer_0
  10
541.29871
  20
272.66223
  0
VERTEX
  5
d2
  8
Layer_0
  10
541.51892
  20
272.99634
  0
VERTEX
  5
d3
  8
Layer_0
  10
541.71338
  20
273.34668
  0
VERTEX
  5
d4
  8
Layer_0
  10
541.88123
  20
273.71179
  0
VERTEX
  5
d5
  8
Layer_0
  10
542.02136
  20
274.09033
  0
VERTEX
  5
d6
  8
Layer_0
  10
542.1582
  20
274.57373
  0
VERTEX
  5
d7
  8
Layer_0
  10
542.26648
  20
275.06372
  0
VERTEX
  5
d8
  8
Layer_0
  10
542.34595
  20
275.55933
  0
VERTEX
  5
d9
  8
Layer_0
  10
542.39636
  20
276.05908
  0
VERTEX
  5
da
  8
Layer_0
  10
542.43378
  20
276.63306
  0
VERTEX
  5
db
  8
Layer_0
  10
542.44427
  20
277.20789
  0
VERTEX
  5
dc
  8
Layer_0
  10
542.42786
  20
277.78247
  0
VERTEX
  5
dd
  8
Layer_0
  10
542.38464
  20
278.35596
  0
VERTEX
  5
de
  8
Layer_0
  10
542.28876
  20
279.00623
  0
VERTEX
  5
df
  8
Layer_0
  10
542.13226
  20
279.64307
  0
VERTEX
  5
e0
  8
Layer_0
  10
541.91638
  20
280.26245
  0
VERTEX
  5
e1
  8
Layer_0
  10
541.64246
  20
280.85986
  0
VERTEX
  5
e2
  8
Layer_0
  10
541.28217
  20
281.43945
  0
VERTEX
  5
e3
  8
Layer_0
  10
540.85925
  20
281.9657
  0
VERTEX
  5
e4
  8
Layer_0
  10
540.37988
  20
282.43457
  0
VERTEX
  5
e5
  8
Layer_0
  10
539.84998
  20
282.8418
  0
VERTEX
  5
e6
  8
Layer_0
  10
539.27557
  20
283.18347
  0
VERTEX
  5
e7
  8
Layer_0
  10
538.66272
  20
283.45544
  0
VERTEX
  5
e8
  8
Layer_0
  10
538.01733
  20
283.65369
  0
VERTEX
  5
e9
  8
Layer_0
  10
537.34558
  20
283.77393
  0
VERTEX
  5
ea
  8
Layer_0
  10
536.6748
  20
283.8313
  0
VERTEX
  5
eb
  8
Layer_0
  10
536.00311
  20
283.82678
  0
VERTEX
  5
ec
  8
Layer_0
  10
535.33466
  20
283.76074
  0
VERTEX
  5
ed
  8
Layer_0
  10
534.67371
  20
283.6333
  0
VERTEX
  5
ee
  8
Layer_0
  10
534.15417
  20
283.47705
  0
VERTEX
  5
ef
  8
Layer_0
  10
533.65417
  20
283.27393
  0
VERTEX
  5
f0
  8
Layer_0
  10
533.29388
  20
283.08838
  0
VERTEX
  5
f1
  8
Layer_0
  10
532.94714
  20
282.87964
  0
VERTEX
  5
f2
  8
Layer_0
  10
532.61505
  20
282.64819
  0
VERTEX
  5
f3
  8
Layer_0
  10
532.29871
  20
282.39502
  0
VERTEX
  5
f4
  8
Layer_0
  10
531.82159
  20
281.91968
  0
VERTEX
  5
f5
  8
Layer_0
  10
531.40955
  20
281.39026
  0
VERTEX
  5
f6
  8
Layer_0
  10
531.06708
  20
280.81348
  0
VERTEX
  5
f7
  8
Layer_0
  10
530.79871
  20
280.1958
  0
VERTEX
  5
f8
  8
Layer_0
  10
530.62122
  20
279.64307
  0
VERTEX
  5
f9
  8
Layer_0
  10
530.4837
  20
279.07971
  0
VERTEX
  5
fa
  8
Layer_0
  10
530.38641
  20
278.50806
  0
VERTEX
  5
fb
  8
Layer_0
  10
530.32996
  20
277.93018
  0
VERTEX
  5
fc
  8
Layer_0
  10
530.29309
  20
277.14685
  0
VERTEX
  5
fd
  8
Layer_0
  10
530.31482
  20
276.36401
  0
VERTEX
  5
fe
  8
Layer_0
  10
530.3949
  20
275.58496
  0
VERTEX
  5
ff
  8
Layer_0
  10
530.53308
  20
274.81299
  0
VERTEX
  5
100
  8
Layer_0
  10
530.67847
  20
274.26599
  0
VERTEX
  5
101
  8
Layer_0
  10
530.87305
  20
273.73572
  0
VERTEX
  5
102
  8
Layer_0
  10
531.11536
  20
273.22559
  0
VERTEX
  5
103
  8
Layer_0
  10
531.40417
  20
272.73877
  0
VERTEX
  5
104
  8
Layer_0
  10
531.74536
  20
272.28857
  0
VERTEX
  5
105
  8
Layer_0
  10
532.12775
  20
271.87866
  0
VERTEX
  5
106
  8
Layer_0
  10
532.54749
  20
271.51129
  0
VERTEX
  5
107
  8
Layer_0
  10
533.00098
  20
271.1889
  0
VERTEX
  5
108
  8
Layer_0
  10
533.48468
  20
270.91376
  0
VERTEX
  5
109
  8
Layer_0
  10
533.99481
  20
270.68817
  0
VERTEX
  5
10a
  8
Layer_0
  10
534.52777
  20
270.51453
  0
VERTEX
  5
10b
  8
Layer_0
  10
535.07996
  20
270.39502
  0
VERTEX
  5
10c
  8
Layer_0
  10
535.5061
  20
270.33484
  0
VERTEX
  5
10d
  8
Layer_0
  10
535.93463
  20
270.29846
  0
VERTEX
  5
10e
  8
Layer_0
  10
536.3645
  20
270.28595
  0
VERTEX
  5
10f
  8
Layer_0
  10
536.7948
  20
270.29736
  0
SEQEND
  0
POLYLINE
  5
111
  8
Layer_0
  62
0
  70
1
  66
1
  10
0
  20
0
  30
0
  0
VERTEX
  5
111
  8
Layer_0
  10
535.97449
  20
272.10986
  0
VERTEX
  5
112
  8
Layer_0
  10
535.40851
  20
272.21039
  0
VERTEX
  5
113
  8
Layer_0
  10
534.87085
  20
272.4021
  0
VERTEX
  5
114
  8
Layer_0
  10
534.37225
  20
272.68018
  0
VERTEX
  5
115
  8
Layer_0
  10
533.92371
  20
273.03955
  0
VERTEX
  5
116
  8
Layer_0
  10
533.70392
  20
273.26239
  0
VERTEX
  5
117
  8
Layer_0
  10
533.50366
  20
273.5022
  0
VERTEX
  5
118
  8
Layer_0
  10
533.32404
  20
273.75781
  0
VERTEX
  5
119
  8
Layer_0
  10
533.16589
  20
274.02783
  0
VERTEX
  5
11a
  8
Layer_0
  10
532.97473
  20
274.44714
  0
VERTEX
  5
11b
  8
Layer_0
  10
532.82605
  20
274.8833
  0
VERTEX
  5
11c
  8
Layer_0
  10
532.73047
  20
275.27124
  0
VERTEX
  5
11d
  8
Layer_0
  10
532.65619
  20
275.66357
  0
VERTEX
  5
11e
  8
Layer_0
  10
532.60339
  20
276.0592
  0
VERTEX
  5
11f
  8
Layer_0
  10
532.57214
  20
276.45752
  0
VERTEX
  5
120
  8
Layer_0
  10
532.55536
  20
276.90039
  0
VERTEX
  5
121
  8
Layer_0
  10
532.55823
  20
277.34338
  0
VERTEX
  5
122
  8
Layer_0
  10
532.58075
  20
277.78577
  0
VERTEX
  5
123
  8
Layer_0
  10
532.62292
  20
278.22705
  0
VERTEX
  5
124
  8
Layer_0
  10
532.70563
  20
278.73474
  0
VERTEX
  5
125
  8
Layer_0
  10
532.82605
  20
279.23486
  0
VERTEX
  5
126
  8
Layer_0
  10
532.97839
  20
279.68408
  0
VERTEX
  5
127
  8
Layer_0
  10
533.16589
  20
280.09033
  0
VERTEX
  5
128
  8
Layer_0
  10
533.38855
  20
280.45752
  0
VERTEX
  5
129
  8
Layer_0
  10
533.63257
  20
280.77051
  0
VERTEX
  5
12a
  8
Layer_0
  10
533.90692
  20
281.05603
  0
VERTEX
  5
12b
  8
Layer_0
  10
534.20911
  20
281.31177
  0
VERTEX
  5
12c
  8
Layer_0
  10
534.53699
  20
281.53564
  0
VERTEX
  5
12d
  8
Layer_0
  10
534.78589
  20
281.67017
  0
VERTEX
  5
12e
  8
Layer_0
  10
535.04492
  20
281.78235
  0
VERTEX
  5
12f
  8
Layer_0
  10
535.31274
  20
281.87183
  0
VERTEX
  5
130
  8
Layer_0
  10
535.58777
  20
281.93799
  0
VERTEX
  5
131
  8
Layer_0
  10
536.07172
  20
282.0061
  0
VERTEX
  5
132
  8
Layer_0
  10
536.55847
  20
282.01294
  0
VERTEX
  5
133
  8
Layer_0
  10
537.04236
  20
281.95898
  0
VERTEX
  5
134
  8
Layer_0
  10
537.51746
  20
281.84424
  0
VERTEX
  5
135
  8
Layer_0
  10
537.87122
  20
281.70398
  0
VERTEX
  5
136
  8
Layer_0
  10
538.20654
  20
281.52649
  0
VERTEX
  5
137
  8
Layer_0
  10
538.52063
  20
281.3136
  0
VERTEX
  5
138
  8
Layer_0
  10
538.81042
  20
281.06689
  0
VERTEX
  5
139
  8
Layer_0
  10
539.09625
  20
280.77258
  0
VERTEX
  5
13a
  8
Layer_0
  10
539.34949
  20
280.44971
  0
VERTEX
  5
13b
  8
Layer_0
  10
539.57288
  20
280.07764
  0
VERTEX
  5
13c
  8
Layer_0
  10
539.75574
  20
279.68408
  0
VERTEX
  5
13d
  8
Layer_0
  10
539.91516
  20
279.23584
  0
VERTEX
  5
13e
  8
Layer_0
  10
540.02917
  20
278.77393
  0
VERTEX
  5
13f
  8
Layer_0
  10
540.0979
  20
278.36694
  0
VERTEX
  5
140
  8
Layer_0
  10
540.14685
  20
277.9574
  0
VERTEX
  5
141
  8
Layer_0
  10
540.17603
  20
277.54602
  0
VERTEX
  5
142
  8
Layer_0
  10
540.18542
  20
277.1333
  0
VERTEX
  5
143
  8
Layer_0
  10
540.17731
  20
276.69849
  0
VERTEX
  5
144
  8
Layer_0
  10
540.14917
  20
276.26453
  0
VERTEX
  5
145
  8
Layer_0
  10
540.10107
  20
275.8324
  0
VERTEX
  5
146
  8
Layer_0
  10
540.03308
  20
275.40283
  0
VERTEX
  5
147
  8
Layer_0
  10
539.91547
  20
274.92273
  0
VERTEX
  5
148
  8
Layer_0
  10
539.75964
  20
274.45361
  0
VERTEX
  5
149
  8
Layer_0
  10
539.57599
  20
274.05103
  0
VERTEX
  5
14a
  8
Layer_0
  10
539.35339
  20
273.66846
  0
VERTEX
  5
14b
  8
Layer_0
  10
539.09949
  20
273.33643
  0
VERTEX
  5
14c
  8
Layer_0
  10
538.8985
  20
273.12122
  0
VERTEX
  5
14d
  8
Layer_0
  10
538.68176
  20
272.92267
  0
VERTEX
  5
14e
  8
Layer_0
  10
538.4502
  20
272.74146
  0
VERTEX
  5
14f
  8
Layer_0
  10
538.20496
  20
272.57861
  0
VERTEX
  5
150
  8
Layer_0
  10
537.86914
  20
272.40137
  0
VERTEX
  5
151
  8
Layer_0
  10
537.5166
  20
272.26343
  0
VERTEX
  5
152
  8
Layer_0
  10
537.15082
  20
272.16589
  0
VERTEX
  5
153
  8
Layer_0
  10
536.77527
  20
272.10986
  0
VERTEX
  5
154
  8
Layer_0
  10
536.37488
  20
272.09033
  0
VERTEX
  5
155
  8
Layer_0
  10
535.97449
  20
272.10986
  0
SEQEND
  0
POLYLINE
  5
157
  8
Layer_0
  62
0
  70
1
  66
1
  10
0
  20
0
  30
0
  0
VERTEX
  5
157
  8
Layer_0
  10
539.23639
  20
183.22217
  0
VERTEX
  5
158
  8
Layer_0
  10
539.69299
  20
183.26331
  0
VERTEX
  5
159
  8
Layer_0
  10
540.14343
  20
183.3374
  0
VERTEX
  5
15a
  8
Layer_0
  10
540.58618
  20
183.44385
  0
VERTEX
  5
15b
  8
Layer_0
  10
541.01953
  20
183.58215
  0
VERTEX
  5
15c
  8
Layer_0
  10
541.44153
  20
183.75165
  0
VERTEX
  5
15d
  8
Layer_0
  10
541.85065
  20
183.95166
  0
VERTEX
  5
15e
  8
Layer_0
  10
542.24506
  20
184.18164
  0
VERTEX
  5
15f
  8
Layer_0
  10
542.62311
  20
184.44092
  0
VERTEX
  5
160
  8
Layer_0
  10
542.93585
  20
184.69604
  0
VERTEX
  5
161
  8
Layer_0
  10
543.22699
  20
184.97302
  0
VERTEX
  5
162
  8
Layer_0
  10
543.49548
  20
185.27051
  0
VERTEX
  5
163
  8
Layer_0
  10
543.74036
  20
185.58704
  0
VERTEX
  5
164
  8
Layer_0
  10
543.96057
  20
185.92114
  0
VERTEX
  5
165
  8
Layer_0
  10
544.15503
  20
186.27148
  0
VERTEX
  5
166
  8
Layer_0
  10
544.32288
  20
186.63666
  0
VERTEX
  5
167
  8
Layer_0
  10
544.46295
  20
187.01514
  0
VERTEX
  5
168
  8
Layer_0
  10
544.59985
  20
187.49854
  0
VERTEX
  5
169
  8
Layer_0
  10
544.70813
  20
187.98853
  0
VERTEX
  5
16a
  8
Layer_0
  10
544.78754
  20
188.48413
  0
VERTEX
  5
16b
  8
Layer_0
  10
544.83795
  20
188.98389
  0
VERTEX
  5
16c
  8
Layer_0
  10
544.87537
  20
189.55786
  0
VERTEX
  5
16d
  8
Layer_0
  10
544.88593
  20
190.13263
  0
VERTEX
  5
16e
  8
Layer_0
  10
544.86951
  20
190.70728
  0
VERTEX
  5
16f
  8
Layer_0
  10
544.82623
  20
191.28076
  0
VERTEX
  5
170
  8
Layer_0
  10
544.73041
  20
191.93103
  0
VERTEX
  5
171
  8
Layer_0
  10
544.57391
  20
192.56799
  0
VERTEX
  5
172
  8
Layer_0
  10
544.35803
  20
193.18726
  0
VERTEX
  5
173
  8
Layer_0
  10
544.08405
  20
193.78467
  0
VERTEX
  5
174
  8
Layer_0
  10
543.72375
  20
194.36432
  0
VERTEX
  5
175
  8
Layer_0
  10
543.3009
  20
194.89063
  0
VERTEX
  5
176
  8
Layer_0
  10
542.82153
  20
195.35938
  0
VERTEX
  5
177
  8
Layer_0
  10
542.29163
  20
195.76666
  0
VERTEX
  5
178
  8
Layer_0
  10
541.71722
  20
196.10828
  0
VERTEX
  5
179
  8
Layer_0
  10
541.10431
  20
196.38025
  0
VERTEX
  5
17a
  8
Layer_0
  10
540.45892
  20
196.57849
  0
VERTEX
  5
17b
  8
Layer_0
  10
539.78717
  20
196.69873
  0
VERTEX
  5
17c
  8
Layer_0
  10
539.11646
  20
196.7561
  0
VERTEX
  5
17d
  8
Layer_0
  10
538.44476
  20
196.75159
  0
VERTEX
  5
17e
  8
Layer_0
  10
537.77631
  20
196.68555
  0
VERTEX
  5
17f
  8
Layer_0
  10
537.1153
  20
196.55811
  0
VERTEX
  5
180
  8
Layer_0
  10
536.59576
  20
196.40186
  0
VERTEX
  5
181
  8
Layer_0
  10
536.09576
  20
196.19873
  0
VERTEX
  5
182
  8
Layer_0
  10
535.73553
  20
196.01324
  0
VERTEX
  5
183
  8
Layer_0
  10
535.38879
  20
195.80444
  0
VERTEX
  5
184
  8
Layer_0
  10
535.05664
  20
195.57306
  0
VERTEX
  5
185
  8
Layer_0
  10
534.7403
  20
195.31982
  0
VERTEX
  5
186
  8
Layer_0
  10
534.26318
  20
194.84448
  0
VERTEX
  5
187
  8
Layer_0
  10
533.8512
  20
194.31519
  0
VERTEX
  5
188
  8
Layer_0
  10
533.50873
  20
193.73828
  0
VERTEX
  5
189
  8
Layer_0
  10
533.2403
  20
193.12061
  0
VERTEX
  5
18a
  8
Layer_0
  10
533.06287
  20
192.56775
  0
VERTEX
  5
18b
  8
Layer_0
  10
532.92529
  20
192.00452
  0
VERTEX
  5
18c
  8
Layer_0
  10
532.82806
  20
191.43286
  0
VERTEX
  5
18d
  8
Layer_0
  10
532.77155
  20
190.85498
  0
VERTEX
  5
18e
  8
Layer_0
  10
532.73474
  20
190.07166
  0
VERTEX
  5
18f
  8
Layer_0
  10
532.75647
  20
189.28882
  0
VERTEX
  5
190
  8
Layer_0
  10
532.83649
  20
188.50977
  0
VERTEX
  5
191
  8
Layer_0
  10
532.97467
  20
187.73779
  0
VERTEX
  5
192
  8
Layer_0
  10
533.12006
  20
187.1908
  0
VERTEX
  5
193
  8
Layer_0
  10
533.31464
  20
186.66052
  0
VERTEX
  5
194
  8
Layer_0
  10
533.55701
  20
186.15039
  0
VERTEX
  5
195
  8
Layer_0
  10
533.84576
  20
185.66357
  0
VERTEX
  5
196
  8
Layer_0
  10
534.18701
  20
185.21338
  0
VERTEX
  5
197
  8
Layer_0
  10
534.56934
  20
184.80347
  0
VERTEX
  5
198
  8
Layer_0
  10
534.98907
  20
184.4361
  0
VERTEX
  5
199
  8
Layer_0
  10
535.44263
  20
184.11371
  0
VERTEX
  5
19a
  8
Layer_0
  10
535.92627
  20
183.83856
  0
VERTEX
  5
19b
  8
Layer_0
  10
536.4364
  20
183.61298
  0
VERTEX
  5
19c
  8
Layer_0
  10
536.96936
  20
183.43933
  0
VERTEX
  5
19d
  8
Layer_0
  10
537.52155
  20
183.31982
  0
VERTEX
  5
19e
  8
Layer_0
  10
537.94769
  20
183.25964
  0
VERTEX
  5
19f
  8
Layer_0
  10
538.37622
  20
183.22327
  0
VERTEX
  5
1a0
  8
Layer_0
  10
538.80615
  20
183.21075
  0
VERTEX
  5
1a1
  8
Layer_0
  10
539.23639
  20
183.22217
  0
SEQEND
  0
POLYLINE
  5
1a3
  8
Layer_0
  62
0
  70
1
  66
1
  10
0
  20
0
  30
0
  0
VERTEX
  5
1a3
  8
Layer_0
  10
538.41608
  20
185.03467
  0
VERTEX
  5
1a4
  8
Layer_0
  10
537.8501
  20
185.13519
  0
VERTEX
  5
1a5
  8
Layer_0
  10
537.31244
  20
185.3269
  0
VERTEX
  5
1a6
  8
Layer_0
  10
536.81384
  20
185.60498
  0
VERTEX
  5
1a7
  8
Layer_0
  10
536.3653
  20
185.96436
  0
VERTEX
  5
1a8
  8
Layer_0
  10
536.14551
  20
186.18719
  0
VERTEX
  5
1a9
  8
Layer_0
  10
535.94531
  20
186.427
  0
VERTEX
  5
1aa
  8
Layer_0
  10
535.76563
  20
186.68262
  0
VERTEX
  5
1ab
  8
Layer_0
  10
535.60748
  20
186.95264
  0
VERTEX
  5
1ac
  8
Layer_0
  10
535.41632
  20
187.37195
  0
VERTEX
  5
1ad
  8
Layer_0
  10
535.26764
  20
187.80811
  0
VERTEX
  5
1ae
  8
Layer_0
  10
535.17206
  20
188.19604
  0
VERTEX
  5
1af
  8
Layer_0
  10
535.09778
  20
188.58838
  0
VERTEX
  5
1b0
  8
Layer_0
  10
535.04498
  20
188.98401
  0
VERTEX
  5
1b1
  8
Layer_0
  10
535.01373
  20
189.38232
  0
VERTEX
  5
1b2
  8
Layer_0
  10
534.99695
  20
189.82532
  0
VERTEX
  5
1b3
  8
Layer_0
  10
534.99982
  20
190.26831
  0
VERTEX
  5
1b4
  8
Layer_0
  10
535.02234
  20
190.71069
  0
VERTEX
  5
1b5
  8
Layer_0
  10
535.06451
  20
191.15186
  0
VERTEX
  5
1b6
  8
Layer_0
  10
535.14728
  20
191.65955
  0
VERTEX
  5
1b7
  8
Layer_0
  10
535.26764
  20
192.15967
  0
VERTEX
  5
1b8
  8
Layer_0
  10
535.41998
  20
192.60889
  0
VERTEX
  5
1b9
  8
Layer_0
  10
535.60748
  20
193.01514
  0
VERTEX
  5
1ba
  8
Layer_0
  10
535.83014
  20
193.38232
  0
VERTEX
  5
1bb
  8
Layer_0
  10
536.07422
  20
193.69543
  0
VERTEX
  5
1bc
  8
Layer_0
  10
536.34851
  20
193.98083
  0
VERTEX
  5
1bd
  8
Layer_0
  10
536.65076
  20
194.23663
  0
VERTEX
  5
1be
  8
Layer_0
  10
536.97858
  20
194.46045
  0
VERTEX
  5
1bf
  8
Layer_0
  10
537.22742
  20
194.59497
  0
VERTEX
  5
1c0
  8
Layer_0
  10
537.48651
  20
194.70715
  0
VERTEX
  5
1c1
  8
Layer_0
  10
537.75433
  20
194.79669
  0
VERTEX
  5
1c2
  8
Layer_0
  10
538.02936
  20
194.86279
  0
VERTEX
  5
1c3
  8
Layer_0
  10
538.51331
  20
194.93091
  0
VERTEX
  5
1c4
  8
Layer_0
  10
539.00012
  20
194.93774
  0
VERTEX
  5
1c5
  8
Layer_0
  10
539.48395
  20
194.88373
  0
VERTEX
  5
1c6
  8
Layer_0
  10
539.95905
  20
194.76904
  0
VERTEX
  5
1c7
  8
Layer_0
  10
540.31287
  20
194.62878
  0
VERTEX
  5
1c8
  8
Layer_0
  10
540.64819
  20
194.45142
  0
VERTEX
  5
1c9
  8
Layer_0
  10
540.96228
  20
194.2384
  0
VERTEX
  5
1ca
  8
Layer_0
  10
541.25201
  20
193.9917
  0
VERTEX
  5
1cb
  8
Layer_0
  10
541.5379
  20
193.69739
  0
VERTEX
  5
1cc
  8
Layer_0
  10
541.79108
  20
193.37451
  0
VERTEX
  5
1cd
  8
Layer_0
  10
542.01447
  20
193.0025
  0
VERTEX
  5
1ce
  8
Layer_0
  10
542.19733
  20
192.60889
  0
VERTEX
  5
1cf
  8
Layer_0
  10
542.35681
  20
192.16064
  0
VERTEX
  5
1d0
  8
Layer_0
  10
542.47076
  20
191.69873
  0
VERTEX
  5
1d1
  8
Layer_0
  10
542.53943
  20
191.29175
  0
VERTEX
  5
1d2
  8
Layer_0
  10
542.58844
  20
190.8822
  0
VERTEX
  5
1d3
  8
Layer_0
  10
542.61768
  20
190.47083
  0
VERTEX
  5
1d4
  8
Layer_0
  10
542.62701
  20
190.05811
  0
VERTEX
  5
1d5
  8
Layer_0
  10
542.6189
  20
189.62329
  0
VERTEX
  5
1d6
  8
Layer_0
  10
542.59082
  20
189.18939
  0
VERTEX
  5
1d7
  8
Layer_0
  10
542.54272
  20
188.75732
  0
VERTEX
  5
1d8
  8
Layer_0
  10
542.47467
  20
188.32764
  0
VERTEX
  5
1d9
  8
Layer_0
  10
542.35706
  20
187.84753
  0
VERTEX
  5
1da
  8
Layer_0
  10
542.20123
  20
187.37842
  0
VERTEX
  5
1db
  8
Layer_0
  10
542.01758
  20
186.97577
  0
VERTEX
  5
1dc
  8
Layer_0
  10
541.79498
  20
186.59326
  0
VERTEX
  5
1dd
  8
Layer_0
  10
541.54108
  20
186.26123
  0
VERTEX
  5
1de
  8
Layer_0
  10
541.34009
  20
186.04602
  0
VERTEX
  5
1df
  8
Layer_0
  10
541.12335
  20
185.84747
  0
VERTEX
  5
1e0
  8
Layer_0
  10
540.89185
  20
185.66626
  0
VERTEX
  5
1e1
  8
Layer_0
  10
540.64655
  20
185.50342
  0
VERTEX
  5
1e2
  8
Layer_0
  10
540.31073
  20
185.32617
  0
VERTEX
  5
1e3
  8
Layer_0
  10
539.95819
  20
185.18823
  0
VERTEX
  5
1e4
  8
Layer_0
  10
539.59241
  20
185.0907
  0
VERTEX
  5
1e5
  8
Layer_0
  10
539.21686
  20
185.03467
  0
VERTEX
  5
1e6
  8
Layer_0
  10
538.81647
  20
185.01514
  0
VERTEX
  5
1e7
  8
Layer_0
  10
538.41608
  20
185.03467
  0
SEQEND
  0
ENDSEC
  0
EOF
