ISO-10303-21;
HEADER;
/* Generated by software containing ST-Developer
 * from STEP Tools, Inc. (www.steptools.com) 
 */

FILE_DESCRIPTION(
/* description */ (''),
/* implementation_level */ '2;1');

FILE_NAME(
/* name */ 
'C:\\Users\\Mark\\Desktop\\Inventor Projects\\Puzzles\\Barrel_Puzzle\\
Barrel3.stp',
/* time_stamp */ '2019-07-15T20:25:11-04:00',
/* author */ ('Mark'),
/* organization */ (''),
/* preprocessor_version */ 'ST-DEVELOPER v16.1',
/* originating_system */ 'Autodesk Inventor 2016',
/* authorisation */ '');

FILE_SCHEMA (('AUTOMOTIVE_DESIGN { 1 0 10303 214 3 1 1 }'));
ENDSEC;

DATA;
#10=MECHANICAL_DESIGN_GEOMETRIC_PRESENTATION_REPRESENTATION('',(#13),#391);
#11=SHAPE_REPRESENTATION_RELATIONSHIP('SRR','None',#403,#12);
#12=ADVANCED_BREP_SHAPE_REPRESENTATION('',(#14),#390);
#13=STYLED_ITEM('',(#412),#14);
#14=MANIFOLD_SOLID_BREP('Solid1',#225);
#15=(
BOUNDED_SURFACE()
B_SPLINE_SURFACE(2,2,((#345,#346,#347),(#348,#349,#350),(#351,#352,#353)),
 .UNSPECIFIED.,.F.,.F.,.F.)
B_SPLINE_SURFACE_WITH_KNOTS((3,3),(3,3),(-0.0479298971631777,0.0479298971631776),
(-2.91091886028974,-1.5707963267949),.UNSPECIFIED.)
GEOMETRIC_REPRESENTATION_ITEM()
RATIONAL_B_SPLINE_SURFACE(((1.,0.783783618618171,1.),(0.998851582356841,
0.782883507682131,0.998851582356841),(1.,0.783783618618171,1.)))
REPRESENTATION_ITEM('')
SURFACE()
);
#16=(
BOUNDED_SURFACE()
B_SPLINE_SURFACE(2,2,((#379,#380,#381),(#382,#383,#384),(#385,#386,#387)),
 .UNSPECIFIED.,.F.,.F.,.F.)
B_SPLINE_SURFACE_WITH_KNOTS((3,3),(3,3),(-0.0479298971631776,0.0479298971631776),
(1.5707963267949,2.91091886028974),.UNSPECIFIED.)
GEOMETRIC_REPRESENTATION_ITEM()
RATIONAL_B_SPLINE_SURFACE(((1.,0.783783618618171,1.),(0.998851582356841,
0.782883507682131,0.998851582356841),(1.,0.783783618618171,1.)))
REPRESENTATION_ITEM('')
SURFACE()
);
#17=CIRCLE('',#231,0.870088304763933);
#18=CIRCLE('',#232,0.870088304763933);
#19=CIRCLE('',#233,0.870088304763933);
#20=CIRCLE('',#234,4.07);
#21=CIRCLE('',#239,4.07);
#22=CIRCLE('',#241,0.870088304763933);
#23=FACE_OUTER_BOUND('',#35,.T.);
#24=FACE_OUTER_BOUND('',#36,.T.);
#25=FACE_OUTER_BOUND('',#37,.T.);
#26=FACE_OUTER_BOUND('',#38,.T.);
#27=FACE_OUTER_BOUND('',#39,.T.);
#28=FACE_OUTER_BOUND('',#40,.T.);
#29=FACE_OUTER_BOUND('',#41,.T.);
#30=FACE_OUTER_BOUND('',#42,.T.);
#31=FACE_OUTER_BOUND('',#43,.T.);
#32=FACE_OUTER_BOUND('',#44,.T.);
#33=FACE_OUTER_BOUND('',#45,.T.);
#34=FACE_OUTER_BOUND('',#46,.T.);
#35=EDGE_LOOP('',(#143,#144,#145,#146));
#36=EDGE_LOOP('',(#147,#148,#149,#150));
#37=EDGE_LOOP('',(#151,#152,#153,#154));
#38=EDGE_LOOP('',(#155,#156,#157,#158,#159,#160,#161,#162,#163,#164));
#39=EDGE_LOOP('',(#165,#166,#167,#168));
#40=EDGE_LOOP('',(#169,#170,#171,#172));
#41=EDGE_LOOP('',(#173,#174,#175,#176));
#42=EDGE_LOOP('',(#177,#178,#179,#180));
#43=EDGE_LOOP('',(#181,#182,#183,#184));
#44=EDGE_LOOP('',(#185,#186,#187,#188,#189,#190,#191,#192,#193,#194));
#45=EDGE_LOOP('',(#195,#196,#197,#198));
#46=EDGE_LOOP('',(#199,#200,#201,#202));
#47=B_SPLINE_CURVE_WITH_KNOTS('',3,(#308,#309,#310,#311,#312,#313),
 .UNSPECIFIED.,.F.,.F.,(4,2,4),(17.4166651677718,17.9008356310329,18.385006094294),
 .UNSPECIFIED.);
#48=B_SPLINE_CURVE_WITH_KNOTS('',3,(#324,#325,#326,#327,#328,#329),
 .UNSPECIFIED.,.F.,.F.,(4,2,4),(5.48277474708319,5.9669452103443,6.45111567360542),
 .UNSPECIFIED.);
#49=LINE('',#303,#71);
#50=LINE('',#305,#72);
#51=LINE('',#307,#73);
#52=LINE('',#316,#74);
#53=LINE('',#318,#75);
#54=LINE('',#319,#76);
#55=LINE('',#322,#77);
#56=LINE('',#330,#78);
#57=LINE('',#335,#79);
#58=LINE('',#337,#80);
#59=LINE('',#339,#81);
#60=LINE('',#341,#82);
#61=LINE('',#343,#83);
#62=LINE('',#359,#84);
#63=LINE('',#361,#85);
#64=LINE('',#362,#86);
#65=LINE('',#365,#87);
#66=LINE('',#366,#88);
#67=LINE('',#369,#89);
#68=LINE('',#370,#90);
#69=LINE('',#373,#91);
#70=LINE('',#377,#92);
#71=VECTOR('',#247,0.372027844445269);
#72=VECTOR('',#248,0.39);
#73=VECTOR('',#249,0.372027844445269);
#74=VECTOR('',#252,0.4);
#75=VECTOR('',#253,0.39);
#76=VECTOR('',#254,0.4);
#77=VECTOR('',#257,0.37202784444527);
#78=VECTOR('',#258,0.37202784444527);
#79=VECTOR('',#263,0.265088304763933);
#80=VECTOR('',#264,0.2175);
#81=VECTOR('',#265,1.21);
#82=VECTOR('',#266,0.2175);
#83=VECTOR('',#267,0.265088304763934);
#84=VECTOR('',#276,0.39);
#85=VECTOR('',#277,0.2175);
#86=VECTOR('',#278,0.39);
#87=VECTOR('',#281,0.39);
#88=VECTOR('',#282,1.21);
#89=VECTOR('',#285,0.39);
#90=VECTOR('',#286,0.2175);
#91=VECTOR('',#289,0.265088304763934);
#92=VECTOR('',#296,0.265088304763933);
#93=VERTEX_POINT('',#301);
#94=VERTEX_POINT('',#302);
#95=VERTEX_POINT('',#304);
#96=VERTEX_POINT('',#306);
#97=VERTEX_POINT('',#315);
#98=VERTEX_POINT('',#317);
#99=VERTEX_POINT('',#321);
#100=VERTEX_POINT('',#323);
#101=VERTEX_POINT('',#332);
#102=VERTEX_POINT('',#334);
#103=VERTEX_POINT('',#336);
#104=VERTEX_POINT('',#338);
#105=VERTEX_POINT('',#340);
#106=VERTEX_POINT('',#342);
#107=VERTEX_POINT('',#354);
#108=VERTEX_POINT('',#358);
#109=VERTEX_POINT('',#360);
#110=VERTEX_POINT('',#364);
#111=VERTEX_POINT('',#368);
#112=VERTEX_POINT('',#372);
#113=EDGE_CURVE('',#93,#94,#49,.T.);
#114=EDGE_CURVE('',#93,#95,#50,.T.);
#115=EDGE_CURVE('',#96,#95,#51,.T.);
#116=EDGE_CURVE('',#94,#96,#47,.T.);
#117=EDGE_CURVE('',#97,#93,#52,.T.);
#118=EDGE_CURVE('',#98,#97,#53,.T.);
#119=EDGE_CURVE('',#95,#98,#54,.T.);
#120=EDGE_CURVE('',#99,#97,#55,.T.);
#121=EDGE_CURVE('',#100,#99,#48,.T.);
#122=EDGE_CURVE('',#98,#100,#56,.T.);
#123=EDGE_CURVE('',#94,#101,#17,.T.);
#124=EDGE_CURVE('',#101,#102,#57,.T.);
#125=EDGE_CURVE('',#102,#103,#58,.T.);
#126=EDGE_CURVE('',#103,#104,#59,.T.);
#127=EDGE_CURVE('',#104,#105,#60,.T.);
#128=EDGE_CURVE('',#105,#106,#61,.T.);
#129=EDGE_CURVE('',#106,#99,#18,.T.);
#130=EDGE_CURVE('',#107,#96,#19,.T.);
#131=EDGE_CURVE('',#107,#101,#20,.T.);
#132=EDGE_CURVE('',#108,#104,#62,.T.);
#133=EDGE_CURVE('',#109,#108,#63,.T.);
#134=EDGE_CURVE('',#105,#109,#64,.T.);
#135=EDGE_CURVE('',#110,#103,#65,.T.);
#136=EDGE_CURVE('',#108,#110,#66,.T.);
#137=EDGE_CURVE('',#111,#102,#67,.T.);
#138=EDGE_CURVE('',#110,#111,#68,.T.);
#139=EDGE_CURVE('',#112,#109,#69,.T.);
#140=EDGE_CURVE('',#106,#112,#21,.T.);
#141=EDGE_CURVE('',#100,#112,#22,.T.);
#142=EDGE_CURVE('',#111,#107,#70,.T.);
#143=ORIENTED_EDGE('',*,*,#113,.F.);
#144=ORIENTED_EDGE('',*,*,#114,.T.);
#145=ORIENTED_EDGE('',*,*,#115,.F.);
#146=ORIENTED_EDGE('',*,*,#116,.F.);
#147=ORIENTED_EDGE('',*,*,#117,.F.);
#148=ORIENTED_EDGE('',*,*,#118,.F.);
#149=ORIENTED_EDGE('',*,*,#119,.F.);
#150=ORIENTED_EDGE('',*,*,#114,.F.);
#151=ORIENTED_EDGE('',*,*,#120,.F.);
#152=ORIENTED_EDGE('',*,*,#121,.F.);
#153=ORIENTED_EDGE('',*,*,#122,.F.);
#154=ORIENTED_EDGE('',*,*,#118,.T.);
#155=ORIENTED_EDGE('',*,*,#120,.T.);
#156=ORIENTED_EDGE('',*,*,#117,.T.);
#157=ORIENTED_EDGE('',*,*,#113,.T.);
#158=ORIENTED_EDGE('',*,*,#123,.T.);
#159=ORIENTED_EDGE('',*,*,#124,.T.);
#160=ORIENTED_EDGE('',*,*,#125,.T.);
#161=ORIENTED_EDGE('',*,*,#126,.T.);
#162=ORIENTED_EDGE('',*,*,#127,.T.);
#163=ORIENTED_EDGE('',*,*,#128,.T.);
#164=ORIENTED_EDGE('',*,*,#129,.T.);
#165=ORIENTED_EDGE('',*,*,#116,.T.);
#166=ORIENTED_EDGE('',*,*,#130,.F.);
#167=ORIENTED_EDGE('',*,*,#131,.T.);
#168=ORIENTED_EDGE('',*,*,#123,.F.);
#169=ORIENTED_EDGE('',*,*,#127,.F.);
#170=ORIENTED_EDGE('',*,*,#132,.F.);
#171=ORIENTED_EDGE('',*,*,#133,.F.);
#172=ORIENTED_EDGE('',*,*,#134,.F.);
#173=ORIENTED_EDGE('',*,*,#126,.F.);
#174=ORIENTED_EDGE('',*,*,#135,.F.);
#175=ORIENTED_EDGE('',*,*,#136,.F.);
#176=ORIENTED_EDGE('',*,*,#132,.T.);
#177=ORIENTED_EDGE('',*,*,#125,.F.);
#178=ORIENTED_EDGE('',*,*,#137,.F.);
#179=ORIENTED_EDGE('',*,*,#138,.F.);
#180=ORIENTED_EDGE('',*,*,#135,.T.);
#181=ORIENTED_EDGE('',*,*,#134,.T.);
#182=ORIENTED_EDGE('',*,*,#139,.F.);
#183=ORIENTED_EDGE('',*,*,#140,.F.);
#184=ORIENTED_EDGE('',*,*,#128,.F.);
#185=ORIENTED_EDGE('',*,*,#122,.T.);
#186=ORIENTED_EDGE('',*,*,#141,.T.);
#187=ORIENTED_EDGE('',*,*,#139,.T.);
#188=ORIENTED_EDGE('',*,*,#133,.T.);
#189=ORIENTED_EDGE('',*,*,#136,.T.);
#190=ORIENTED_EDGE('',*,*,#138,.T.);
#191=ORIENTED_EDGE('',*,*,#142,.T.);
#192=ORIENTED_EDGE('',*,*,#130,.T.);
#193=ORIENTED_EDGE('',*,*,#115,.T.);
#194=ORIENTED_EDGE('',*,*,#119,.T.);
#195=ORIENTED_EDGE('',*,*,#137,.T.);
#196=ORIENTED_EDGE('',*,*,#124,.F.);
#197=ORIENTED_EDGE('',*,*,#131,.F.);
#198=ORIENTED_EDGE('',*,*,#142,.F.);
#199=ORIENTED_EDGE('',*,*,#121,.T.);
#200=ORIENTED_EDGE('',*,*,#129,.F.);
#201=ORIENTED_EDGE('',*,*,#140,.T.);
#202=ORIENTED_EDGE('',*,*,#141,.F.);
#203=PLANE('',#227);
#204=PLANE('',#228);
#205=PLANE('',#229);
#206=PLANE('',#230);
#207=PLANE('',#235);
#208=PLANE('',#236);
#209=PLANE('',#237);
#210=PLANE('',#238);
#211=PLANE('',#240);
#212=PLANE('',#242);
#213=ADVANCED_FACE('',(#23),#203,.F.);
#214=ADVANCED_FACE('',(#24),#204,.F.);
#215=ADVANCED_FACE('',(#25),#205,.F.);
#216=ADVANCED_FACE('',(#26),#206,.T.);
#217=ADVANCED_FACE('',(#27),#15,.F.);
#218=ADVANCED_FACE('',(#28),#207,.F.);
#219=ADVANCED_FACE('',(#29),#208,.F.);
#220=ADVANCED_FACE('',(#30),#209,.F.);
#221=ADVANCED_FACE('',(#31),#210,.F.);
#222=ADVANCED_FACE('',(#32),#211,.T.);
#223=ADVANCED_FACE('',(#33),#212,.F.);
#224=ADVANCED_FACE('',(#34),#16,.F.);
#225=CLOSED_SHELL('',(#213,#214,#215,#216,#217,#218,#219,#220,#221,#222,
#223,#224));
#226=AXIS2_PLACEMENT_3D('placement',#299,#243,#244);
#227=AXIS2_PLACEMENT_3D('',#300,#245,#246);
#228=AXIS2_PLACEMENT_3D('',#314,#250,#251);
#229=AXIS2_PLACEMENT_3D('',#320,#255,#256);
#230=AXIS2_PLACEMENT_3D('',#331,#259,#260);
#231=AXIS2_PLACEMENT_3D('',#333,#261,#262);
#232=AXIS2_PLACEMENT_3D('',#344,#268,#269);
#233=AXIS2_PLACEMENT_3D('',#355,#270,#271);
#234=AXIS2_PLACEMENT_3D('',#356,#272,#273);
#235=AXIS2_PLACEMENT_3D('',#357,#274,#275);
#236=AXIS2_PLACEMENT_3D('',#363,#279,#280);
#237=AXIS2_PLACEMENT_3D('',#367,#283,#284);
#238=AXIS2_PLACEMENT_3D('',#371,#287,#288);
#239=AXIS2_PLACEMENT_3D('',#374,#290,#291);
#240=AXIS2_PLACEMENT_3D('',#375,#292,#293);
#241=AXIS2_PLACEMENT_3D('',#376,#294,#295);
#242=AXIS2_PLACEMENT_3D('',#378,#297,#298);
#243=DIRECTION('axis',(0.,0.,1.));
#244=DIRECTION('refdir',(1.,0.,0.));
#245=DIRECTION('center_axis',(-1.,0.,3.27821759239712E-16));
#246=DIRECTION('ref_axis',(3.52495810318487E-16,0.,1.));
#247=DIRECTION('',(3.27821759239712E-16,0.,1.));
#248=DIRECTION('',(0.,1.,0.));
#249=DIRECTION('',(-3.27821759239712E-16,0.,-1.));
#250=DIRECTION('center_axis',(-4.37095678986282E-16,0.,-1.));
#251=DIRECTION('ref_axis',(-1.,0.,4.22994972382185E-16));
#252=DIRECTION('',(-1.,0.,4.37095678986282E-16));
#253=DIRECTION('',(0.,-1.,0.));
#254=DIRECTION('',(1.,0.,-4.37095678986282E-16));
#255=DIRECTION('center_axis',(1.,0.,-3.27821759239712E-16));
#256=DIRECTION('ref_axis',(-3.52495810318487E-16,0.,-1.));
#257=DIRECTION('',(-3.27821759239712E-16,0.,-1.));
#258=DIRECTION('',(3.27821759239712E-16,0.,1.));
#259=DIRECTION('center_axis',(0.,-1.,0.));
#260=DIRECTION('ref_axis',(0.,0.,-1.));
#261=DIRECTION('center_axis',(0.,-1.,0.));
#262=DIRECTION('ref_axis',(0.,0.,-1.));
#263=DIRECTION('',(1.,0.,0.));
#264=DIRECTION('',(0.,0.,1.));
#265=DIRECTION('',(1.,0.,-2.52865268835039E-16));
#266=DIRECTION('',(2.00963530568406E-16,0.,-1.));
#267=DIRECTION('',(1.,0.,0.));
#268=DIRECTION('center_axis',(0.,-1.,0.));
#269=DIRECTION('ref_axis',(0.,0.,-1.));
#270=DIRECTION('center_axis',(0.,1.,0.));
#271=DIRECTION('ref_axis',(0.,0.,-1.));
#272=DIRECTION('center_axis',(0.,0.,1.));
#273=DIRECTION('ref_axis',(-1.,0.,0.));
#274=DIRECTION('center_axis',(1.,0.,2.00963530568406E-16));
#275=DIRECTION('ref_axis',(2.8199664825479E-16,0.,-1.));
#276=DIRECTION('',(0.,-1.,0.));
#277=DIRECTION('',(-2.00963530568406E-16,0.,1.));
#278=DIRECTION('',(0.,1.,0.));
#279=DIRECTION('center_axis',(2.52865268835039E-16,0.,1.));
#280=DIRECTION('ref_axis',(1.,0.,-2.8199664825479E-16));
#281=DIRECTION('',(0.,-1.,0.));
#282=DIRECTION('',(-1.,0.,2.52865268835039E-16));
#283=DIRECTION('center_axis',(-1.,0.,0.));
#284=DIRECTION('ref_axis',(0.,0.,1.));
#285=DIRECTION('',(0.,-1.,0.));
#286=DIRECTION('',(0.,0.,-1.));
#287=DIRECTION('center_axis',(0.,0.,1.));
#288=DIRECTION('ref_axis',(1.,0.,0.));
#289=DIRECTION('',(-1.,0.,0.));
#290=DIRECTION('center_axis',(0.,0.,1.));
#291=DIRECTION('ref_axis',(1.,0.,0.));
#292=DIRECTION('center_axis',(0.,1.,0.));
#293=DIRECTION('ref_axis',(0.,0.,1.));
#294=DIRECTION('center_axis',(0.,1.,0.));
#295=DIRECTION('ref_axis',(0.,0.,-1.));
#296=DIRECTION('',(-1.,0.,0.));
#297=DIRECTION('center_axis',(0.,0.,1.));
#298=DIRECTION('ref_axis',(1.,0.,0.));
#299=CARTESIAN_POINT('',(0.,0.,0.));
#300=CARTESIAN_POINT('Origin',(-0.2,1.,0.474762364571684));
#301=CARTESIAN_POINT('',(-0.2,0.805,0.474762364571684));
#302=CARTESIAN_POINT('',(-0.2,0.805,0.846790209016953));
#303=CARTESIAN_POINT('',(-0.2,0.805,0.419089040079049));
#304=CARTESIAN_POINT('',(-0.2,1.195,0.474762364571684));
#305=CARTESIAN_POINT('',(-0.2,1.,0.474762364571684));
#306=CARTESIAN_POINT('',(-0.2,1.195,0.846790209016953));
#307=CARTESIAN_POINT('',(-0.2,1.195,0.419089040079049));
#308=CARTESIAN_POINT('Ctrl Pts',(-0.2,0.805,0.846790209016953));
#309=CARTESIAN_POINT('Ctrl Pts',(-0.2,0.871272321070862,0.850056530480557));
#310=CARTESIAN_POINT('Ctrl Pts',(-0.2,0.936460569125838,0.851592152659384));
#311=CARTESIAN_POINT('Ctrl Pts',(-0.2,1.06353943087416,0.851592152659384));
#312=CARTESIAN_POINT('Ctrl Pts',(-0.2,1.12872767892914,0.850056530480557));
#313=CARTESIAN_POINT('Ctrl Pts',(-0.2,1.195,0.846790209016953));
#314=CARTESIAN_POINT('Origin',(0.2,1.,0.474762364571684));
#315=CARTESIAN_POINT('',(0.2,0.805,0.474762364571684));
#316=CARTESIAN_POINT('',(0.1,0.805,0.474762364571684));
#317=CARTESIAN_POINT('',(0.2,1.195,0.474762364571684));
#318=CARTESIAN_POINT('',(0.2,1.,0.474762364571684));
#319=CARTESIAN_POINT('',(0.1,1.195,0.474762364571684));
#320=CARTESIAN_POINT('Origin',(0.2,1.,1.27476236457168));
#321=CARTESIAN_POINT('',(0.2,0.805,0.846790209016953));
#322=CARTESIAN_POINT('',(0.2,0.805,0.819089040079049));
#323=CARTESIAN_POINT('',(0.2,1.195,0.846790209016953));
#324=CARTESIAN_POINT('Ctrl Pts',(0.2,1.195,0.846790209016953));
#325=CARTESIAN_POINT('Ctrl Pts',(0.2,1.12872767892914,0.850056530480557));
#326=CARTESIAN_POINT('Ctrl Pts',(0.2,1.06353943087416,0.851592152659384));
#327=CARTESIAN_POINT('Ctrl Pts',(0.2,0.936460569125838,0.851592152659384));
#328=CARTESIAN_POINT('Ctrl Pts',(0.2,0.871272321070862,0.850056530480557));
#329=CARTESIAN_POINT('Ctrl Pts',(0.2,0.805,0.846790209016953));
#330=CARTESIAN_POINT('',(0.2,1.195,0.819089040079049));
#331=CARTESIAN_POINT('Origin',(0.,0.805,0.363415715586414));
#332=CARTESIAN_POINT('',(-0.870088304763933,0.805,0.));
#333=CARTESIAN_POINT('Origin',(0.,0.805,0.));
#334=CARTESIAN_POINT('',(-0.605,0.805,0.));
#335=CARTESIAN_POINT('',(0.,0.805,0.));
#336=CARTESIAN_POINT('',(-0.605,0.805,0.2175));
#337=CARTESIAN_POINT('',(-0.605,0.805,0.0729578577932073));
#338=CARTESIAN_POINT('',(0.605,0.805,0.2175));
#339=CARTESIAN_POINT('',(-0.3025,0.805,0.2175));
#340=CARTESIAN_POINT('',(0.605,0.805,0.));
#341=CARTESIAN_POINT('',(0.605,0.805,0.290457857793207));
#342=CARTESIAN_POINT('',(0.870088304763933,0.805,0.));
#343=CARTESIAN_POINT('',(0.,0.805,0.));
#344=CARTESIAN_POINT('Origin',(0.,0.805,0.));
#345=CARTESIAN_POINT('Ctrl Pts',(-0.198931353245852,1.195,0.847041896710398));
#346=CARTESIAN_POINT('Ctrl Pts',(-0.870088304763934,1.195,0.689417862852837));
#347=CARTESIAN_POINT('Ctrl Pts',(-0.870088304763933,1.195,0.));
#348=CARTESIAN_POINT('Ctrl Pts',(-0.201069875417953,1.,0.856147640210646));
#349=CARTESIAN_POINT('Ctrl Pts',(-0.879441798323715,1.,0.696829139966764));
#350=CARTESIAN_POINT('Ctrl Pts',(-0.879441798323715,1.,0.));
#351=CARTESIAN_POINT('Ctrl Pts',(-0.198931353245852,0.805,0.847041896710398));
#352=CARTESIAN_POINT('Ctrl Pts',(-0.870088304763934,0.805,0.689417862852837));
#353=CARTESIAN_POINT('Ctrl Pts',(-0.870088304763933,0.805,0.));
#354=CARTESIAN_POINT('',(-0.870088304763933,1.195,0.));
#355=CARTESIAN_POINT('Origin',(0.,1.195,0.));
#356=CARTESIAN_POINT('Origin',(3.19523763542832,1.,0.));
#357=CARTESIAN_POINT('Origin',(0.605,1.,0.2175));
#358=CARTESIAN_POINT('',(0.605,1.195,0.2175));
#359=CARTESIAN_POINT('',(0.605,1.,0.2175));
#360=CARTESIAN_POINT('',(0.605,1.195,0.));
#361=CARTESIAN_POINT('',(0.605,1.195,0.290457857793207));
#362=CARTESIAN_POINT('',(0.605,1.02675091635201,0.));
#363=CARTESIAN_POINT('Origin',(-0.605,1.,0.2175));
#364=CARTESIAN_POINT('',(-0.605,1.195,0.2175));
#365=CARTESIAN_POINT('',(-0.605,1.,0.2175));
#366=CARTESIAN_POINT('',(-0.3025,1.195,0.2175));
#367=CARTESIAN_POINT('Origin',(-0.605,1.,-0.2175));
#368=CARTESIAN_POINT('',(-0.605,1.195,0.));
#369=CARTESIAN_POINT('',(-0.605,1.02675091635201,0.));
#370=CARTESIAN_POINT('',(-0.605,1.195,0.0729578577932073));
#371=CARTESIAN_POINT('Origin',(0.,1.05350183270401,0.));
#372=CARTESIAN_POINT('',(0.870088304763933,1.195,0.));
#373=CARTESIAN_POINT('',(0.,1.195,0.));
#374=CARTESIAN_POINT('Origin',(-3.19523763542832,1.,0.));
#375=CARTESIAN_POINT('Origin',(0.,1.195,0.363415715586414));
#376=CARTESIAN_POINT('Origin',(0.,1.195,0.));
#377=CARTESIAN_POINT('',(0.,1.195,0.));
#378=CARTESIAN_POINT('Origin',(0.,1.05350183270401,0.));
#379=CARTESIAN_POINT('Ctrl Pts',(0.870088304763933,1.195,0.));
#380=CARTESIAN_POINT('Ctrl Pts',(0.870088304763933,1.195,0.689417862852837));
#381=CARTESIAN_POINT('Ctrl Pts',(0.198931353245853,1.195,0.847041896710398));
#382=CARTESIAN_POINT('Ctrl Pts',(0.879441798323715,1.,0.));
#383=CARTESIAN_POINT('Ctrl Pts',(0.879441798323715,1.,0.696829139966764));
#384=CARTESIAN_POINT('Ctrl Pts',(0.201069875417954,1.,0.856147640210646));
#385=CARTESIAN_POINT('Ctrl Pts',(0.870088304763933,0.805,0.));
#386=CARTESIAN_POINT('Ctrl Pts',(0.870088304763933,0.805,0.689417862852837));
#387=CARTESIAN_POINT('Ctrl Pts',(0.198931353245853,0.805,0.847041896710398));
#388=UNCERTAINTY_MEASURE_WITH_UNIT(LENGTH_MEASURE(0.000393700787401575),
#392,'DISTANCE_ACCURACY_VALUE',
'Maximum model space distance between geometric entities at asserted c
onnectivities');
#389=UNCERTAINTY_MEASURE_WITH_UNIT(LENGTH_MEASURE(1.E-6),#393,
'DISTANCE_ACCURACY_VALUE',
'Maximum model space distance between geometric entities at asserted c
onnectivities');
#390=(
GEOMETRIC_REPRESENTATION_CONTEXT(3)
GLOBAL_UNCERTAINTY_ASSIGNED_CONTEXT((#388))
GLOBAL_UNIT_ASSIGNED_CONTEXT((#392,#398,#395))
REPRESENTATION_CONTEXT('','3D')
);
#391=(
GEOMETRIC_REPRESENTATION_CONTEXT(3)
GLOBAL_UNCERTAINTY_ASSIGNED_CONTEXT((#389))
GLOBAL_UNIT_ASSIGNED_CONTEXT((#393,#398,#395))
REPRESENTATION_CONTEXT('','3D')
);
#392=(
CONVERSION_BASED_UNIT('__CONSTANT UNIT inch',#394)
LENGTH_UNIT()
NAMED_UNIT(#397)
);
#393=(
LENGTH_UNIT()
NAMED_UNIT(*)
SI_UNIT(.MILLI.,.METRE.)
);
#394=LENGTH_MEASURE_WITH_UNIT(LENGTH_MEASURE(25.4),#393);
#395=(
NAMED_UNIT(*)
SI_UNIT($,.STERADIAN.)
SOLID_ANGLE_UNIT()
);
#396=DIMENSIONAL_EXPONENTS(0.,0.,0.,0.,0.,0.,0.);
#397=DIMENSIONAL_EXPONENTS(1.,0.,0.,0.,0.,0.,0.);
#398=(
CONVERSION_BASED_UNIT('degree',#400)
NAMED_UNIT(#396)
PLANE_ANGLE_UNIT()
);
#399=(
NAMED_UNIT(*)
PLANE_ANGLE_UNIT()
SI_UNIT($,.RADIAN.)
);
#400=PLANE_ANGLE_MEASURE_WITH_UNIT(PLANE_ANGLE_MEASURE(0.01745329252),#399);
#401=SHAPE_DEFINITION_REPRESENTATION(#402,#403);
#402=PRODUCT_DEFINITION_SHAPE('',$,#405);
#403=SHAPE_REPRESENTATION('',(#226),#390);
#404=PRODUCT_DEFINITION_CONTEXT('part definition',#409,'design');
#405=PRODUCT_DEFINITION('Barrel3','Barrel3',#406,#404);
#406=PRODUCT_DEFINITION_FORMATION('',$,#411);
#407=PRODUCT_RELATED_PRODUCT_CATEGORY('Barrel3','Barrel3',(#411));
#408=APPLICATION_PROTOCOL_DEFINITION('international standard',
'automotive_design',2009,#409);
#409=APPLICATION_CONTEXT(
'Core Data for Automotive Mechanical Design Process');
#410=PRODUCT_CONTEXT('part definition',#409,'mechanical');
#411=PRODUCT('Barrel3','Barrel3',$,(#410));
#412=PRESENTATION_STYLE_ASSIGNMENT((#413));
#413=SURFACE_STYLE_USAGE(.BOTH.,#414);
#414=SURFACE_SIDE_STYLE('',(#415));
#415=SURFACE_STYLE_FILL_AREA(#416);
#416=FILL_AREA_STYLE('',(#417));
#417=FILL_AREA_STYLE_COLOUR('',#418);
#418=COLOUR_RGB('',0.372549019607843,0.,0.729411764705882);
ENDSEC;
END-ISO-10303-21;
