  0
SECTION
  2
HEADER
  9
$MEASUREMENT
  70
  1
  9
$INSUNITS
  70
  4
  0
ENDSEC
  0
SECTION
  2
TABLES
  0
TABLE
  2
LTYPE
 70
     1
  0
LTYPE
  2
CONTINUOUS
 70
    64
  3
Ausgezogene Linie
 72
    65
 73
     0
 40
0.0
  0
ENDTAB
  0
TABLE
  2
LAYER
 70
     3
  0
LAYER
  2
Contour
 70
    64
 62
     7
  6
CONTINUOUS
  0
LAYER
  2
Engraving
 70
    64
 62
     7
  6
CONTINUOUS
  0
LAYER
  2
Reference_points
 70
    64
 62
     1
  6
CONTINUOUS
  0
ENDTAB
  0
TABLE
  2
STYLE
 70
     1
  0
STYLE
  2
TXT
 70
    64
 40
0.0
 41
1.0
 50
0.0
 71
     0
 42
3.500000
  3
TXT
  0
ENDTAB
  0
ENDSEC
  0
SECTION
  2
BLOCKS
  0
ENDSEC
  0
SECTION
  2
ENTITIES
  0
ARC
  8
Contour
 62
   7
 39
0.100
  6
CONTINUOUS
 10
59.00000
 20
21.70000
 30
 0
 40
1.00000
 50
0.00000
 51
90.00000
  0
LINE
  8
Contour
 62
   7
 39
0.100
  6
CONTINUOUS
 10
60.00000
 20
21.70000
 30
 0
 11
60.00000
 21
1.00000
  0
ARC
  8
Contour
 62
   7
 39
0.100
  6
CONTINUOUS
 10
59.00000
 20
1.00000
 30
 0
 40
1.00000
 50
-90.00000
 51
0.00000
  0
LINE
  8
Contour
 62
   7
 39
0.100
  6
CONTINUOUS
 10
59.00000
 20
0.00000
 30
 0
 11
1.00000
 21
0.00000
  0
ARC
  8
Contour
 62
   7
 39
0.100
  6
CONTINUOUS
 10
1.00000
 20
1.00000
 30
 0
 40
1.00000
 50
180.00000
 51
270.00000
  0
LINE
  8
Contour
 62
   7
 39
0.100
  6
CONTINUOUS
 10
0.00000
 20
1.00000
 30
 0
 11
0.00000
 21
21.70000
  0
ARC
  8
Contour
 62
   7
 39
0.100
  6
CONTINUOUS
 10
1.00000
 20
21.70000
 30
 0
 40
1.00000
 50
90.00000
 51
180.00000
  0
LINE
  8
Contour
 62
   7
 39
0.100
  6
CONTINUOUS
 10
1.00000
 20
22.70000
 30
 0
 11
59.00000
 21
22.70000
  0
ARC
  8
Contour
 62
   7
 39
0.100
  6
CONTINUOUS
 10
41.37500
 20
6.13700
 30
 0
 40
0.50000
 50
180.00000
 51
270.00000
  0
LINE
  8
Contour
 62
   7
 39
0.100
  6
CONTINUOUS
 10
41.37500
 20
5.63700
 30
 0
 11
51.37500
 21
5.63700
  0
ARC
  8
Contour
 62
   7
 39
0.100
  6
CONTINUOUS
 10
51.37500
 20
6.13700
 30
 0
 40
0.50000
 50
270.00000
 51
360.00000
  0
LINE
  8
Contour
 62
   7
 39
0.100
  6
CONTINUOUS
 10
51.87500
 20
6.13700
 30
 0
 11
51.87500
 21
16.13700
  0
ARC
  8
Contour
 62
   7
 39
0.100
  6
CONTINUOUS
 10
51.37500
 20
16.13700
 30
 0
 40
0.50000
 50
0.00000
 51
90.00000
  0
LINE
  8
Contour
 62
   7
 39
0.100
  6
CONTINUOUS
 10
51.37500
 20
16.63700
 30
 0
 11
41.37500
 21
16.63700
  0
ARC
  8
Contour
 62
   7
 39
0.100
  6
CONTINUOUS
 10
41.37500
 20
16.13700
 30
 0
 40
0.50000
 50
90.00000
 51
180.00000
  0
LINE
  8
Contour
 62
   7
 39
0.100
  6
CONTINUOUS
 10
40.87500
 20
16.13700
 30
 0
 11
40.87500
 21
6.13700
  0
ARC
  8
Contour
 62
   7
 39
0.100
  6
CONTINUOUS
 10
31.87500
 20
6.13700
 30
 0
 40
0.50000
 50
180.00000
 51
270.00000
  0
LINE
  8
Contour
 62
   7
 39
0.100
  6
CONTINUOUS
 10
31.87500
 20
5.63700
 30
 0
 11
38.87500
 21
5.63700
  0
ARC
  8
Contour
 62
   7
 39
0.100
  6
CONTINUOUS
 10
38.87500
 20
6.13700
 30
 0
 40
0.50000
 50
270.00000
 51
360.00000
  0
LINE
  8
Contour
 62
   7
 39
0.100
  6
CONTINUOUS
 10
39.37500
 20
6.13700
 30
 0
 11
39.37500
 21
13.13700
  0
ARC
  8
Contour
 62
   7
 39
0.100
  6
CONTINUOUS
 10
38.87500
 20
13.13700
 30
 0
 40
0.50000
 50
0.00000
 51
90.00000
  0
LINE
  8
Contour
 62
   7
 39
0.100
  6
CONTINUOUS
 10
38.87500
 20
13.63700
 30
 0
 11
31.87500
 21
13.63700
  0
ARC
  8
Contour
 62
   7
 39
0.100
  6
CONTINUOUS
 10
31.87500
 20
13.13700
 30
 0
 40
0.50000
 50
90.00000
 51
180.00000
  0
LINE
  8
Contour
 62
   7
 39
0.100
  6
CONTINUOUS
 10
31.37500
 20
13.13700
 30
 0
 11
31.37500
 21
6.13700
  0
ARC
  8
Contour
 62
   7
 39
0.100
  6
CONTINUOUS
 10
18.87500
 20
6.13700
 30
 0
 40
0.50000
 50
180.00000
 51
270.00000
  0
LINE
  8
Contour
 62
   7
 39
0.100
  6
CONTINUOUS
 10
18.87500
 20
5.63700
 30
 0
 11
28.87500
 21
5.63700
  0
ARC
  8
Contour
 62
   7
 39
0.100
  6
CONTINUOUS
 10
28.87500
 20
6.13700
 30
 0
 40
0.50000
 50
270.00000
 51
360.00000
  0
LINE
  8
Contour
 62
   7
 39
0.100
  6
CONTINUOUS
 10
29.37500
 20
6.13700
 30
 0
 11
29.37500
 21
13.13700
  0
ARC
  8
Contour
 62
   7
 39
0.100
  6
CONTINUOUS
 10
28.87500
 20
13.13700
 30
 0
 40
0.50000
 50
0.00000
 51
90.00000
  0
LINE
  8
Contour
 62
   7
 39
0.100
  6
CONTINUOUS
 10
28.87500
 20
13.63700
 30
 0
 11
18.87500
 21
13.63700
  0
ARC
  8
Contour
 62
   7
 39
0.100
  6
CONTINUOUS
 10
18.87500
 20
13.13700
 30
 0
 40
0.50000
 50
90.00000
 51
180.00000
  0
LINE
  8
Contour
 62
   7
 39
0.100
  6
CONTINUOUS
 10
18.37500
 20
13.13700
 30
 0
 11
18.37500
 21
6.13700
  0
ARC
  8
Contour
 62
   7
 39
0.100
  6
CONTINUOUS
 10
6.87500
 20
5.63700
 30
 0
 40
0.50000
 50
180.00000
 51
270.00000
  0
LINE
  8
Contour
 62
   7
 39
0.100
  6
CONTINUOUS
 10
6.87500
 20
5.13700
 30
 0
 11
15.87500
 21
5.13700
  0
ARC
  8
Contour
 62
   7
 39
0.100
  6
CONTINUOUS
 10
15.87500
 20
5.63700
 30
 0
 40
0.50000
 50
270.00000
 51
360.00000
  0
LINE
  8
Contour
 62
   7
 39
0.100
  6
CONTINUOUS
 10
16.37500
 20
5.63700
 30
 0
 11
16.37500
 21
16.63700
  0
ARC
  8
Contour
 62
   7
 39
0.100
  6
CONTINUOUS
 10
15.87500
 20
16.63700
 30
 0
 40
0.50000
 50
0.00000
 51
90.00000
  0
LINE
  8
Contour
 62
   7
 39
0.100
  6
CONTINUOUS
 10
15.87500
 20
17.13700
 30
 0
 11
6.87500
 21
17.13700
  0
ARC
  8
Contour
 62
   7
 39
0.100
  6
CONTINUOUS
 10
6.87500
 20
16.63700
 30
 0
 40
0.50000
 50
90.00000
 51
180.00000
  0
LINE
  8
Contour
 62
   7
 39
0.100
  6
CONTINUOUS
 10
6.37500
 20
16.63700
 30
 0
 11
6.37500
 21
5.63700
  0
LINE
  8
Reference_points
 62
   1
 39
0.100
  6
CONTINUOUS
 10
-0.20900
 20
0.00000
 30
 0
 11
0.20900
 21
0.00000
  0
LINE
  8
Reference_points
 62
   1
 39
0.100
  6
CONTINUOUS
 10
0.00000
 20
-0.20900
 30
 0
 11
0.00000
 21
0.20900
  0
LINE
  8
Reference_points
 62
   1
 39
0.100
  6
CONTINUOUS
 10
46.16600
 20
11.13700
 30
 0
 11
46.58400
 21
11.13700
  0
LINE
  8
Reference_points
 62
   1
 39
0.100
  6
CONTINUOUS
 10
46.37500
 20
10.92800
 30
 0
 11
46.37500
 21
11.34600
  0
LINE
  8
Reference_points
 62
   1
 39
0.100
  6
CONTINUOUS
 10
35.16600
 20
9.63700
 30
 0
 11
35.58400
 21
9.63700
  0
LINE
  8
Reference_points
 62
   1
 39
0.100
  6
CONTINUOUS
 10
35.37500
 20
9.42800
 30
 0
 11
35.37500
 21
9.84600
  0
LINE
  8
Reference_points
 62
   1
 39
0.100
  6
CONTINUOUS
 10
23.66600
 20
9.63700
 30
 0
 11
24.08400
 21
9.63700
  0
LINE
  8
Reference_points
 62
   1
 39
0.100
  6
CONTINUOUS
 10
23.87500
 20
9.42800
 30
 0
 11
23.87500
 21
9.84600
  0
LINE
  8
Reference_points
 62
   1
 39
0.100
  6
CONTINUOUS
 10
11.16600
 20
11.13700
 30
 0
 11
11.58400
 21
11.13700
  0
LINE
  8
Reference_points
 62
   1
 39
0.100
  6
CONTINUOUS
 10
11.37500
 20
10.92800
 30
 0
 11
11.37500
 21
11.34600
  0
ENDSEC
  0
EOF
