  0
SECTION
  2
HEADER
  9
$ACADVER
  1
AC1009
  9
$DWGCODEPAGE
  3
ansi_1252
  9
$INSBASE
 10
0.0
 20
0.0
 30
0.0
  9
$EXTMIN
 10
0.284789132398101
 20
2.403305034463576
 30
0.0
  9
$EXTMAX
 10
14.7152108676019
 20
24.70336725914418
 30
0.0
  9
$LIMMIN
 10
0.0
 20
0.0
  9
$LIMMAX
 10
12.0
 20
9.0
  9
$ORTHOMODE
 70
     0
  9
$REGENMODE
 70
     1
  9
$FILLMODE
 70
     1
  9
$QTEXTMODE
 70
     0
  9
$MIRRTEXT
 70
     1
  9
$DRAGMODE
 70
     2
  9
$LTSCALE
 40
1.0
  9
$OSMODE
 70
    37
  9
$ATTMODE
 70
     1
  9
$TEXTSIZE
 40
0.2
  9
$TRACEWID
 40
0.05
  9
$TEXTSTYLE
  7
STANDARD
  9
$CLAYER
  8
0
  9
$CELTYPE
  6
BYLAYER
  9
$CECOLOR
 62
   256
  9
$DIMSCALE
 40
1.0
  9
$DIMASZ
 40
0.18
  9
$DIMEXO
 40
0.0625
  9
$DIMDLI
 40
0.38
  9
$DIMRND
 40
0.0
  9
$DIMDLE
 40
0.0
  9
$DIMEXE
 40
0.18
  9
$DIMTP
 40
0.0
  9
$DIMTM
 40
0.0
  9
$DIMTXT
 40
0.18
  9
$DIMCEN
 40
0.09
  9
$DIMTSZ
 40
0.0
  9
$DIMTOL
 70
     0
  9
$DIMLIM
 70
     0
  9
$DIMTIH
 70
     1
  9
$DIMTOH
 70
     1
  9
$DIMSE1
 70
     0
  9
$DIMSE2
 70
     0
  9
$DIMTAD
 70
     0
  9
$DIMZIN
 70
     0
  9
$DIMBLK
  1

  9
$DIMASO
 70
     1
  9
$DIMSHO
 70
     1
  9
$DIMPOST
  1

  9
$DIMAPOST
  1

  9
$DIMALT
 70
     0
  9
$DIMALTD
 70
     2
  9
$DIMALTF
 40
25.4
  9
$DIMLFAC
 40
1.0
  9
$DIMTOFL
 70
     0
  9
$DIMTVP
 40
0.0
  9
$DIMTIX
 70
     0
  9
$DIMSOXD
 70
     0
  9
$DIMSAH
 70
     0
  9
$DIMBLK1
  1

  9
$DIMBLK2
  1

  9
$DIMSTYLE
  2
STANDARD
  9
$DIMCLRD
 70
     0
  9
$DIMCLRE
 70
     0
  9
$DIMCLRT
 70
     0
  9
$DIMTFAC
 40
1.0
  9
$DIMGAP
 40
0.09
  9
$LUNITS
 70
     2
  9
$LUPREC
 70
     4
  9
$SKETCHINC
 40
0.1
  9
$FILLETRAD
 40
0.5
  9
$AUNITS
 70
     0
  9
$AUPREC
 70
     0
  9
$MENU
  1
.
  9
$ELEVATION
 40
0.0
  9
$PELEVATION
 40
0.0
  9
$THICKNESS
 40
0.0
  9
$LIMCHECK
 70
     0
  9
$CHAMFERA
 40
0.0
  9
$CHAMFERB
 40
0.0
  9
$SKPOLY
 70
     0
  9
$TDCREATE
 40
2454910.5
  9
$TDUPDATE
 40
2457456.854354016
  9
$TDINDWG
 40
0.0000000116
  9
$TDUSRTIMER
 40
0.0000000116
  9
$USRTIMER
 70
     1
  9
$ANGBASE
 50
0.0
  9
$ANGDIR
 70
     0
  9
$PDMODE
 70
     0
  9
$PDSIZE
 40
0.0
  9
$PLINEWID
 40
0.0
  9
$COORDS
 70
     1
  9
$SPLFRAME
 70
     0
  9
$SPLINETYPE
 70
     6
  9
$SPLINESEGS
 70
     8
  9
$ATTDIA
 70
     0
  9
$ATTREQ
 70
     1
  9
$HANDLING
 70
     1
  9
$HANDSEED
  5
FE6
  9
$SURFTAB1
 70
     6
  9
$SURFTAB2
 70
     6
  9
$SURFTYPE
 70
     6
  9
$SURFU
 70
     6
  9
$SURFV
 70
     6
  9
$UCSNAME
  2

  9
$UCSORG
 10
0.0
 20
0.0
 30
0.0
  9
$UCSXDIR
 10
1.0
 20
0.0
 30
0.0
  9
$UCSYDIR
 10
0.0
 20
1.0
 30
0.0
  9
$PUCSNAME
  2

  9
$PUCSORG
 10
0.0
 20
0.0
 30
0.0
  9
$PUCSXDIR
 10
1.0
 20
0.0
 30
0.0
  9
$PUCSYDIR
 10
0.0
 20
1.0
 30
0.0
  9
$USERI1
 70
     0
  9
$USERI2
 70
     0
  9
$USERI3
 70
     0
  9
$USERI4
 70
     0
  9
$USERI5
 70
     0
  9
$USERR1
 40
0.0
  9
$USERR2
 40
0.0
  9
$USERR3
 40
0.0
  9
$USERR4
 40
0.0
  9
$USERR5
 40
0.0
  9
$WORLDVIEW
 70
     1
  9
$SHADEDGE
 70
     3
  9
$SHADEDIF
 70
    70
  9
$TILEMODE
 70
     1
  9
$MAXACTVP
 70
    64
  9
$PLIMCHECK
 70
     0
  9
$PEXTMIN
 10
1.000000000000000E+20
 20
1.000000000000000E+20
 30
1.000000000000000E+20
  9
$PEXTMAX
 10
-1.000000000000000E+20
 20
-1.000000000000000E+20
 30
-1.000000000000000E+20
  9
$PLIMMIN
 10
0.0
 20
0.0
  9
$PLIMMAX
 10
12.0
 20
9.0
  9
$UNITMODE
 70
     0
  9
$VISRETAIN
 70
     1
  9
$PLINEGEN
 70
     0
  9
$PSLTSCALE
 70
     1
  0
ENDSEC
  0
SECTION
  2
TABLES
  0
TABLE
  2
VPORT
 70
     1
  0
VPORT
  2
*ACTIVE
 70
     0
 10
0.0
 20
0.0
 11
1.0
 21
1.0
 12
10.42990654205607
 22
4.5
 13
0.0
 23
0.0
 14
0.5
 24
0.5
 15
0.5
 25
0.5
 16
0.0
 26
0.0
 36
1.0
 17
0.0
 27
0.0
 37
0.0
 40
9.0
 41
1.972972972850329
 42
50.0
 43
0.0
 44
0.0
 50
0.0
 51
0.0
 71
     0
 72
   100
 73
     1
 74
     3
 75
     0
 76
     0
 77
     0
 78
     0
  0
ENDTAB
  0
TABLE
  2
LTYPE
 70
     2
  0
LTYPE
  2
CONTINUOUS
 70
     0
  3
Solid line
 72
    65
 73
     0
 40
0.0
  0
LTYPE
  2
CONTINUOUS2
 70
     0
  3
Solid Line
 72
    65
 73
     0
 40
0.0
  0
ENDTAB
  0
TABLE
  2
LAYER
 70
     3
  0
LAYER
  2
0
 70
     0
 62
     7
  6
CONTINUOUS
  0
LAYER
  2
DARTH
 70
     0
 62
    18
  6
CONTINUOUS
  0
LAYER
  2
STAR_WARS
 70
     0
 62
    18
  6
CONTINUOUS
  0
ENDTAB
  0
TABLE
  2
STYLE
 70
     1
  0
STYLE
  2
STANDARD
 70
     0
 40
0.0
 41
1.0
 50
0.0
 71
     0
 42
0.2
  3
txt
  4

  0
ENDTAB
  0
TABLE
  2
VIEW
 70
     0
  0
ENDTAB
  0
TABLE
  2
UCS
 70
     0
  0
ENDTAB
  0
TABLE
  2
APPID
 70
     1
  0
APPID
  2
ACAD
 70
     0
  0
ENDTAB
  0
TABLE
  2
DIMSTYLE
 70
     1
  0
DIMSTYLE
  2
STANDARD
 70
     0
  3

  4

  5

  6

  7

 40
1.0
 41
0.18
 42
0.0625
 43
0.38
 44
0.18
 45
0.0
 46
0.0
 47
0.0
 48
0.0
140
0.18
141
0.09
142
0.0
143
25.4
144
1.0
145
0.0
146
1.0
147
0.09
 71
     0
 72
     0
 73
     1
 74
     1
 75
     0
 76
     0
 77
     0
 78
     0
170
     0
171
     2
172
     0
173
     0
174
     0
175
     0
176
     0
177
     0
178
     0
  0
ENDTAB
  0
ENDSEC
  0
SECTION
  2
BLOCKS
  0
BLOCK
  8
0
  2
$MODEL_SPACE
 70
     0
 10
0.0
 20
0.0
 30
0.0
  3
$MODEL_SPACE
  1

  0
ENDBLK
  5
21
  8
0
  0
BLOCK
 67
     1
  8
0
  2
$PAPER_SPACE
 70
     0
 10
0.0
 20
0.0
 30
0.0
  3
$PAPER_SPACE
  1

  0
ENDBLK
  5
1D
 67
     1
  8
0
  0
ENDSEC
  0
SECTION
  2
ENTITIES
  0
POLYLINE
  5
70
  8
DARTH
 66
     1
 10
0.0
 20
0.0
 30
0.0
 70
     1
  0
VERTEX
  5
BB
  8
DARTH
 10
6.597919050822865
 20
2.580873385402317
 30
0.0
  0
VERTEX
  5
BC
  8
DARTH
 10
7.764275292800983
 20
2.407639033866513
 30
0.0
  0
VERTEX
  5
BD
  8
DARTH
 10
7.79643813717121
 20
2.403305034463576
 30
0.0
  0
VERTEX
  5
BE
  8
DARTH
 10
7.769377847429924
 20
4.489652098929307
 30
0.0
  0
VERTEX
  5
BF
  8
DARTH
 10
7.745729985561287
 20
4.530555006763953
 30
0.0
  0
VERTEX
  5
C0
  8
DARTH
 10
6.359200840949208
 20
5.775845907243376
 30
0.0
  0
VERTEX
  5
C1
  8
DARTH
 10
6.217926587468956
 20
5.787940752648531
 30
0.0
  0
VERTEX
  5
C2
  8
DARTH
 10
6.160560343925662
 20
5.793335798201861
 30
0.0
  0
VERTEX
  5
C3
  8
DARTH
 10
6.108799670421345
 20
5.799084373767243
 30
0.0
  0
VERTEX
  5
C4
  8
DARTH
 10
6.086796483998342
 20
5.801876400787878
 30
0.0
  0
VERTEX
  5
C5
  8
DARTH
 10
6.068324763962531
 20
5.804499008891638
 30
0.0
  0
VERTEX
  5
C6
  8
DARTH
 10
6.054094534939726
 20
5.806866264271892
 30
0.0
  0
VERTEX
  5
C7
  8
DARTH
 10
6.044815821555746
 20
5.808892233122011
 30
0.0
  0
VERTEX
  5
C8
  8
DARTH
 10
6.012979309122787
 20
5.817748868190336
 30
0.0
  0
VERTEX
  5
C9
  8
DARTH
 10
5.992414310500211
 20
5.732187683988899
 30
0.0
  0
VERTEX
  5
CA
  8
DARTH
 10
5.471513727370606
 20
3.321297742828497
 30
0.0
  0
VERTEX
  5
CB
  8
DARTH
 10
5.45171190241533
 20
3.208027106615884
 30
0.0
  0
VERTEX
  5
CC
  8
DARTH
 10
6.187924177426874
 20
2.764938525637636
 30
0.0
  0
VERTEX
  5
CD
  8
DARTH
 10
6.231383936536748
 20
2.753505398488077
 30
0.0
  0
VERTEX
  5
CE
  8
DARTH
 10
6.277712126136949
 20
2.907584419980418
 30
0.0
  0
VERTEX
  5
CF
  8
DARTH
 10
6.394798866056039
 20
3.299160132023284
 30
0.0
  0
VERTEX
  5
D0
  8
DARTH
 10
6.465557416374926
 20
3.536656822573804
 30
0.0
  0
VERTEX
  5
D1
  8
DARTH
 10
6.491467379786725
 20
3.469660200746059
 30
0.0
  0
VERTEX
  5
D2
  8
DARTH
 10
6.571742235240539
 20
2.690757296678854
 30
0.0
  0
SEQEND
  5
FA3
  8
DARTH
  0
POLYLINE
  5
71
  8
DARTH
 66
     1
 10
0.0
 20
0.0
 30
0.0
 70
     1
  0
VERTEX
  5
D3
  8
DARTH
 10
8.061377072974224
 20
2.475900486521473
 30
0.0
  0
VERTEX
  5
D4
  8
DARTH
 10
8.116636130355197
 20
2.440963609159187
 30
0.0
  0
VERTEX
  5
D5
  8
DARTH
 10
8.557063351080508
 20
2.440395648942966
 30
0.0
  0
VERTEX
  5
D6
  8
DARTH
 10
8.786880991077334
 20
2.486928469442793
 30
0.0
  0
VERTEX
  5
D7
  8
DARTH
 10
8.836593060265175
 20
2.497411993680555
 30
0.0
  0
VERTEX
  5
D8
  8
DARTH
 10
8.889825947429756
 20
2.509388340042596
 30
0.0
  0
VERTEX
  5
D9
  8
DARTH
 10
8.944924336720721
 20
2.522438351686314
 30
0.0
  0
VERTEX
  5
DA
  8
DARTH
 10
9.000232912287705
 20
2.536142871769107
 30
0.0
  0
VERTEX
  5
DB
  8
DARTH
 10
9.054096358280347
 20
2.550082743448375
 30
0.0
  0
VERTEX
  5
DC
  8
DARTH
 10
9.10485935884828
 20
2.563838809881513
 30
0.0
  0
VERTEX
  5
DD
  8
DARTH
 10
9.150866598141146
 20
2.576991914225923
 30
0.0
  0
VERTEX
  5
DE
  8
DARTH
 10
9.190462760308584
 20
2.589122899639001
 30
0.0
  0
VERTEX
  5
DF
  8
DARTH
 10
9.364226889543009
 20
2.644784509335384
 30
0.0
  0
VERTEX
  5
E0
  8
DARTH
 10
9.404626852576959
 20
2.693463486799169
 30
0.0
  0
VERTEX
  5
E1
  8
DARTH
 10
9.61155290049796
 20
3.110255376267455
 30
0.0
  0
VERTEX
  5
E2
  8
DARTH
 10
9.683615197539877
 20
3.327048402986147
 30
0.0
  0
VERTEX
  5
E3
  8
DARTH
 10
9.698776028228938
 20
3.37381490633299
 30
0.0
  0
VERTEX
  5
E4
  8
DARTH
 10
9.714244002361765
 20
3.423663465911514
 30
0.0
  0
VERTEX
  5
E5
  8
DARTH
 10
9.729585889331512
 20
3.475058341310903
 30
0.0
  0
VERTEX
  5
E6
  8
DARTH
 10
9.744368458531333
 20
3.52646379212034
 30
0.0
  0
VERTEX
  5
E7
  8
DARTH
 10
9.758158479354387
 20
3.576344077929009
 30
0.0
  0
VERTEX
  5
E8
  8
DARTH
 10
9.770522721193826
 20
3.623163458326095
 30
0.0
  0
VERTEX
  5
E9
  8
DARTH
 10
9.781027953442806
 20
3.665386192900781
 30
0.0
  0
VERTEX
  5
EA
  8
DARTH
 10
9.789240945494482
 20
3.701476541242252
 30
0.0
  0
VERTEX
  5
EB
  8
DARTH
 10
9.822804396407172
 20
3.859111652779664
 30
0.0
  0
VERTEX
  5
EC
  8
DARTH
 10
9.819848225057846
 20
4.526742713408698
 30
0.0
  0
VERTEX
  5
ED
  8
DARTH
 10
9.720659798768178
 20
4.897648858202606
 30
0.0
  0
VERTEX
  5
EE
  8
DARTH
 10
9.518637694840303
 20
5.305645617475903
 30
0.0
  0
VERTEX
  5
EF
  8
DARTH
 10
9.326992119154744
 20
5.557886929252524
 30
0.0
  0
VERTEX
  5
F0
  8
DARTH
 10
9.283045806628667
 20
5.546734611591944
 30
0.0
  0
VERTEX
  5
F1
  8
DARTH
 10
8.01463694053687
 20
4.586245071091801
 30
0.0
  0
VERTEX
  5
F2
  8
DARTH
 10
8.017491688673413
 20
4.174381875854484
 30
0.0
  0
SEQEND
  5
FA4
  8
DARTH
  0
POLYLINE
  5
72
  8
DARTH
 66
     1
 10
0.0
 20
0.0
 30
0.0
 70
     1
  0
VERTEX
  5
F3
  8
DARTH
 10
5.032769814643659
 20
3.440542493061038
 30
0.0
  0
VERTEX
  5
F4
  8
DARTH
 10
5.202265889331828
 20
3.311122615541429
 30
0.0
  0
VERTEX
  5
F5
  8
DARTH
 10
5.2284694818566
 20
3.339843050068191
 30
0.0
  0
VERTEX
  5
F6
  8
DARTH
 10
5.807745379013118
 20
5.83436307374846
 30
0.0
  0
VERTEX
  5
F7
  8
DARTH
 10
5.807745379013118
 20
5.873165077125075
 30
0.0
  0
VERTEX
  5
F8
  8
DARTH
 10
5.747473130484108
 20
5.827976281792806
 30
0.0
  0
VERTEX
  5
F9
  8
DARTH
 10
5.733662400339274
 20
5.818025099686485
 30
0.0
  0
VERTEX
  5
FA
  8
DARTH
 10
5.717485513562734
 20
5.807052546119428
 30
0.0
  0
VERTEX
  5
FB
  8
DARTH
 10
5.69953197186411
 20
5.795419543107637
 30
0.0
  0
VERTEX
  5
FC
  8
DARTH
 10
5.680391276953022
 20
5.783487012667119
 30
0.0
  0
VERTEX
  5
FD
  8
DARTH
 10
5.660652930539094
 20
5.771615876813881
 30
0.0
  0
VERTEX
  5
FE
  8
DARTH
 10
5.640906434331946
 20
5.76016705756393
 30
0.0
  0
VERTEX
  5
FF
  8
DARTH
 10
5.621741290041196
 20
5.749501476933272
 30
0.0
  0
VERTEX
  5
100
  8
DARTH
 10
5.60374699937647
 20
5.739980056937911
 30
0.0
  0
VERTEX
  5
101
  8
DARTH
 10
5.52029311679784
 20
5.697172627415286
 30
0.0
  0
VERTEX
  5
102
  8
DARTH
 10
5.28179282359604
 20
5.695097069509508
 30
0.0
  0
VERTEX
  5
103
  8
DARTH
 10
5.167932279243629
 20
5.419517982833433
 30
0.0
  0
VERTEX
  5
104
  8
DARTH
 10
5.162164306723966
 20
5.458737446675919
 30
0.0
  0
VERTEX
  5
105
  8
DARTH
 10
5.161386278383993
 20
5.469362525957792
 30
0.0
  0
VERTEX
  5
106
  8
DARTH
 10
5.161396259575709
 20
5.484584513118323
 30
0.0
  0
VERTEX
  5
107
  8
DARTH
 10
5.162141416620031
 20
5.503690575382413
 30
0.0
  0
VERTEX
  5
108
  8
DARTH
 10
5.163568915837875
 20
5.525967879974965
 30
0.0
  0
VERTEX
  5
109
  8
DARTH
 10
5.165625923550154
 20
5.550703594120887
 30
0.0
  0
VERTEX
  5
10A
  8
DARTH
 10
5.168259606077784
 20
5.577184885045082
 30
0.0
  0
VERTEX
  5
10B
  8
DARTH
 10
5.17141712974168
 20
5.604698919972451
 30
0.0
  0
VERTEX
  5
10C
  8
DARTH
 10
5.175045660862758
 20
5.632532866127901
 30
0.0
  0
VERTEX
  5
10D
  8
DARTH
 10
5.193694987521212
 20
5.7671088217374
 30
0.0
  0
VERTEX
  5
10E
  8
DARTH
 10
5.131376423457978
 20
5.852003693931685
 30
0.0
  0
VERTEX
  5
10F
  8
DARTH
 10
5.118229580959094
 20
5.870627703021835
 30
0.0
  0
VERTEX
  5
110
  8
DARTH
 10
5.10475004532961
 20
5.891038069897466
 30
0.0
  0
VERTEX
  5
111
  8
DARTH
 10
5.091319692856154
 20
5.912571006136561
 30
0.0
  0
VERTEX
  5
112
  8
DARTH
 10
5.078320399825353
 20
5.934562723317108
 30
0.0
  0
VERTEX
  5
113
  8
DARTH
 10
5.066134042523835
 20
5.956349433017088
 30
0.0
  0
VERTEX
  5
114
  8
DARTH
 10
5.055142497238226
 20
5.977267346814489
 30
0.0
  0
VERTEX
  5
115
  8
DARTH
 10
5.045727640255154
 20
5.996652676287294
 30
0.0
  0
VERTEX
  5
116
  8
DARTH
 10
5.038271347861246
 20
6.013841633013488
 30
0.0
  0
VERTEX
  5
117
  8
DARTH
 10
5.007484836327746
 20
6.090784699901006
 30
0.0
  0
VERTEX
  5
118
  8
DARTH
 10
4.35193876069703
 20
6.495421314814518
 30
0.0
  0
VERTEX
  5
119
  8
DARTH
 10
4.284841208772004
 20
6.535710239104779
 30
0.0
  0
VERTEX
  5
11A
  8
DARTH
 10
4.258006394070186
 20
6.551353672989356
 30
0.0
  0
VERTEX
  5
11B
  8
DARTH
 10
4.234542007214767
 20
6.564164291884774
 30
0.0
  0
VERTEX
  5
11C
  8
DARTH
 10
4.216974913573571
 20
6.57282011546276
 30
0.0
  0
VERTEX
  5
11D
  8
DARTH
 10
4.211192497135753
 20
6.57517686015513
 30
0.0
  0
VERTEX
  5
11E
  8
DARTH
 10
4.207831978514426
 20
6.575999163395039
 30
0.0
  0
VERTEX
  5
11F
  8
DARTH
 10
4.197920300181877
 20
6.575999163395039
 30
0.0
  0
VERTEX
  5
120
  8
DARTH
 10
4.277947534466302
 20
6.394159980765094
 30
0.0
  0
VERTEX
  5
121
  8
DARTH
 10
4.298693177927691
 20
6.346098475945091
 30
0.0
  0
VERTEX
  5
122
  8
DARTH
 10
4.318977361561297
 20
6.297263082150987
 30
0.0
  0
VERTEX
  5
123
  8
DARTH
 10
4.338758492356524
 20
6.247783418997326
 30
0.0
  0
VERTEX
  5
124
  8
DARTH
 10
4.357994977302781
 20
6.197789106098649
 30
0.0
  0
VERTEX
  5
125
  8
DARTH
 10
4.37664522338947
 20
6.147409763069501
 30
0.0
  0
VERTEX
  5
126
  8
DARTH
 10
4.394667637606
 20
6.096775009524422
 30
0.0
  0
VERTEX
  5
127
  8
DARTH
 10
4.412020626941777
 20
6.046014465077956
 30
0.0
  0
VERTEX
  5
128
  8
DARTH
 10
4.428662598386207
 20
5.995257749344647
 30
0.0
  0
VERTEX
  5
129
  8
DARTH
 10
4.444551958928697
 20
5.944634481939036
 30
0.0
  0
VERTEX
  5
12A
  8
DARTH
 10
4.459647115558651
 20
5.894274282475665
 30
0.0
  0
VERTEX
  5
12B
  8
DARTH
 10
4.473906475265476
 20
5.844306770569078
 30
0.0
  0
VERTEX
  5
12C
  8
DARTH
 10
4.487288445038578
 20
5.794861565833818
 30
0.0
  0
VERTEX
  5
12D
  8
DARTH
 10
4.499751431867365
 20
5.746068287884427
 30
0.0
  0
VERTEX
  5
12E
  8
DARTH
 10
4.511253842741239
 20
5.698056556335447
 30
0.0
  0
VERTEX
  5
12F
  8
DARTH
 10
4.52175408464961
 20
5.650955990801422
 30
0.0
  0
VERTEX
  5
130
  8
DARTH
 10
4.531210564581883
 20
5.604896210896893
 30
0.0
  0
VERTEX
  5
131
  8
DARTH
 10
4.571705091423043
 20
5.39837215367438
 30
0.0
  0
VERTEX
  5
132
  8
DARTH
 10
4.572544114729487
 20
4.916194165442301
 30
0.0
  0
VERTEX
  5
133
  8
DARTH
 10
4.530663459813856
 20
4.775490905127702
 30
0.0
  0
VERTEX
  5
134
  8
DARTH
 10
4.566730981968647
 20
4.422949324020612
 30
0.0
  0
VERTEX
  5
135
  8
DARTH
 10
4.659360146821645
 20
4.063110032416313
 30
0.0
  0
VERTEX
  5
136
  8
DARTH
 10
4.841635230984696
 20
3.692203887622405
 30
0.0
  0
SEQEND
  5
FA5
  8
DARTH
  0
POLYLINE
  5
73
  8
DARTH
 66
     1
 10
0.0
 20
0.0
 30
0.0
 70
     1
  0
VERTEX
  5
137
  8
DARTH
 10
9.702259899349151
 20
2.793830442503742
 30
0.0
  0
VERTEX
  5
138
  8
DARTH
 10
9.702259899349151
 20
2.78377193247054
 30
0.0
  0
VERTEX
  5
139
  8
DARTH
 10
9.702601571189703
 20
2.782890055041887
 30
0.0
  0
VERTEX
  5
13A
  8
DARTH
 10
9.70360407656657
 20
2.782313023078547
 30
0.0
  0
VERTEX
  5
13B
  8
DARTH
 10
9.705233650262564
 20
2.782031885522921
 30
0.0
  0
VERTEX
  5
13C
  8
DARTH
 10
9.707456527060506
 20
2.782037691317411
 30
0.0
  0
VERTEX
  5
13D
  8
DARTH
 10
9.713547129093493
 20
2.78287432872635
 30
0.0
  0
VERTEX
  5
13E
  8
DARTH
 10
9.721605760928055
 20
2.78475132684458
 30
0.0
  0
VERTEX
  5
13F
  8
DARTH
 10
9.731362300826724
 20
2.787597077211317
 30
0.0
  0
VERTEX
  5
140
  8
DARTH
 10
9.742546627052027
 20
2.79133997136578
 30
0.0
  0
VERTEX
  5
141
  8
DARTH
 10
9.754888617866495
 20
2.795908400847186
 30
0.0
  0
VERTEX
  5
142
  8
DARTH
 10
9.768118151532653
 20
2.80123075719475
 30
0.0
  0
VERTEX
  5
143
  8
DARTH
 10
9.78464028755761
 20
2.808897718257435
 30
0.0
  0
VERTEX
  5
144
  8
DARTH
 10
9.806418971256857
 20
2.820185852161599
 30
0.0
  0
VERTEX
  5
145
  8
DARTH
 10
9.832522409605513
 20
2.834552385862558
 30
0.0
  0
VERTEX
  5
146
  8
DARTH
 10
9.862018809578691
 20
2.851454546315632
 30
0.0
  0
VERTEX
  5
147
  8
DARTH
 10
9.893976378151505
 20
2.870349560476138
 30
0.0
  0
VERTEX
  5
148
  8
DARTH
 10
9.927463322299072
 20
2.890694655299392
 30
0.0
  0
VERTEX
  5
149
  8
DARTH
 10
9.961547848996506
 20
2.911947057740712
 30
0.0
  0
VERTEX
  5
14A
  8
DARTH
 10
9.995298165218923
 20
2.933563994755417
 30
0.0
  0
VERTEX
  5
14B
  8
DARTH
 10
10.15661992672169
 20
3.038379897558665
 30
0.0
  0
VERTEX
  5
14C
  8
DARTH
 10
10.77788771925148
 20
3.502790781226214
 30
0.0
  0
VERTEX
  5
14D
  8
DARTH
 10
10.77788771925148
 20
3.563876360424137
 30
0.0
  0
VERTEX
  5
14E
  8
DARTH
 10
10.72061421518204
 20
3.988928803457531
 30
0.0
  0
VERTEX
  5
14F
  8
DARTH
 10
10.70485511980053
 20
4.035332338494142
 30
0.0
  0
VERTEX
  5
150
  8
DARTH
 10
10.59764528841837
 20
3.986905783234549
 30
0.0
  0
VERTEX
  5
151
  8
DARTH
 10
10.55341036750121
 20
3.967349373711973
 30
0.0
  0
VERTEX
  5
152
  8
DARTH
 10
10.51222176139578
 20
3.949900215923464
 30
0.0
  0
VERTEX
  5
153
  8
DARTH
 10
10.47868153873574
 20
3.936460553904112
 30
0.0
  0
VERTEX
  5
154
  8
DARTH
 10
10.46621771764575
 20
3.931838735068834
 30
0.0
  0
VERTEX
  5
155
  8
DARTH
 10
10.45739176815473
 20
3.928932631689003
 30
0.0
  0
VERTEX
  5
156
  8
DARTH
 10
10.42434807927324
 20
3.919386035403049
 30
0.0
  0
VERTEX
  5
157
  8
DARTH
 10
10.43479953531712
 20
4.376338206689351
 30
0.0
  0
VERTEX
  5
158
  8
DARTH
 10
10.67147909170886
 20
4.451985997191754
 30
0.0
  0
VERTEX
  5
159
  8
DARTH
 10
10.64679794225986
 20
4.803104063777955
 30
0.0
  0
VERTEX
  5
15A
  8
DARTH
 10
10.63782144767865
 20
4.812080558359124
 30
0.0
  0
VERTEX
  5
15B
  8
DARTH
 10
10.63640888125058
 20
4.812835670403543
 30
0.0
  0
VERTEX
  5
15C
  8
DARTH
 10
10.63405847152348
 20
4.813257031621438
 30
0.0
  0
VERTEX
  5
15D
  8
DARTH
 10
10.62675944747062
 20
4.813143064129701
 30
0.0
  0
VERTEX
  5
15E
  8
DARTH
 10
10.61635502611695
 20
4.811827780987999
 30
0.0
  0
VERTEX
  5
15F
  8
DARTH
 10
10.60327585805933
 20
4.809400307300414
 30
0.0
  0
VERTEX
  5
160
  8
DARTH
 10
10.58795259389465
 20
4.805949768171031
 30
0.0
  0
VERTEX
  5
161
  8
DARTH
 10
10.57081588421978
 20
4.801565288703935
 30
0.0
  0
VERTEX
  5
162
  8
DARTH
 10
10.55229637963158
 20
4.796335994003208
 30
0.0
  0
VERTEX
  5
163
  8
DARTH
 10
10.53282473072693
 20
4.790351009172936
 30
0.0
  0
VERTEX
  5
164
  8
DARTH
 10
10.49524096895947
 20
4.778751420676562
 30
0.0
  0
VERTEX
  5
165
  8
DARTH
 10
10.46389023001579
 20
4.769867293510991
 30
0.0
  0
VERTEX
  5
166
  8
DARTH
 10
10.45157592983865
 20
4.766716411778265
 30
0.0
  0
VERTEX
  5
167
  8
DARTH
 10
10.4420483082504
 20
4.764571855999448
 30
0.0
  0
VERTEX
  5
168
  8
DARTH
 10
10.43571683954535
 20
4.763542779714944
 30
0.0
  0
VERTEX
  5
169
  8
DARTH
 10
10.433877623241
 20
4.763480656864436
 30
0.0
  0
VERTEX
  5
16A
  8
DARTH
 10
10.43299099801782
 20
4.763738336465158
 30
0.0
  0
VERTEX
  5
16B
  8
DARTH
 10
10.42917748767924
 20
4.767831707524735
 30
0.0
  0
VERTEX
  5
16C
  8
DARTH
 10
10.41625422807742
 20
5.155961765684225
 30
0.0
  0
VERTEX
  5
16D
  8
DARTH
 10
10.62025260771408
 20
5.218228698571005
 30
0.0
  0
VERTEX
  5
16E
  8
DARTH
 10
10.61668849148798
 20
5.299027772502845
 30
0.0
  0
VERTEX
  5
16F
  8
DARTH
 10
10.61434485772423
 20
5.343350232063308
 30
0.0
  0
VERTEX
  5
170
  8
DARTH
 10
10.61059838784997
 20
5.404300880792926
 30
0.0
  0
VERTEX
  5
171
  8
DARTH
 10
10.60596513516088
 20
5.473843477754691
 30
0.0
  0
VERTEX
  5
172
  8
DARTH
 10
10.60096115295266
 20
5.543941782011599
 30
0.0
  0
VERTEX
  5
173
  8
DARTH
 10
10.58879793064342
 20
5.70805671758851
 30
0.0
  0
VERTEX
  5
174
  8
DARTH
 10
10.43873293753213
 20
5.551883773864464
 30
0.0
  0
VERTEX
  5
175
  8
DARTH
 10
10.31544633801528
 20
5.500371343492706
 30
0.0
  0
VERTEX
  5
176
  8
DARTH
 10
10.15661992672169
 20
5.501185927586112
 30
0.0
  0
VERTEX
  5
177
  8
DARTH
 10
10.08243869776291
 20
5.535228132351822
 30
0.0
  0
VERTEX
  5
178
  8
DARTH
 10
10.06565162899216
 20
5.54363444930962
 30
0.0
  0
VERTEX
  5
179
  8
DARTH
 10
10.04634563849144
 20
5.554507845459447
 30
0.0
  0
VERTEX
  5
17A
  8
DARTH
 10
10.02520391455977
 20
5.567393602914738
 30
0.0
  0
VERTEX
  5
17B
  8
DARTH
 10
10.0029096454962
 20
5.581837003788923
 30
0.0
  0
VERTEX
  5
17C
  8
DARTH
 10
9.98014601959975
 20
5.597383330195438
 30
0.0
  0
VERTEX
  5
17D
  8
DARTH
 10
9.957596225169455
 20
5.613577864247715
 30
0.0
  0
VERTEX
  5
17E
  8
DARTH
 10
9.93594345050435
 20
5.629965888059188
 30
0.0
  0
VERTEX
  5
17F
  8
DARTH
 10
9.91587088390347
 20
5.646092683743293
 30
0.0
  0
VERTEX
  5
180
  8
DARTH
 10
9.82348429900282
 20
5.72291503036905
 30
0.0
  0
VERTEX
  5
181
  8
DARTH
 10
9.389278391767345
 20
5.72291503036905
 30
0.0
  0
VERTEX
  5
182
  8
DARTH
 10
9.732362143179282
 20
5.379826846434685
 30
0.0
  0
VERTEX
  5
183
  8
DARTH
 10
9.798468455589507
 20
5.250009695756818
 30
0.0
  0
VERTEX
  5
184
  8
DARTH
 10
9.811690767878666
 20
5.223419718404211
 30
0.0
  0
VERTEX
  5
185
  8
DARTH
 10
9.824570711650253
 20
5.196257672364589
 30
0.0
  0
VERTEX
  5
186
  8
DARTH
 10
9.837100949024025
 20
5.168544825301975
 30
0.0
  0
VERTEX
  5
187
  8
DARTH
 10
9.849274142119743
 20
5.140302444880389
 30
0.0
  0
VERTEX
  5
188
  8
DARTH
 10
9.861082953057164
 20
5.111551798763849
 30
0.0
  0
VERTEX
  5
189
  8
DARTH
 10
9.872520043956042
 20
5.082314154616376
 30
0.0
  0
VERTEX
  5
18A
  8
DARTH
 10
9.883578076936143
 20
5.05261078010199
 30
0.0
  0
VERTEX
  5
18B
  8
DARTH
 10
9.894249714117219
 20
5.022462942884712
 30
0.0
  0
VERTEX
  5
18C
  8
DARTH
 10
9.904527617619031
 20
4.99189191062856
 30
0.0
  0
VERTEX
  5
18D
  8
DARTH
 10
9.914404449561335
 20
4.960918950997556
 30
0.0
  0
VERTEX
  5
18E
  8
DARTH
 10
9.923872872063892
 20
4.929565331655718
 30
0.0
  0
VERTEX
  5
18F
  8
DARTH
 10
9.932925547246457
 20
4.897852320267067
 30
0.0
  0
VERTEX
  5
190
  8
DARTH
 10
9.94155513722879
 20
4.865801184495623
 30
0.0
  0
VERTEX
  5
191
  8
DARTH
 10
9.949754304130648
 20
4.833433192005407
 30
0.0
  0
VERTEX
  5
192
  8
DARTH
 10
9.957515710071792
 20
4.800769610460438
 30
0.0
  0
VERTEX
  5
193
  8
DARTH
 10
9.964832017171977
 20
4.767831707524735
 30
0.0
  0
VERTEX
  5
194
  8
DARTH
 10
9.988693875707988
 20
4.656559864086566
 30
0.0
  0
VERTEX
  5
195
  8
DARTH
 10
9.989557036559551
 20
3.970383496217837
 30
0.0
  0
VERTEX
  5
196
  8
DARTH
 10
9.955811369769732
 20
3.769586473261787
 30
0.0
  0
VERTEX
  5
197
  8
DARTH
 10
9.947421944281594
 20
3.721409912074042
 30
0.0
  0
VERTEX
  5
198
  8
DARTH
 10
9.93819868135061
 20
3.671674919839986
 30
0.0
  0
VERTEX
  5
199
  8
DARTH
 10
9.92820844880356
 20
3.620654867609205
 30
0.0
  0
VERTEX
  5
19A
  8
DARTH
 10
9.917518114467235
 20
3.568623126431282
 30
0.0
  0
VERTEX
  5
19B
  8
DARTH
 10
9.906194546168415
 20
3.515853067355801
 30
0.0
  0
VERTEX
  5
19C
  8
DARTH
 10
9.894304611733894
 20
3.462618061432346
 30
0.0
  0
VERTEX
  5
19D
  8
DARTH
 10
9.88191517899045
 20
3.4091914797105
 30
0.0
  0
VERTEX
  5
19E
  8
DARTH
 10
9.869093115764873
 20
3.355846693239847
 30
0.0
  0
VERTEX
  5
19F
  8
DARTH
 10
9.855905289883946
 20
3.302857073069972
 30
0.0
  0
VERTEX
  5
1A0
  8
DARTH
 10
9.842418569174459
 20
3.250495990250458
 30
0.0
  0
VERTEX
  5
1A1
  8
DARTH
 10
9.828699821463193
 20
3.199036815830888
 30
0.0
  0
VERTEX
  5
1A2
  8
DARTH
 10
9.814815914576938
 20
3.148752920860847
 30
0.0
  0
VERTEX
  5
1A3
  8
DARTH
 10
9.800833716342476
 20
3.099917676389917
 30
0.0
  0
VERTEX
  5
1A4
  8
DARTH
 10
9.786820094586595
 20
3.052804453467685
 30
0.0
  0
VERTEX
  5
1A5
  8
DARTH
 10
9.77284191713608
 20
3.007686623143733
 30
0.0
  0
VERTEX
  5
1A6
  8
DARTH
 10
9.758966051817715
 20
2.964837556467645
 30
0.0
  0
SEQEND
  5
FA6
  8
DARTH
  0
POLYLINE
  5
74
  8
DARTH
 66
     1
 10
0.0
 20
0.0
 30
0.0
 70
     1
  0
VERTEX
  5
1A7
  8
DARTH
 10
10.88968848915158
 20
3.822021038300274
 30
0.0
  0
VERTEX
  5
1A8
  8
DARTH
 10
10.91033165053795
 20
3.662024411305286
 30
0.0
  0
VERTEX
  5
1A9
  8
DARTH
 10
10.9718886283632
 20
3.7107491948621
 30
0.0
  0
VERTEX
  5
1AA
  8
DARTH
 10
11.32385443041979
 20
4.017907669387007
 30
0.0
  0
VERTEX
  5
1AB
  8
DARTH
 10
11.31212461112442
 20
4.616236540107289
 30
0.0
  0
VERTEX
  5
1AC
  8
DARTH
 10
11.56606327693854
 20
4.4178183605045
 30
0.0
  0
VERTEX
  5
1AD
  8
DARTH
 10
11.60753030765892
 20
4.387174875484838
 30
0.0
  0
VERTEX
  5
1AE
  8
DARTH
 10
11.93051826721935
 20
4.817183440003719
 30
0.0
  0
VERTEX
  5
1AF
  8
DARTH
 10
11.91297938179051
 20
4.860558243723215
 30
0.0
  0
VERTEX
  5
1B0
  8
DARTH
 10
11.5197000088393
 20
5.317808727066245
 30
0.0
  0
VERTEX
  5
1B1
  8
DARTH
 10
11.51993926473213
 20
5.320999825890922
 30
0.0
  0
VERTEX
  5
1B2
  8
DARTH
 10
11.53153089669305
 20
5.358663485446643
 30
0.0
  0
VERTEX
  5
1B3
  8
DARTH
 10
11.55906416313255
 20
5.44473542177362
 30
0.0
  0
VERTEX
  5
1B4
  8
DARTH
 10
11.59794980564014
 20
5.565279918831639
 30
0.0
  0
VERTEX
  5
1B5
  8
DARTH
 10
11.59280979578961
 20
6.381273437378237
 30
0.0
  0
VERTEX
  5
1B6
  8
DARTH
 10
11.61362718273157
 20
6.49254528081641
 30
0.0
  0
VERTEX
  5
1B7
  8
DARTH
 10
11.62193900936396
 20
6.538385676986605
 30
0.0
  0
VERTEX
  5
1B8
  8
DARTH
 10
11.6291813278922
 20
6.580942854571767
 30
0.0
  0
VERTEX
  5
1B9
  8
DARTH
 10
11.63457591260359
 20
6.615469703438492
 30
0.0
  0
VERTEX
  5
1BA
  8
DARTH
 10
11.63734453778543
 20
6.637219113453384
 30
0.0
  0
VERTEX
  5
1BB
  8
DARTH
 10
11.64024450589732
 20
6.670621102652182
 30
0.0
  0
VERTEX
  5
1BC
  8
DARTH
 10
11.39915551178128
 20
6.517459383117696
 30
0.0
  0
VERTEX
  5
1BD
  8
DARTH
 10
11.33711192131844
 20
6.477847695978485
 30
0.0
  0
VERTEX
  5
1BE
  8
DARTH
 10
11.27856433511542
 20
6.440061529464145
 30
0.0
  0
VERTEX
  5
1BF
  8
DARTH
 10
11.22345188529169
 20
6.404056842370464
 30
0.0
  0
VERTEX
  5
1C0
  8
DARTH
 10
11.1717137039667
 20
6.369789593493234
 30
0.0
  0
VERTEX
  5
1C1
  8
DARTH
 10
11.1232889232599
 20
6.337215741628243
 30
0.0
  0
VERTEX
  5
1C2
  8
DARTH
 10
11.07811667529074
 20
6.306291245571281
 30
0.0
  0
VERTEX
  5
1C3
  8
DARTH
 10
11.03613609217868
 20
6.276972064118139
 30
0.0
  0
VERTEX
  5
1C4
  8
DARTH
 10
10.99728630604317
 20
6.249214156064604
 30
0.0
  0
VERTEX
  5
1C5
  8
DARTH
 10
10.96150644900366
 20
6.222973480206468
 30
0.0
  0
VERTEX
  5
1C6
  8
DARTH
 10
10.92873565317961
 20
6.198205995339519
 30
0.0
  0
VERTEX
  5
1C7
  8
DARTH
 10
10.89891305069047
 20
6.174867660259546
 30
0.0
  0
VERTEX
  5
1C8
  8
DARTH
 10
10.8719777736557
 20
6.152914433762341
 30
0.0
  0
VERTEX
  5
1C9
  8
DARTH
 10
10.84786895419474
 20
6.132302274643691
 30
0.0
  0
VERTEX
  5
1CA
  8
DARTH
 10
10.82652572442706
 20
6.112987141699389
 30
0.0
  0
VERTEX
  5
1CB
  8
DARTH
 10
10.80788721647209
 20
6.094924993725222
 30
0.0
  0
VERTEX
  5
1CC
  8
DARTH
 10
10.79189256244931
 20
6.078071789516979
 30
0.0
  0
VERTEX
  5
1CD
  8
DARTH
 10
10.72424332329878
 20
6.003192168428448
 30
0.0
  0
VERTEX
  5
1CE
  8
DARTH
 10
10.74069229138016
 20
5.880550141906459
 30
0.0
  0
SEQEND
  5
FA7
  8
DARTH
  0
POLYLINE
  5
75
  8
DARTH
 66
     1
 10
0.0
 20
0.0
 30
0.0
 70
     1
  0
VERTEX
  5
1CF
  8
DARTH
 10
4.166485688300078
 20
4.83636109436344
 30
0.0
  0
VERTEX
  5
1D0
  8
DARTH
 10
4.180560451819579
 20
4.836131968362805
 30
0.0
  0
VERTEX
  5
1D1
  8
DARTH
 10
4.195550408616787
 20
4.834955224754586
 30
0.0
  0
VERTEX
  5
1D2
  8
DARTH
 10
4.211287825806845
 20
4.833050563487067
 30
0.0
  0
VERTEX
  5
1D3
  8
DARTH
 10
4.227604970504892
 20
4.830637684508535
 30
0.0
  0
VERTEX
  5
1D4
  8
DARTH
 10
4.261307510885525
 20
4.825166073211581
 30
0.0
  0
VERTEX
  5
1D5
  8
DARTH
 10
4.27835744079839
 20
4.822546740789732
 30
0.0
  0
VERTEX
  5
1D6
  8
DARTH
 10
4.295316166679811
 20
4.820297990450015
 30
0.0
  0
VERTEX
  5
1D7
  8
DARTH
 10
4.312015955644929
 20
4.818639522140721
 30
0.0
  0
VERTEX
  5
1D8
  8
DARTH
 10
4.328289074808884
 20
4.817791035810134
 30
0.0
  0
VERTEX
  5
1D9
  8
DARTH
 10
4.343967791286818
 20
4.817972231406541
 30
0.0
  0
VERTEX
  5
1DA
  8
DARTH
 10
4.351531831992009
 20
4.818517616161207
 30
0.0
  0
VERTEX
  5
1DB
  8
DARTH
 10
4.358884372193874
 20
4.819402808878229
 30
0.0
  0
VERTEX
  5
1DC
  8
DARTH
 10
4.366004445281803
 20
4.820655272051142
 30
0.0
  0
VERTEX
  5
1DD
  8
DARTH
 10
4.372871084645189
 20
4.822302468173483
 30
0.0
  0
VERTEX
  5
1DE
  8
DARTH
 10
4.379463323673427
 20
4.824371859738788
 30
0.0
  0
VERTEX
  5
1DF
  8
DARTH
 10
4.385760195755907
 20
4.826890909240593
 30
0.0
  0
VERTEX
  5
1E0
  8
DARTH
 10
4.391740734282023
 20
4.829887079172432
 30
0.0
  0
VERTEX
  5
1E1
  8
DARTH
 10
4.397383972641169
 20
4.833387832027842
 30
0.0
  0
VERTEX
  5
1E2
  8
DARTH
 10
4.402668944222736
 20
4.837420630300359
 30
0.0
  0
VERTEX
  5
1E3
  8
DARTH
 10
4.407574682416117
 20
4.842012936483519
 30
0.0
  0
VERTEX
  5
1E4
  8
DARTH
 10
4.415041967573538
 20
4.85058672429793
 30
0.0
  0
VERTEX
  5
1E5
  8
DARTH
 10
4.421540170128974
 20
4.859767790278547
 30
0.0
  0
VERTEX
  5
1E6
  8
DARTH
 10
4.427116998653036
 20
4.8695223492598
 30
0.0
  0
VERTEX
  5
1E7
  8
DARTH
 10
4.431820161716327
 20
4.879816616076119
 30
0.0
  0
VERTEX
  5
1E8
  8
DARTH
 10
4.43569736788946
 20
4.890616805561934
 30
0.0
  0
VERTEX
  5
1E9
  8
DARTH
 10
4.438796325743041
 20
4.901889132551677
 30
0.0
  0
VERTEX
  5
1EA
  8
DARTH
 10
4.441164743847682
 20
4.913599811879777
 30
0.0
  0
VERTEX
  5
1EB
  8
DARTH
 10
4.442850330773989
 20
4.925715058380663
 30
0.0
  0
VERTEX
  5
1EC
  8
DARTH
 10
4.443900795092572
 20
4.938201086888768
 30
0.0
  0
VERTEX
  5
1ED
  8
DARTH
 10
4.444363845374037
 20
4.951024112238519
 30
0.0
  0
VERTEX
  5
1EE
  8
DARTH
 10
4.444287190188994
 20
4.964150349264349
 30
0.0
  0
VERTEX
  5
1EF
  8
DARTH
 10
4.443718538108053
 20
4.977546012800688
 30
0.0
  0
VERTEX
  5
1F0
  8
DARTH
 10
4.442705597701821
 20
4.991177317681965
 30
0.0
  0
VERTEX
  5
1F1
  8
DARTH
 10
4.441296077540907
 20
5.00501047874261
 30
0.0
  0
VERTEX
  5
1F2
  8
DARTH
 10
4.437478132237468
 20
5.03314722873973
 30
0.0
  0
VERTEX
  5
1F3
  8
DARTH
 10
4.432646370762605
 20
5.061685981467487
 30
0.0
  0
VERTEX
  5
1F4
  8
DARTH
 10
4.427182461681186
 20
5.090356455601327
 30
0.0
  0
VERTEX
  5
1F5
  8
DARTH
 10
4.415884874958154
 20
5.147011442789016
 30
0.0
  0
VERTEX
  5
1F6
  8
DARTH
 10
4.41081453444628
 20
5.17445539319375
 30
0.0
  0
VERTEX
  5
1F7
  8
DARTH
 10
4.406638720587325
 20
5.200949939706334
 30
0.0
  0
VERTEX
  5
1F8
  8
DARTH
 10
4.405005532579214
 20
5.213756723589145
 30
0.0
  0
VERTEX
  5
1F9
  8
DARTH
 10
4.403739101946158
 20
5.226224801002209
 30
0.0
  0
VERTEX
  5
1FA
  8
DARTH
 10
4.402887137258766
 20
5.238320386779957
 30
0.0
  0
VERTEX
  5
1FB
  8
DARTH
 10
4.402497347087647
 20
5.250009695756818
 30
0.0
  0
VERTEX
  5
1FC
  8
DARTH
 10
4.343418769108492
 20
5.546734611591944
 30
0.0
  0
VERTEX
  5
1FD
  8
DARTH
 10
4.329847237901376
 20
5.613297342385799
 30
0.0
  0
VERTEX
  5
1FE
  8
DARTH
 10
4.31389237317226
 20
5.688843117646144
 30
0.0
  0
VERTEX
  5
1FF
  8
DARTH
 10
4.296138898134888
 20
5.770756853364139
 30
0.0
  0
VERTEX
  5
200
  8
DARTH
 10
4.277171536003003
 20
5.856423465530943
 30
0.0
  0
VERTEX
  5
201
  8
DARTH
 10
4.25757500999035
 20
5.943227870137715
 30
0.0
  0
VERTEX
  5
202
  8
DARTH
 10
4.237934043310672
 20
6.028554983175614
 30
0.0
  0
VERTEX
  5
203
  8
DARTH
 10
4.218833359177713
 20
6.109789720635796
 30
0.0
  0
VERTEX
  5
204
  8
DARTH
 10
4.200857680805218
 20
6.184316998509424
 30
0.0
  0
VERTEX
  5
205
  8
DARTH
 10
4.181647771739553
 20
6.266579761039598
 30
0.0
  0
VERTEX
  5
206
  8
DARTH
 10
4.161457945592696
 20
6.355396223519888
 30
0.0
  0
VERTEX
  5
207
  8
DARTH
 10
4.150935925209578
 20
6.400112422027339
 30
0.0
  0
VERTEX
  5
208
  8
DARTH
 10
4.14009735947107
 20
6.443887441265534
 30
0.0
  0
VERTEX
  5
209
  8
DARTH
 10
4.128918393015475
 20
6.485861413148879
 30
0.0
  0
VERTEX
  5
20A
  8
DARTH
 10
4.123193804718239
 20
6.505904297555732
 30
0.0
  0
VERTEX
  5
20B
  8
DARTH
 10
4.117375170481095
 20
6.525174469591777
 30
0.0
  0
VERTEX
  5
20C
  8
DARTH
 10
4.111539098103475
 20
6.545794771619741
 30
0.0
  0
VERTEX
  5
20D
  8
DARTH
 10
4.108457853157347
 20
6.556903760894474
 30
0.0
  0
VERTEX
  5
20E
  8
DARTH
 10
4.105090577686591
 20
6.568111640565617
 30
0.0
  0
VERTEX
  5
20F
  8
DARTH
 10
4.10130435317639
 20
6.579093159300101
 30
0.0
  0
VERTEX
  5
210
  8
DARTH
 10
4.096966261111933
 20
6.589523065764862
 30
0.0
  0
VERTEX
  5
211
  8
DARTH
 10
4.091943382978407
 20
6.599076108626829
 30
0.0
  0
VERTEX
  5
212
  8
DARTH
 10
4.089133612099863
 20
6.603422165165183
 30
0.0
  0
VERTEX
  5
213
  8
DARTH
 10
4.086102800260996
 20
6.607427036552936
 30
0.0
  0
VERTEX
  5
214
  8
DARTH
 10
4.076981527411958
 20
6.61756574068021
 30
0.0
  0
VERTEX
  5
215
  8
DARTH
 10
4.066870967441369
 20
6.627124300647491
 30
0.0
  0
VERTEX
  5
216
  8
DARTH
 10
4.055846525950264
 20
6.636146520689806
 30
0.0
  0
VERTEX
  5
217
  8
DARTH
 10
4.043983608539683
 20
6.644676205042179
 30
0.0
  0
VERTEX
  5
218
  8
DARTH
 10
4.031357620810663
 20
6.652757157939634
 30
0.0
  0
VERTEX
  5
219
  8
DARTH
 10
4.018043968364243
 20
6.660433183617195
 30
0.0
  0
VERTEX
  5
21A
  8
DARTH
 10
4.004118056801459
 20
6.667748086309887
 30
0.0
  0
VERTEX
  5
21B
  8
DARTH
 10
3.98965529172335
 20
6.674745670252733
 30
0.0
  0
VERTEX
  5
21C
  8
DARTH
 10
3.974731078730954
 20
6.681469739680758
 30
0.0
  0
VERTEX
  5
21D
  8
DARTH
 10
3.959420823425308
 20
6.687964098828989
 30
0.0
  0
VERTEX
  5
21E
  8
DARTH
 10
3.92794380827842
 20
6.700438903226155
 30
0.0
  0
VERTEX
  5
21F
  8
DARTH
 10
3.89582749109099
 20
6.712520517324428
 30
0.0
  0
VERTEX
  5
220
  8
DARTH
 10
3.86367511667132
 20
6.724559375004002
 30
0.0
  0
VERTEX
  5
221
  8
DARTH
 10
3.832089929827715
 20
6.736905910145072
 30
0.0
  0
VERTEX
  5
222
  8
DARTH
 10
3.816698545749532
 20
6.74330406735123
 30
0.0
  0
VERTEX
  5
223
  8
DARTH
 10
3.801675175368478
 20
6.749910556627834
 30
0.0
  0
VERTEX
  5
224
  8
DARTH
 10
3.787095224285592
 20
6.75676918220991
 30
0.0
  0
VERTEX
  5
225
  8
DARTH
 10
3.773034098101912
 20
6.763923748332481
 30
0.0
  0
VERTEX
  5
226
  8
DARTH
 10
3.759567202418475
 20
6.771418059230571
 30
0.0
  0
VERTEX
  5
227
  8
DARTH
 10
3.746769942836321
 20
6.779295919139207
 30
0.0
  0
VERTEX
  5
228
  8
DARTH
 10
3.734717724956485
 20
6.78760113229341
 30
0.0
  0
VERTEX
  5
229
  8
DARTH
 10
3.723485954380006
 20
6.796377502928207
 30
0.0
  0
VERTEX
  5
22A
  8
DARTH
 10
3.713150036707924
 20
6.80566883527862
 30
0.0
  0
VERTEX
  5
22B
  8
DARTH
 10
3.703785377541274
 20
6.815518933579677
 30
0.0
  0
VERTEX
  5
22C
  8
DARTH
 10
3.69949083414781
 20
6.820667208785141
 30
0.0
  0
VERTEX
  5
22D
  8
DARTH
 10
3.695467382481095
 20
6.825971602066398
 30
0.0
  0
VERTEX
  5
22E
  8
DARTH
 10
3.691724448241256
 20
6.831437588952829
 30
0.0
  0
VERTEX
  5
22F
  8
DARTH
 10
3.688271457128425
 20
6.83707064497381
 30
0.0
  0
VERTEX
  5
230
  8
DARTH
 10
3.68511783484273
 20
6.84287624565872
 30
0.0
  0
VERTEX
  5
231
  8
DARTH
 10
3.682273007084303
 20
6.848859866536937
 30
0.0
  0
VERTEX
  5
232
  8
DARTH
 10
3.679746399553271
 20
6.855026983137838
 30
0.0
  0
VERTEX
  5
233
  8
DARTH
 10
3.677547437949765
 20
6.861383070990803
 30
0.0
  0
VERTEX
  5
234
  8
DARTH
 10
3.676666532327474
 20
6.864716143862702
 30
0.0
  0
VERTEX
  5
235
  8
DARTH
 10
3.676096511358588
 20
6.868098281322795
 30
0.0
  0
VERTEX
  5
236
  8
DARTH
 10
3.675826629932562
 20
6.874995512774026
 30
0.0
  0
VERTEX
  5
237
  8
DARTH
 10
3.676612806774746
 20
6.882046290877418
 30
0.0
  0
VERTEX
  5
238
  8
DARTH
 10
3.678330054988196
 20
6.889222141165897
 30
0.0
  0
VERTEX
  5
239
  8
DARTH
 10
3.68085338767597
 20
6.896494589172384
 30
0.0
  0
VERTEX
  5
23A
  8
DARTH
 10
3.684057817941127
 20
6.903835160429805
 30
0.0
  0
VERTEX
  5
23B
  8
DARTH
 10
3.687818358886723
 20
6.911215380471083
 30
0.0
  0
VERTEX
  5
23C
  8
DARTH
 10
3.692010023615818
 20
6.91860677482914
 30
0.0
  0
VERTEX
  5
23D
  8
DARTH
 10
3.70118677683673
 20
6.933309188627288
 30
0.0
  0
VERTEX
  5
23E
  8
DARTH
 10
3.710588182428325
 20
6.947714606087635
 30
0.0
  0
VERTEX
  5
23F
  8
DARTH
 10
3.719214345215066
 20
6.961595231473573
 30
0.0
  0
VERTEX
  5
240
  8
DARTH
 10
3.722924243314261
 20
6.968267560970947
 30
0.0
  0
VERTEX
  5
241
  8
DARTH
 10
3.726065370021415
 20
6.974723269048489
 30
0.0
  0
VERTEX
  5
242
  8
DARTH
 10
3.73261931356555
 20
6.988984344666722
 30
0.0
  0
VERTEX
  5
243
  8
DARTH
 10
3.739667227287319
 20
7.003429931526016
 30
0.0
  0
VERTEX
  5
244
  8
DARTH
 10
3.75506413081241
 20
7.032836513741143
 30
0.0
  0
VERTEX
  5
245
  8
DARTH
 10
3.771894411693987
 20
7.062866765240573
 30
0.0
  0
VERTEX
  5
246
  8
DARTH
 10
3.789796401029351
 20
7.093444435571003
 30
0.0
  0
VERTEX
  5
247
  8
DARTH
 10
3.827368829450633
 20
7.155937030911676
 30
0.0
  0
VERTEX
  5
248
  8
DARTH
 10
3.846315930731151
 20
7.187699455015319
 30
0.0
  0
VERTEX
  5
249
  8
DARTH
 10
3.864888064854655
 20
7.219704296136768
 30
0.0
  0
VERTEX
  5
24A
  8
DARTH
 10
3.882723562918443
 20
7.251875303822723
 30
0.0
  0
VERTEX
  5
24B
  8
DARTH
 10
3.891252051895851
 20
7.267999291860736
 30
0.0
  0
VERTEX
  5
24C
  8
DARTH
 10
3.899460756019816
 20
7.284136227619888
 30
0.0
  0
VERTEX
  5
24D
  8
DARTH
 10
3.907304466677503
 20
7.300276579793517
 30
0.0
  0
VERTEX
  5
24E
  8
DARTH
 10
3.914737975256072
 20
7.31641081707496
 30
0.0
  0
VERTEX
  5
24F
  8
DARTH
 10
3.921716073142689
 20
7.332529408157556
 30
0.0
  0
VERTEX
  5
250
  8
DARTH
 10
3.928193551724513
 20
7.348622821734642
 30
0.0
  0
VERTEX
  5
251
  8
DARTH
 10
3.934125202388708
 20
7.364681526499556
 30
0.0
  0
VERTEX
  5
252
  8
DARTH
 10
3.939465816522437
 20
7.380695991145636
 30
0.0
  0
VERTEX
  5
253
  8
DARTH
 10
3.944170185512862
 20
7.396656684366218
 30
0.0
  0
VERTEX
  5
254
  8
DARTH
 10
3.948193100747145
 20
7.41255407485464
 30
0.0
  0
VERTEX
  5
255
  8
DARTH
 10
3.951489353612448
 20
7.428378631304241
 30
0.0
  0
VERTEX
  5
256
  8
DARTH
 10
3.954013735495935
 20
7.444120822408358
 30
0.0
  0
VERTEX
  5
257
  8
DARTH
 10
3.955721037784768
 20
7.459771116860328
 30
0.0
  0
VERTEX
  5
258
  8
DARTH
 10
3.956566051866108
 20
7.475319983353488
 30
0.0
  0
VERTEX
  5
259
  8
DARTH
 10
3.956783034120706
 20
7.490404139180111
 30
0.0
  0
VERTEX
  5
25A
  8
DARTH
 10
3.95666496802379
 20
7.505609095830052
 30
0.0
  0
VERTEX
  5
25B
  8
DARTH
 10
3.956218217875983
 20
7.520929655025182
 30
0.0
  0
VERTEX
  5
25C
  8
DARTH
 10
3.955449147977909
 20
7.536360618487372
 30
0.0
  0
VERTEX
  5
25D
  8
DARTH
 10
3.952969506133452
 20
7.567532965100415
 30
0.0
  0
VERTEX
  5
25E
  8
DARTH
 10
3.949276956895403
 20
7.599084549444147
 30
0.0
  0
VERTEX
  5
25F
  8
DARTH
 10
3.944422414668748
 20
7.630973785293536
 30
0.0
  0
VERTEX
  5
260
  8
DARTH
 10
3.938456793858472
 20
7.663159086423549
 30
0.0
  0
VERTEX
  5
261
  8
DARTH
 10
3.931431008869559
 20
7.695598866609153
 30
0.0
  0
VERTEX
  5
262
  8
DARTH
 10
3.923395974106995
 20
7.728251539625314
 30
0.0
  0
VERTEX
  5
263
  8
DARTH
 10
3.914402603975765
 20
7.761075519246999
 30
0.0
  0
VERTEX
  5
264
  8
DARTH
 10
3.904501812880855
 20
7.794029219249177
 30
0.0
  0
VERTEX
  5
265
  8
DARTH
 10
3.893744515227248
 20
7.827071053406813
 30
0.0
  0
VERTEX
  5
266
  8
DARTH
 10
3.882181625419931
 20
7.860159435494874
 30
0.0
  0
VERTEX
  5
267
  8
DARTH
 10
3.869864057863889
 20
7.893252779288328
 30
0.0
  0
VERTEX
  5
268
  8
DARTH
 10
3.856842726964105
 20
7.926309498562142
 30
0.0
  0
VERTEX
  5
269
  8
DARTH
 10
3.843168547125567
 20
7.959288007091281
 30
0.0
  0
VERTEX
  5
26A
  8
DARTH
 10
3.828892432753258
 20
7.992146718650714
 30
0.0
  0
VERTEX
  5
26B
  8
DARTH
 10
3.814065298252164
 20
8.024844047015407
 30
0.0
  0
VERTEX
  5
26C
  8
DARTH
 10
3.798738058027269
 20
8.057338405960326
 30
0.0
  0
VERTEX
  5
26D
  8
DARTH
 10
3.78296162648356
 20
8.089588209260441
 30
0.0
  0
VERTEX
  5
26E
  8
DARTH
 10
3.766786918026022
 20
8.121551870690718
 30
0.0
  0
VERTEX
  5
26F
  8
DARTH
 10
3.750264847059638
 20
8.153187804026121
 30
0.0
  0
VERTEX
  5
270
  8
DARTH
 10
3.733446327989395
 20
8.184454423041622
 30
0.0
  0
VERTEX
  5
271
  8
DARTH
 10
3.716382275220277
 20
8.215310141512184
 30
0.0
  0
VERTEX
  5
272
  8
DARTH
 10
3.69912360315727
 20
8.245713373212773
 30
0.0
  0
VERTEX
  5
273
  8
DARTH
 10
3.681721226205358
 20
8.275622531918359
 30
0.0
  0
VERTEX
  5
274
  8
DARTH
 10
3.664226058769528
 20
8.30499603140391
 30
0.0
  0
VERTEX
  5
275
  8
DARTH
 10
3.646689015254763
 20
8.333792285444389
 30
0.0
  0
VERTEX
  5
276
  8
DARTH
 10
3.629161010066049
 20
8.361969707814765
 30
0.0
  0
VERTEX
  5
277
  8
DARTH
 10
3.594335772286716
 20
8.416301712645076
 30
0.0
  0
VERTEX
  5
278
  8
DARTH
 10
3.560157660671408
 20
8.467659356094575
 30
0.0
  0
VERTEX
  5
279
  8
DARTH
 10
3.55155978245261
 20
8.479810655876413
 30
0.0
  0
VERTEX
  5
27A
  8
DARTH
 10
3.542358925484785
 20
8.491822258910576
 30
0.0
  0
VERTEX
  5
27B
  8
DARTH
 10
3.532594113757878
 20
8.503702641533906
 30
0.0
  0
VERTEX
  5
27C
  8
DARTH
 10
3.522304371261836
 20
8.515460280083248
 30
0.0
  0
VERTEX
  5
27D
  8
DARTH
 10
3.511528721986603
 20
8.527103650895452
 30
0.0
  0
VERTEX
  5
27E
  8
DARTH
 10
3.500306189922127
 20
8.538641230307356
 30
0.0
  0
VERTEX
  5
27F
  8
DARTH
 10
3.488675799058354
 20
8.55008149465581
 30
0.0
  0
VERTEX
  5
280
  8
DARTH
 10
3.47667657338523
 20
8.56143292027766
 30
0.0
  0
VERTEX
  5
281
  8
DARTH
 10
3.451727713570715
 20
8.583903160688925
 30
0.0
  0
VERTEX
  5
282
  8
DARTH
 10
3.425771802398149
 20
8.60611976223591
 30
0.0
  0
VERTEX
  5
283
  8
DARTH
 10
3.372087593657147
 20
8.650063291516085
 30
0.0
  0
VERTEX
  5
284
  8
DARTH
 10
3.318121482518782
 20
8.693805993676289
 30
0.0
  0
VERTEX
  5
285
  8
DARTH
 10
3.291813193349513
 20
8.715771561323306
 30
0.0
  0
VERTEX
  5
286
  8
DARTH
 10
3.266371004339612
 20
8.737890354274615
 30
0.0
  0
VERTEX
  5
287
  8
DARTH
 10
3.242107107408648
 20
8.76023018322498
 30
0.0
  0
VERTEX
  5
288
  8
DARTH
 10
3.230514578447633
 20
8.77150417704192
 30
0.0
  0
VERTEX
  5
289
  8
DARTH
 10
3.219333694476192
 20
8.782858858869162
 30
0.0
  0
VERTEX
  5
28A
  8
DARTH
 10
3.208603479484269
 20
8.794302705043547
 30
0.0
  0
VERTEX
  5
28B
  8
DARTH
 10
3.198362957461812
 20
8.805844191901922
 30
0.0
  0
VERTEX
  5
28C
  8
DARTH
 10
3.188651152398767
 20
8.817491795781134
 30
0.0
  0
VERTEX
  5
28D
  8
DARTH
 10
3.17950708828508
 20
8.829253993018026
 30
0.0
  0
VERTEX
  5
28E
  8
DARTH
 10
3.174756161261278
 20
8.83592020818573
 30
0.0
  0
VERTEX
  5
28F
  8
DARTH
 10
3.170131712972797
 20
8.843009698556996
 30
0.0
  0
VERTEX
  5
290
  8
DARTH
 10
3.161230998355282
 20
8.85824224365423
 30
0.0
  0
VERTEX
  5
291
  8
DARTH
 10
3.152742435939502
 20
8.874519105797766
 30
0.0
  0
VERTEX
  5
292
  8
DARTH
 10
3.144603517232426
 20
8.891407762475644
 30
0.0
  0
VERTEX
  5
293
  8
DARTH
 10
3.129124576972255
 20
8.925290369386595
 30
0.0
  0
VERTEX
  5
294
  8
DARTH
 10
3.121659538433097
 20
8.941419274595745
 30
0.0
  0
VERTEX
  5
295
  8
DARTH
 10
3.114294109630514
 20
8.956429884291401
 30
0.0
  0
VERTEX
  5
296
  8
DARTH
 10
3.115524841536427
 20
8.989828720009822
 30
0.0
  0
VERTEX
  5
297
  8
DARTH
 10
3.115876921956369
 20
9.025390332253014
 30
0.0
  0
VERTEX
  5
298
  8
DARTH
 10
3.115908476775433
 20
9.062351438773455
 30
0.0
  0
VERTEX
  5
299
  8
DARTH
 10
3.11617763187871
 20
9.099948757323613
 30
0.0
  0
VERTEX
  5
29A
  8
DARTH
 10
3.117242513151295
 20
9.137419005655964
 30
0.0
  0
VERTEX
  5
29B
  8
DARTH
 10
3.118247765440169
 20
9.155867952788107
 30
0.0
  0
VERTEX
  5
29C
  8
DARTH
 10
3.119661246478279
 20
9.173998901522978
 30
0.0
  0
VERTEX
  5
29D
  8
DARTH
 10
3.121552722001264
 20
9.191716441579635
 30
0.0
  0
VERTEX
  5
29E
  8
DARTH
 10
3.123991957744757
 20
9.208925162677133
 30
0.0
  0
VERTEX
  5
29F
  8
DARTH
 10
3.127048719444397
 20
9.225529654534537
 30
0.0
  0
VERTEX
  5
2A0
  8
DARTH
 10
3.13079277283582
 20
9.2414345068709
 30
0.0
  0
VERTEX
  5
2A1
  8
DARTH
 10
3.133600691335309
 20
9.251003879290245
 30
0.0
  0
VERTEX
  5
2A2
  8
DARTH
 10
3.136938380915853
 20
9.260605501195904
 30
0.0
  0
VERTEX
  5
2A3
  8
DARTH
 10
3.140766194057797
 20
9.270237887156991
 30
0.0
  0
VERTEX
  5
2A4
  8
DARTH
 10
3.145044483241486
 20
9.279899551742613
 30
0.0
  0
VERTEX
  5
2A5
  8
DARTH
 10
3.149733600947268
 20
9.28958900952188
 30
0.0
  0
VERTEX
  5
2A6
  8
DARTH
 10
3.154793899655489
 20
9.299304775063902
 30
0.0
  0
VERTEX
  5
2A7
  8
DARTH
 10
3.165869450000631
 20
9.318809287712641
 30
0.0
  0
VERTEX
  5
2A8
  8
DARTH
 10
3.177953954119682
 20
9.338401206241706
 30
0.0
  0
VERTEX
  5
2A9
  8
DARTH
 10
3.19073023185541
 20
9.358068647203973
 30
0.0
  0
VERTEX
  5
2AA
  8
DARTH
 10
3.217089387547976
 20
9.397582562639599
 30
0.0
  0
VERTEX
  5
2AB
  8
DARTH
 10
3.230037905190354
 20
9.417405270218703
 30
0.0
  0
VERTEX
  5
2AC
  8
DARTH
 10
3.242409475820487
 20
9.437255966442498
 30
0.0
  0
VERTEX
  5
2AD
  8
DARTH
 10
3.253886919281144
 20
9.45712276786386
 30
0.0
  0
VERTEX
  5
2AE
  8
DARTH
 10
3.259191224523785
 20
9.467058494446402
 30
0.0
  0
VERTEX
  5
2AF
  8
DARTH
 10
3.264153055415095
 20
9.47699379103566
 30
0.0
  0
VERTEX
  5
2B0
  8
DARTH
 10
3.268732764435421
 20
9.486927172200748
 30
0.0
  0
VERTEX
  5
2B1
  8
DARTH
 10
3.272890704065109
 20
9.496857152510774
 30
0.0
  0
VERTEX
  5
2B2
  8
DARTH
 10
3.276587226784505
 20
9.506782246534847
 30
0.0
  0
VERTEX
  5
2B3
  8
DARTH
 10
3.279782685073956
 20
9.516700968842073
 30
0.0
  0
VERTEX
  5
2B4
  8
DARTH
 10
3.282437431413807
 20
9.526611834001566
 30
0.0
  0
VERTEX
  5
2B5
  8
DARTH
 10
3.284511818284405
 20
9.536513356582432
 30
0.0
  0
VERTEX
  5
2B6
  8
DARTH
 10
3.285966198166095
 20
9.546404051153782
 30
0.0
  0
VERTEX
  5
2B7
  8
DARTH
 10
3.286760923539225
 20
9.556282432284723
 30
0.0
  0
VERTEX
  5
2B8
  8
DARTH
 10
3.286564434250337
 20
9.560074837460885
 30
0.0
  0
VERTEX
  5
2B9
  8
DARTH
 10
3.285749877543778
 20
9.565996241519143
 30
0.0
  0
VERTEX
  5
2BA
  8
DARTH
 10
3.282397548108926
 20
9.583870479959785
 30
0.0
  0
VERTEX
  5
2BB
  8
DARTH
 10
3.269716928771287
 20
9.641255713882385
 30
0.0
  0
VERTEX
  5
2BC
  8
DARTH
 10
3.250814845226873
 20
9.722749072897807
 30
0.0
  0
VERTEX
  5
2BD
  8
DARTH
 10
3.227787077176248
 20
9.822661495851335
 30
0.0
  0
VERTEX
  5
2BE
  8
DARTH
 10
3.215380992617533
 20
9.877747024694042
 30
0.0
  0
VERTEX
  5
2BF
  8
DARTH
 10
3.202729404319975
 20
9.935303921588256
 30
0.0
  0
VERTEX
  5
2C0
  8
DARTH
 10
3.190094284746148
 20
9.994621053889638
 30
0.0
  0
VERTEX
  5
2C1
  8
DARTH
 10
3.17773760635862
 20
10.05498728895385
 30
0.0
  0
VERTEX
  5
2C2
  8
DARTH
 10
3.165921341619962
 20
10.11569149413656
 30
0.0
  0
VERTEX
  5
2C3
  8
DARTH
 10
3.154907462992744
 20
10.17602253679341
 30
0.0
  0
VERTEX
  5
2C4
  8
DARTH
 10
3.144957942939538
 20
10.23526928428008
 30
0.0
  0
VERTEX
  5
2C5
  8
DARTH
 10
3.136334753922912
 20
10.29272060395221
 30
0.0
  0
VERTEX
  5
2C6
  8
DARTH
 10
3.100264959480952
 20
10.5507422443062
 30
0.0
  0
VERTEX
  5
2C7
  8
DARTH
 10
3.090925087129424
 20
10.56008211665801
 30
0.0
  0
VERTEX
  5
2C8
  8
DARTH
 10
3.088932659381949
 20
10.56180058640952
 30
0.0
  0
VERTEX
  5
2C9
  8
DARTH
 10
3.0868491856111
 20
10.56309888869902
 30
0.0
  0
VERTEX
  5
2CA
  8
DARTH
 10
3.084736334006729
 20
10.5639704090966
 30
0.0
  0
VERTEX
  5
2CB
  8
DARTH
 10
3.082655772758691
 20
10.56440853317239
 30
0.0
  0
VERTEX
  5
2CC
  8
DARTH
 10
3.08066917005684
 20
10.56440664649649
 30
0.0
  0
VERTEX
  5
2CD
  8
DARTH
 10
3.078838194091029
 20
10.56395813463901
 30
0.0
  0
VERTEX
  5
2CE
  8
DARTH
 10
3.077224513051113
 20
10.56305638317006
 30
0.0
  0
VERTEX
  5
2CF
  8
DARTH
 10
3.075889795126946
 20
10.56169477765976
 30
0.0
  0
VERTEX
  5
2D0
  8
DARTH
 10
3.013259144518514
 20
10.47978633735092
 30
0.0
  0
VERTEX
  5
2D1
  8
DARTH
 10
2.987266632230638
 20
10.44499764130843
 30
0.0
  0
VERTEX
  5
2D2
  8
DARTH
 10
2.960714198496816
 20
10.40764208382136
 30
0.0
  0
VERTEX
  5
2D3
  8
DARTH
 10
2.93361683934947
 20
10.36775192009834
 30
0.0
  0
VERTEX
  5
2D4
  8
DARTH
 10
2.905989550821023
 20
10.325359405348
 30
0.0
  0
VERTEX
  5
2D5
  8
DARTH
 10
2.877847328943894
 20
10.28049679477899
 30
0.0
  0
VERTEX
  5
2D6
  8
DARTH
 10
2.849205169750507
 20
10.23319634359991
 30
0.0
  0
VERTEX
  5
2D7
  8
DARTH
 10
2.820078069273284
 20
10.18349030701943
 30
0.0
  0
VERTEX
  5
2D8
  8
DARTH
 10
2.790481023544645
 20
10.13141094024616
 30
0.0
  0
VERTEX
  5
2D9
  8
DARTH
 10
2.760429028597013
 20
10.07699049848875
 30
0.0
  0
VERTEX
  5
2DA
  8
DARTH
 10
2.729937080462808
 20
10.02026123695582
 30
0.0
  0
VERTEX
  5
2DB
  8
DARTH
 10
2.699020175174454
 20
9.961255410856015
 30
0.0
  0
VERTEX
  5
2DC
  8
DARTH
 10
2.667693308764371
 20
9.900005275397962
 30
0.0
  0
VERTEX
  5
2DD
  8
DARTH
 10
2.635971477264981
 20
9.8365430857903
 30
0.0
  0
VERTEX
  5
2DE
  8
DARTH
 10
2.603869676708706
 20
9.770901097241659
 30
0.0
  0
VERTEX
  5
2DF
  8
DARTH
 10
2.571402903127968
 20
9.703111564960674
 30
0.0
  0
VERTEX
  5
2E0
  8
DARTH
 10
2.538586152555188
 20
9.633206744155979
 30
0.0
  0
VERTEX
  5
2E1
  8
DARTH
 10
2.505434421022787
 20
9.561218890036209
 30
0.0
  0
VERTEX
  5
2E2
  8
DARTH
 10
2.471962704563189
 20
9.487180257809996
 30
0.0
  0
VERTEX
  5
2E3
  8
DARTH
 10
2.438185999208813
 20
9.411123102685977
 30
0.0
  0
VERTEX
  5
2E4
  8
DARTH
 10
2.404119300992082
 20
9.333079679872782
 30
0.0
  0
VERTEX
  5
2E5
  8
DARTH
 10
2.369777605945418
 20
9.253082244579046
 30
0.0
  0
VERTEX
  5
2E6
  8
DARTH
 10
2.335175910101242
 20
9.171163052013405
 30
0.0
  0
VERTEX
  5
2E7
  8
DARTH
 10
2.300329209491976
 20
9.087354357384491
 30
0.0
  0
VERTEX
  5
2E8
  8
DARTH
 10
2.265252500150043
 20
9.00168841590094
 30
0.0
  0
VERTEX
  5
2E9
  8
DARTH
 10
2.229960778107862
 20
8.914197482771383
 30
0.0
  0
VERTEX
  5
2EA
  8
DARTH
 10
2.194469039397856
 20
8.824913813204457
 30
0.0
  0
VERTEX
  5
2EB
  8
DARTH
 10
2.158792280052447
 20
8.733869662408793
 30
0.0
  0
VERTEX
  5
2EC
  8
DARTH
 10
2.122945496104057
 20
8.641097285593027
 30
0.0
  0
VERTEX
  5
2ED
  8
DARTH
 10
2.086943683585107
 20
8.546628937965792
 30
0.0
  0
VERTEX
  5
2EE
  8
DARTH
 10
2.050801838528018
 20
8.450496874735723
 30
0.0
  0
VERTEX
  5
2EF
  8
DARTH
 10
2.014534956965212
 20
8.352733351111453
 30
0.0
  0
VERTEX
  5
2F0
  8
DARTH
 10
1.978158034929112
 20
8.253370622301617
 30
0.0
  0
VERTEX
  5
2F1
  8
DARTH
 10
1.842896727627585
 20
7.881485631221857
 30
0.0
  0
VERTEX
  5
2F2
  8
DARTH
 10
1.473107018080821
 20
6.752179582172145
 30
0.0
  0
VERTEX
  5
2F3
  8
DARTH
 10
1.465308522975419
 20
6.724358754774011
 30
0.0
  0
VERTEX
  5
2F4
  8
DARTH
 10
1.457849143948957
 20
6.695277286864632
 30
0.0
  0
VERTEX
  5
2F5
  8
DARTH
 10
1.443532105330774
 20
6.634148373165621
 30
0.0
  0
VERTEX
  5
2F6
  8
DARTH
 10
1.429324644622118
 20
6.570424728382076
 30
0.0
  0
VERTEX
  5
2F7
  8
DARTH
 10
1.422002237982564
 20
6.538099846617028
 30
0.0
  0
VERTEX
  5
2F8
  8
DARTH
 10
1.414395504218833
 20
6.505738239820959
 30
0.0
  0
VERTEX
  5
2F9
  8
DARTH
 10
1.406400536130407
 20
6.473543893907238
 30
0.0
  0
VERTEX
  5
2FA
  8
DARTH
 10
1.397913426516766
 20
6.441720794789237
 30
0.0
  0
VERTEX
  5
2FB
  8
DARTH
 10
1.38883026817739
 20
6.410472928380324
 30
0.0
  0
VERTEX
  5
2FC
  8
DARTH
 10
1.379047153911761
 20
6.38000428059387
 30
0.0
  0
VERTEX
  5
2FD
  8
DARTH
 10
1.368460176519357
 20
6.350518837343248
 30
0.0
  0
VERTEX
  5
2FE
  8
DARTH
 10
1.362832768150454
 20
6.336208563016801
 30
0.0
  0
VERTEX
  5
2FF
  8
DARTH
 10
1.356965428799662
 20
6.322220584541825
 30
0.0
  0
VERTEX
  5
300
  8
DARTH
 10
1.350845170066917
 20
6.308580400157492
 30
0.0
  0
VERTEX
  5
301
  8
DARTH
 10
1.344459003552154
 20
6.295313508102973
 30
0.0
  0
VERTEX
  5
302
  8
DARTH
 10
1.337793940855309
 20
6.28244540661744
 30
0.0
  0
VERTEX
  5
303
  8
DARTH
 10
1.330836993576315
 20
6.270001593940064
 30
0.0
  0
VERTEX
  5
304
  8
DARTH
 10
1.321739324453327
 20
6.255037723545273
 30
0.0
  0
VERTEX
  5
305
  8
DARTH
 10
1.311943533889004
 20
6.24018696471116
 30
0.0
  0
VERTEX
  5
306
  8
DARTH
 10
1.301491735009993
 20
6.225444812023367
 30
0.0
  0
VERTEX
  5
307
  8
DARTH
 10
1.290426040942938
 20
6.210806760067535
 30
0.0
  0
VERTEX
  5
308
  8
DARTH
 10
1.278788564814484
 20
6.196268303429306
 30
0.0
  0
VERTEX
  5
309
  8
DARTH
 10
1.266621419751277
 20
6.181824936694323
 30
0.0
  0
VERTEX
  5
30A
  8
DARTH
 10
1.253966718879961
 20
6.167472154448228
 30
0.0
  0
VERTEX
  5
30B
  8
DARTH
 10
1.240866575327183
 20
6.153205451276661
 30
0.0
  0
VERTEX
  5
30C
  8
DARTH
 10
1.227363102219587
 20
6.139020321765267
 30
0.0
  0
VERTEX
  5
30D
  8
DARTH
 10
1.213498412683819
 20
6.124912260499687
 30
0.0
  0
VERTEX
  5
30E
  8
DARTH
 10
1.184853836834346
 20
6.096909321048535
 30
0.0
  0
VERTEX
  5
30F
  8
DARTH
 10
1.155269752791926
 20
6.069160589608345
 30
0.0
  0
VERTEX
  5
310
  8
DARTH
 10
1.125083065569721
 20
6.041630022864251
 30
0.0
  0
VERTEX
  5
311
  8
DARTH
 10
1.064249501638601
 20
5.9870792102049
 30
0.0
  0
VERTEX
  5
312
  8
DARTH
 10
1.034276434956009
 20
5.959986877659917
 30
0.0
  0
VERTEX
  5
313
  8
DARTH
 10
1.005048385146279
 20
5.932968536551575
 30
0.0
  0
VERTEX
  5
314
  8
DARTH
 10
0.9769022572225725
 20
5.905988143565014
 30
0.0
  0
VERTEX
  5
315
  8
DARTH
 10
0.9501749561980507
 20
5.879009655385369
 30
0.0
  0
VERTEX
  5
316
  8
DARTH
 10
0.9374486485895972
 20
5.865509862062245
 30
0.0
  0
VERTEX
  5
317
  8
DARTH
 10
0.9252033870858757
 20
5.851997028697777
 30
0.0
  0
VERTEX
  5
318
  8
DARTH
 10
0.9134812848135313
 20
5.838466649877606
 30
0.0
  0
VERTEX
  5
319
  8
DARTH
 10
0.9023244548992091
 20
5.824914220187374
 30
0.0
  0
VERTEX
  5
31A
  8
DARTH
 10
0.893264879450187
 20
5.81302523064462
 30
0.0
  0
VERTEX
  5
31B
  8
DARTH
 10
0.8841408733234442
 20
5.800070244769675
 30
0.0
  0
VERTEX
  5
31C
  8
DARTH
 10
0.8659626886655551
 20
5.772254553819728
 30
0.0
  0
VERTEX
  5
31D
  8
DARTH
 10
0.8483161401830597
 20
5.744051686930572
 30
0.0
  0
VERTEX
  5
31E
  8
DARTH
 10
0.8317274671334749
 20
5.718046183695249
 30
0.0
  0
VERTEX
  5
31F
  8
DARTH
 10
0.8145628513278891
 20
5.690959134693946
 30
0.0
  0
VERTEX
  5
320
  8
DARTH
 10
0.7933800442986261
 20
5.655715533984631
 30
0.0
  0
VERTEX
  5
321
  8
DARTH
 10
0.769963720446881
 20
5.615217103429682
 30
0.0
  0
VERTEX
  5
322
  8
DARTH
 10
0.7460985541738492
 20
5.572365564891481
 30
0.0
  0
VERTEX
  5
323
  8
DARTH
 10
0.7235692198807255
 20
5.530062640232408
 30
0.0
  0
VERTEX
  5
324
  8
DARTH
 10
0.7133632004770027
 20
5.510023696189538
 30
0.0
  0
VERTEX
  5
325
  8
DARTH
 10
0.7041603919687054
 20
5.491210051314845
 30
0.0
  0
VERTEX
  5
326
  8
DARTH
 10
0.6961838786559826
 20
5.473984420841123
 30
0.0
  0
VERTEX
  5
327
  8
DARTH
 10
0.6896567448389838
 20
5.458709520001173
 30
0.0
  0
VERTEX
  5
328
  8
DARTH
 10
0.6848020748178583
 20
5.445748064027789
 30
0.0
  0
VERTEX
  5
329
  8
DARTH
 10
0.6818429528927559
 20
5.435462768153771
 30
0.0
  0
VERTEX
  5
32A
  8
DARTH
 10
0.6791628078360641
 20
5.422552139413869
 30
0.0
  0
VERTEX
  5
32B
  8
DARTH
 10
0.6766666757235928
 20
5.409040616514446
 30
0.0
  0
VERTEX
  5
32C
  8
DARTH
 10
0.6743883525231013
 20
5.395016963116404
 30
0.0
  0
VERTEX
  5
32D
  8
DARTH
 10
0.6723616342023486
 20
5.380569942880642
 30
0.0
  0
VERTEX
  5
32E
  8
DARTH
 10
0.6706203167290943
 20
5.365788319468065
 30
0.0
  0
VERTEX
  5
32F
  8
DARTH
 10
0.6691981960710974
 20
5.35076085653957
 30
0.0
  0
VERTEX
  5
330
  8
DARTH
 10
0.6681290681961176
 20
5.335576317756061
 30
0.0
  0
VERTEX
  5
331
  8
DARTH
 10
0.6674467290719139
 20
5.320323466778439
 30
0.0
  0
VERTEX
  5
332
  8
DARTH
 10
0.6671849746662457
 20
5.305091067267606
 30
0.0
  0
VERTEX
  5
333
  8
DARTH
 10
0.6673776009468724
 20
5.28996788288446
 30
0.0
  0
VERTEX
  5
334
  8
DARTH
 10
0.668058403881553
 20
5.275042677289906
 30
0.0
  0
VERTEX
  5
335
  8
DARTH
 10
0.6692611794380472
 20
5.260404214144843
 30
0.0
  0
VERTEX
  5
336
  8
DARTH
 10
0.671019723584114
 20
5.246141257110174
 30
0.0
  0
VERTEX
  5
337
  8
DARTH
 10
0.6733678322875127
 20
5.232342569846798
 30
0.0
  0
VERTEX
  5
338
  8
DARTH
 10
0.6763393015160027
 20
5.219096916015619
 30
0.0
  0
VERTEX
  5
339
  8
DARTH
 10
0.6799679272373433
 20
5.206493059277538
 30
0.0
  0
VERTEX
  5
33A
  8
DARTH
 10
0.6828789232654836
 20
5.19955136607064
 30
0.0
  0
VERTEX
  5
33B
  8
DARTH
 10
0.686908435369435
 20
5.192675571976197
 30
0.0
  0
VERTEX
  5
33C
  8
DARTH
 10
0.691770512835745
 20
5.185888274490409
 30
0.0
  0
VERTEX
  5
33D
  8
DARTH
 10
0.6971792049509612
 20
5.17921207110948
 30
0.0
  0
VERTEX
  5
33E
  8
DARTH
 10
0.7084926302743026
 20
5.166283336647007
 30
0.0
  0
VERTEX
  5
33F
  8
DARTH
 10
0.7138254620555228
 20
5.160076000557868
 30
0.0
  0
VERTEX
  5
340
  8
DARTH
 10
0.7185611056318395
 20
5.154070148558397
 30
0.0
  0
VERTEX
  5
341
  8
DARTH
 10
0.7276077876967869
 20
5.142861571943944
 30
0.0
  0
VERTEX
  5
342
  8
DARTH
 10
0.7385492437692392
 20
5.131094458439585
 30
0.0
  0
VERTEX
  5
343
  8
DARTH
 10
0.7509671177972075
 20
5.119120056546352
 30
0.0
  0
VERTEX
  5
344
  8
DARTH
 10
0.7644430537287024
 20
5.107289614765277
 30
0.0
  0
VERTEX
  5
345
  8
DARTH
 10
0.7785586955117346
 20
5.095954381597389
 30
0.0
  0
VERTEX
  5
346
  8
DARTH
 10
0.792895687094315
 20
5.085465605543721
 30
0.0
  0
VERTEX
  5
347
  8
DARTH
 10
0.8070356724244544
 20
5.076174535105302
 30
0.0
  0
VERTEX
  5
348
  8
DARTH
 10
0.8205602954501634
 20
5.068432418783166
 30
0.0
  0
VERTEX
  5
349
  8
DARTH
 10
0.827174055672699
 20
5.067172183980992
 30
0.0
  0
VERTEX
  5
34A
  8
DARTH
 10
0.8432398851235849
 20
5.065276410381925
 30
0.0
  0
VERTEX
  5
34B
  8
DARTH
 10
0.9024745732656224
 20
5.05967783020643
 30
0.0
  0
VERTEX
  5
34C
  8
DARTH
 10
0.9957580029867068
 20
5.051835845083306
 30
0.0
  0
VERTEX
  5
34D
  8
DARTH
 10
1.120583817397269
 20
5.04194962183918
 30
0.0
  0
VERTEX
  5
34E
  8
DARTH
 10
1.27444565960774
 20
5.030218327300679
 30
0.0
  0
VERTEX
  5
34F
  8
DARTH
 10
1.454837172728549
 20
5.016841128294425
 30
0.0
  0
VERTEX
  5
350
  8
DARTH
 10
1.659251999870129
 20
5.002017191647049
 30
0.0
  0
VERTEX
  5
351
  8
DARTH
 10
1.88518378414291
 20
4.985945684185176
 30
0.0
  0
VERTEX
  5
352
  8
DARTH
 10
2.130126168657323
 20
4.968825772735432
 30
0.0
  0
VERTEX
  5
353
  8
DARTH
 10
2.391572796523797
 20
4.950856624124444
 30
0.0
  0
VERTEX
  5
354
  8
DARTH
 10
2.667017310852764
 20
4.932237405178837
 30
0.0
  0
VERTEX
  5
355
  8
DARTH
 10
2.953953354754656
 20
4.913167282725238
 30
0.0
  0
VERTEX
  5
356
  8
DARTH
 10
3.249874571339903
 20
4.893845423590271
 30
0.0
  0
VERTEX
  5
357
  8
DARTH
 10
3.552274603718935
 20
4.874470994600566
 30
0.0
  0
VERTEX
  5
358
  8
DARTH
 10
3.858647095002183
 20
4.855243162582745
 30
0.0
  0
SEQEND
  5
FA8
  8
DARTH
  0
POLYLINE
  5
76
  8
DARTH
 66
     1
 10
0.0
 20
0.0
 30
0.0
 70
     1
  0
VERTEX
  5
359
  8
DARTH
 10
6.799919316336823
 20
5.669179935978129
 30
0.0
  0
VERTEX
  5
35A
  8
DARTH
 10
7.89027640915825
 20
4.665832517706415
 30
0.0
  0
VERTEX
  5
35B
  8
DARTH
 10
7.925372651703675
 20
4.665832517706415
 30
0.0
  0
VERTEX
  5
35C
  8
DARTH
 10
9.1308895979538
 20
5.60237053331103
 30
0.0
  0
VERTEX
  5
35D
  8
DARTH
 10
9.02535618510027
 20
5.627677751081185
 30
0.0
  0
VERTEX
  5
35E
  8
DARTH
 10
7.152280153891036
 20
5.686494418152789
 30
0.0
  0
VERTEX
  5
35F
  8
DARTH
 10
6.785849730474183
 20
5.709487866237881
 30
0.0
  0
SEQEND
  5
FA9
  8
DARTH
  0
POLYLINE
  5
77
  8
DARTH
 66
     1
 10
0.0
 20
0.0
 30
0.0
 70
     1
  0
VERTEX
  5
360
  8
DARTH
 10
10.6003208295806
 20
6.102288020091445
 30
0.0
  0
VERTEX
  5
361
  8
DARTH
 10
10.65493138823179
 20
6.028912599824023
 30
0.0
  0
VERTEX
  5
362
  8
DARTH
 10
11.10243059594615
 20
6.47684834143003
 30
0.0
  0
VERTEX
  5
363
  8
DARTH
 10
11.45053473028479
 20
6.704829380912379
 30
0.0
  0
VERTEX
  5
364
  8
DARTH
 10
11.74214733000705
 20
6.807815503891231
 30
0.0
  0
VERTEX
  5
365
  8
DARTH
 10
11.74507976507032
 20
6.854178771990469
 30
0.0
  0
VERTEX
  5
366
  8
DARTH
 10
11.74610061691179
 20
6.876420675227692
 30
0.0
  0
VERTEX
  5
367
  8
DARTH
 10
11.74638365173613
 20
6.899259583823302
 30
0.0
  0
VERTEX
  5
368
  8
DARTH
 10
11.74592605927432
 20
6.922739287404823
 30
0.0
  0
VERTEX
  5
369
  8
DARTH
 10
11.74472502925735
 20
6.946903575599784
 30
0.0
  0
VERTEX
  5
36A
  8
DARTH
 10
11.7427777514162
 20
6.971796238035711
 30
0.0
  0
VERTEX
  5
36B
  8
DARTH
 10
11.74008141548185
 20
6.997461064340129
 30
0.0
  0
VERTEX
  5
36C
  8
DARTH
 10
11.73663321118529
 20
7.023941844140566
 30
0.0
  0
VERTEX
  5
36D
  8
DARTH
 10
11.73243032825749
 20
7.05128236706455
 30
0.0
  0
VERTEX
  5
36E
  8
DARTH
 10
11.72286507774312
 20
7.109296157840914
 30
0.0
  0
VERTEX
  5
36F
  8
DARTH
 10
11.63274288829925
 20
7.206539609544683
 30
0.0
  0
VERTEX
  5
370
  8
DARTH
 10
11.58092100376085
 20
7.206539609544683
 30
0.0
  0
VERTEX
  5
371
  8
DARTH
 10
11.57490160437127
 20
7.206293025579939
 30
0.0
  0
VERTEX
  5
372
  8
DARTH
 10
11.56759816335218
 20
7.2055695192175
 30
0.0
  0
VERTEX
  5
373
  8
DARTH
 10
11.54953811720703
 20
7.202789212490309
 30
0.0
  0
VERTEX
  5
374
  8
DARTH
 10
11.52753878688857
 20
7.198393635744651
 30
0.0
  0
VERTEX
  5
375
  8
DARTH
 10
11.50239809395997
 20
7.192577735362065
 30
0.0
  0
VERTEX
  5
376
  8
DARTH
 10
11.4749139599844
 20
7.18553645772409
 30
0.0
  0
VERTEX
  5
377
  8
DARTH
 10
11.44588430652502
 20
7.177464749212264
 30
0.0
  0
VERTEX
  5
378
  8
DARTH
 10
11.41610705514501
 20
7.168557556208128
 30
0.0
  0
VERTEX
  5
379
  8
DARTH
 10
11.38638012740752
 20
7.159009825093221
 30
0.0
  0
VERTEX
  5
37A
  8
DARTH
 10
11.2436611355926
 20
7.11148004064176
 30
0.0
  0
VERTEX
  5
37B
  8
DARTH
 10
11.13375797206613
 20
7.04044619762133
 30
0.0
  0
VERTEX
  5
37C
  8
DARTH
 10
11.11106319451349
 20
7.025295320413139
 30
0.0
  0
VERTEX
  5
37D
  8
DARTH
 10
11.08869716728046
 20
7.009456501540793
 30
0.0
  0
VERTEX
  5
37E
  8
DARTH
 10
11.0672347660724
 20
6.993398269763742
 30
0.0
  0
VERTEX
  5
37F
  8
DARTH
 10
11.04725086659467
 20
6.977589153841436
 30
0.0
  0
VERTEX
  5
380
  8
DARTH
 10
11.02932034455261
 20
6.962497682533327
 30
0.0
  0
VERTEX
  5
381
  8
DARTH
 10
11.01401807565159
 20
6.948592384598863
 30
0.0
  0
VERTEX
  5
382
  8
DARTH
 10
11.00191893559695
 20
6.936341788797495
 30
0.0
  0
VERTEX
  5
383
  8
DARTH
 10
10.99725018754495
 20
6.930983419434051
 30
0.0
  0
VERTEX
  5
384
  8
DARTH
 10
10.99359780009405
 20
6.926214423888675
 30
0.0
  0
VERTEX
  5
385
  8
DARTH
 10
10.98634205912616
 20
6.916180494703507
 30
0.0
  0
VERTEX
  5
386
  8
DARTH
 10
10.98014676453187
 20
6.908333081417849
 30
0.0
  0
VERTEX
  5
387
  8
DARTH
 10
10.97501626888028
 20
6.902711896717877
 30
0.0
  0
VERTEX
  5
388
  8
DARTH
 10
10.97095492474044
 20
6.89935665328977
 30
0.0
  0
VERTEX
  5
389
  8
DARTH
 10
10.96932654466527
 20
6.898541169767096
 30
0.0
  0
VERTEX
  5
38A
  8
DARTH
 10
10.96796708468145
 20
6.898307063819705
 30
0.0
  0
VERTEX
  5
38B
  8
DARTH
 10
10.9668770888601
 20
6.898659299533369
 30
0.0
  0
VERTEX
  5
38C
  8
DARTH
 10
10.96605710127237
 20
6.899602840993861
 30
0.0
  0
VERTEX
  5
38D
  8
DARTH
 10
10.96550766598939
 20
6.901142652286953
 30
0.0
  0
VERTEX
  5
38E
  8
DARTH
 10
10.96522932708229
 20
6.903283697498417
 30
0.0
  0
VERTEX
  5
38F
  8
DARTH
 10
10.96548811468027
 20
6.909389346019551
 30
0.0
  0
VERTEX
  5
390
  8
DARTH
 10
10.9668378166354
 20
6.91795949924344
 30
0.0
  0
VERTEX
  5
391
  8
DARTH
 10
10.96928278551675
 20
6.929033869856264
 30
0.0
  0
VERTEX
  5
392
  8
DARTH
 10
10.9728273738934
 20
6.9426521705442
 30
0.0
  0
VERTEX
  5
393
  8
DARTH
 10
10.97747593433442
 20
6.958854113993427
 30
0.0
  0
VERTEX
  5
394
  8
DARTH
 10
10.99010238168589
 20
6.999167779920466
 30
0.0
  0
VERTEX
  5
395
  8
DARTH
 10
11.00719694812376
 20
7.050292569126807
 30
0.0
  0
VERTEX
  5
396
  8
DARTH
 10
11.05105310459908
 20
7.178721648685139
 30
0.0
  0
VERTEX
  5
397
  8
DARTH
 10
11.15642567721881
 20
7.437237957221999
 30
0.0
  0
VERTEX
  5
398
  8
DARTH
 10
11.18140448932528
 20
7.49771696990079
 30
0.0
  0
VERTEX
  5
399
  8
DARTH
 10
11.20691929574766
 20
7.557930563358542
 30
0.0
  0
VERTEX
  5
39A
  8
DARTH
 10
11.23288297180097
 20
7.61770301356369
 30
0.0
  0
VERTEX
  5
39B
  8
DARTH
 10
11.25920839280021
 20
7.676858596484668
 30
0.0
  0
VERTEX
  5
39C
  8
DARTH
 10
11.28580843406042
 20
7.735221588089909
 30
0.0
  0
VERTEX
  5
39D
  8
DARTH
 10
11.31259597089658
 20
7.792616264347849
 30
0.0
  0
VERTEX
  5
39E
  8
DARTH
 10
11.33948387862374
 20
7.848866901226921
 30
0.0
  0
VERTEX
  5
39F
  8
DARTH
 10
11.36638503255688
 20
7.903797774695557
 30
0.0
  0
VERTEX
  5
3A0
  8
DARTH
 10
11.39321230801104
 20
7.957233160722193
 30
0.0
  0
VERTEX
  5
3A1
  8
DARTH
 10
11.41987858030122
 20
8.008997335275264
 30
0.0
  0
VERTEX
  5
3A2
  8
DARTH
 10
11.44629672474244
 20
8.058914574323202
 30
0.0
  0
VERTEX
  5
3A3
  8
DARTH
 10
11.47237961664971
 20
8.106809153834442
 30
0.0
  0
VERTEX
  5
3A4
  8
DARTH
 10
11.49804013133805
 20
8.152505349777417
 30
0.0
  0
VERTEX
  5
3A5
  8
DARTH
 10
11.52319114412246
 20
8.195827438120563
 30
0.0
  0
VERTEX
  5
3A6
  8
DARTH
 10
11.54774553031797
 20
8.236599694832314
 30
0.0
  0
VERTEX
  5
3A7
  8
DARTH
 10
11.57161616523959
 20
8.274646395881101
 30
0.0
  0
VERTEX
  5
3A8
  8
DARTH
 10
11.66793302225778
 20
8.424760473852599
 30
0.0
  0
VERTEX
  5
3A9
  8
DARTH
 10
11.88785264765762
 20
8.634528267001224
 30
0.0
  0
VERTEX
  5
3AA
  8
DARTH
 10
11.93288585026554
 20
8.634528267001224
 30
0.0
  0
VERTEX
  5
3AB
  8
DARTH
 10
11.91235180972084
 20
8.833483975795886
 30
0.0
  0
VERTEX
  5
3AC
  8
DARTH
 10
11.87216222522296
 20
8.926907185585698
 30
0.0
  0
VERTEX
  5
3AD
  8
DARTH
 10
11.86319425012445
 20
8.946514497977628
 30
0.0
  0
VERTEX
  5
3AE
  8
DARTH
 10
11.85309829067636
 20
8.96643129609118
 30
0.0
  0
VERTEX
  5
3AF
  8
DARTH
 10
11.84221899024181
 20
8.986105482390434
 30
0.0
  0
VERTEX
  5
3B0
  8
DARTH
 10
11.83090099218389
 20
9.004984959339463
 30
0.0
  0
VERTEX
  5
3B1
  8
DARTH
 10
11.81948893986571
 20
9.022517629402351
 30
0.0
  0
VERTEX
  5
3B2
  8
DARTH
 10
11.80832747665036
 20
9.038151395043176
 30
0.0
  0
VERTEX
  5
3B3
  8
DARTH
 10
11.79776124590096
 20
9.051334158726018
 30
0.0
  0
VERTEX
  5
3B4
  8
DARTH
 10
11.79280904375196
 20
9.05683388435322
 30
0.0
  0
VERTEX
  5
3B5
  8
DARTH
 10
11.78813489098061
 20
9.061513822914955
 30
0.0
  0
VERTEX
  5
3B6
  8
DARTH
 10
11.74429714123614
 20
9.102697250454401
 30
0.0
  0
VERTEX
  5
3B7
  8
DARTH
 10
11.65362082615961
 20
9.079938944084274
 30
0.0
  0
VERTEX
  5
3B8
  8
DARTH
 10
11.37135295936463
 20
8.816331882145048
 30
0.0
  0
VERTEX
  5
3B9
  8
DARTH
 10
11.26240253671549
 20
8.671743757769748
 30
0.0
  0
VERTEX
  5
3BA
  8
DARTH
 10
11.23205946923387
 20
8.630768073204159
 30
0.0
  0
VERTEX
  5
3BB
  8
DARTH
 10
11.20161196114005
 20
8.588244698118672
 30
0.0
  0
VERTEX
  5
3BC
  8
DARTH
 10
11.17107213571563
 20
8.544198273967702
 30
0.0
  0
VERTEX
  5
3BD
  8
DARTH
 10
11.14045211624222
 20
8.49865344220566
 30
0.0
  0
VERTEX
  5
3BE
  8
DARTH
 10
11.10976402600142
 20
8.45163484428696
 30
0.0
  0
VERTEX
  5
3BF
  8
DARTH
 10
11.07901998827485
 20
8.40316712166602
 30
0.0
  0
VERTEX
  5
3C0
  8
DARTH
 10
11.04823212634411
 20
8.353274915797247
 30
0.0
  0
VERTEX
  5
3C1
  8
DARTH
 10
11.0174125634908
 20
8.301982868135056
 30
0.0
  0
VERTEX
  5
3C2
  8
DARTH
 10
10.98657342299654
 20
8.249315620133864
 30
0.0
  0
VERTEX
  5
3C3
  8
DARTH
 10
10.95572682814292
 20
8.195297813248082
 30
0.0
  0
VERTEX
  5
3C4
  8
DARTH
 10
10.92488490221155
 20
8.139954088932125
 30
0.0
  0
VERTEX
  5
3C5
  8
DARTH
 10
10.89405976848405
 20
8.083309088640405
 30
0.0
  0
VERTEX
  5
3C6
  8
DARTH
 10
10.86326355024201
 20
8.025387453827335
 30
0.0
  0
VERTEX
  5
3C7
  8
DARTH
 10
10.83250837076704
 20
7.96621382594733
 30
0.0
  0
VERTEX
  5
3C8
  8
DARTH
 10
10.80180635334075
 20
7.905812846454804
 30
0.0
  0
VERTEX
  5
3C9
  8
DARTH
 10
10.77116962124474
 20
7.844209156804169
 30
0.0
  0
VERTEX
  5
3CA
  8
DARTH
 10
10.74061029776062
 20
7.78142739844984
 30
0.0
  0
VERTEX
  5
3CB
  8
DARTH
 10
10.71014050617
 20
7.71749221284623
 30
0.0
  0
VERTEX
  5
3CC
  8
DARTH
 10
10.67977236975448
 20
7.652428241447752
 30
0.0
  0
VERTEX
  5
3CD
  8
DARTH
 10
10.64951801179567
 20
7.58626012570882
 30
0.0
  0
VERTEX
  5
3CE
  8
DARTH
 10
10.61938955557517
 20
7.519012507083848
 30
0.0
  0
VERTEX
  5
3CF
  8
DARTH
 10
10.5893991243746
 20
7.450710027027248
 30
0.0
  0
VERTEX
  5
3D0
  8
DARTH
 10
10.55955884147555
 20
7.381377326993436
 30
0.0
  0
VERTEX
  5
3D1
  8
DARTH
 10
10.52988083015963
 20
7.311039048436824
 30
0.0
  0
VERTEX
  5
3D2
  8
DARTH
 10
10.50037721370845
 20
7.239719832811824
 30
0.0
  0
VERTEX
  5
3D3
  8
DARTH
 10
10.47106011540362
 20
7.167444321572852
 30
0.0
  0
VERTEX
  5
3D4
  8
DARTH
 10
10.44194165852674
 20
7.094237156174321
 30
0.0
  0
VERTEX
  5
3D5
  8
DARTH
 10
10.41303396635941
 20
7.020122978070646
 30
0.0
  0
VERTEX
  5
3D6
  8
DARTH
 10
10.38434916218325
 20
6.945126428716236
 30
0.0
  0
VERTEX
  5
3D7
  8
DARTH
 10
10.35589936927986
 20
6.869272149565509
 30
0.0
  0
VERTEX
  5
3D8
  8
DARTH
 10
10.32769671093084
 20
6.792584782072876
 30
0.0
  0
VERTEX
  5
3D9
  8
DARTH
 10
10.29975331041781
 20
6.715088967692752
 30
0.0
  0
VERTEX
  5
3DA
  8
DARTH
 10
10.18719233176989
 20
6.399818744617932
 30
0.0
  0
VERTEX
  5
3DB
  8
DARTH
 10
10.16485428298006
 20
6.342545582918042
 30
0.0
  0
VERTEX
  5
3DC
  8
DARTH
 10
10.38709648310761
 20
6.296642200168685
 30
0.0
  0
VERTEX
  5
3DD
  8
DARTH
 10
10.46640337701851
 20
6.236152820263774
 30
0.0
  0
VERTEX
  5
3DE
  8
DARTH
 10
10.48344906916039
 20
6.222504175996168
 30
0.0
  0
VERTEX
  5
3DF
  8
DARTH
 10
10.50150587131342
 20
6.206876148967095
 30
0.0
  0
VERTEX
  5
3E0
  8
DARTH
 10
10.52002451267609
 20
6.189817794021012
 30
0.0
  0
VERTEX
  5
3E1
  8
DARTH
 10
10.53845572244687
 20
6.171878166002378
 30
0.0
  0
VERTEX
  5
3E2
  8
DARTH
 10
10.55625022982424
 20
6.153606319755647
 30
0.0
  0
VERTEX
  5
3E3
  8
DARTH
 10
10.57285876400666
 20
6.135551310125276
 30
0.0
  0
VERTEX
  5
3E4
  8
DARTH
 10
10.58773205419262
 20
6.118262191955723
 30
0.0
  0
SEQEND
  5
FAA
  8
DARTH
  0
POLYLINE
  5
78
  8
DARTH
 66
     1
 10
0.0
 20
0.0
 30
0.0
 70
     1
  0
VERTEX
  5
3E5
  8
DARTH
 10
4.746710696988395
 20
6.389436879225391
 30
0.0
  0
VERTEX
  5
3E6
  8
DARTH
 10
4.963933899606979
 20
6.2441855781919
 30
0.0
  0
VERTEX
  5
3E7
  8
DARTH
 10
4.973206553226826
 20
6.243414170923865
 30
0.0
  0
VERTEX
  5
3E8
  8
DARTH
 10
4.974362965591309
 20
6.243662700136971
 30
0.0
  0
VERTEX
  5
3E9
  8
DARTH
 10
4.975902592738991
 20
6.244546103368741
 30
0.0
  0
VERTEX
  5
3EA
  8
DARTH
 10
4.980028740563911
 20
6.248089808948768
 30
0.0
  0
VERTEX
  5
3EB
  8
DARTH
 10
4.985379495061506
 20
6.253789841784942
 30
0.0
  0
VERTEX
  5
3EC
  8
DARTH
 10
4.991749354591697
 20
6.261390755998256
 30
0.0
  0
VERTEX
  5
3ED
  8
DARTH
 10
4.998932817514403
 20
6.27063710570971
 30
0.0
  0
VERTEX
  5
3EE
  8
DARTH
 10
5.006724382189544
 20
6.2812734450403
 30
0.0
  0
VERTEX
  5
3EF
  8
DARTH
 10
5.014918546977041
 20
6.293044328111021
 30
0.0
  0
VERTEX
  5
3F0
  8
DARTH
 10
5.023309810236812
 20
6.305694309042869
 30
0.0
  0
VERTEX
  5
3F1
  8
DARTH
 10
5.032815327908104
 20
6.31935427061388
 30
0.0
  0
VERTEX
  5
3F2
  8
DARTH
 10
5.04420297782718
 20
6.334019787191103
 30
0.0
  0
VERTEX
  5
3F3
  8
DARTH
 10
5.057043341199493
 20
6.34923245027905
 30
0.0
  0
VERTEX
  5
3F4
  8
DARTH
 10
5.070906999230495
 20
6.364533851382234
 30
0.0
  0
VERTEX
  5
3F5
  8
DARTH
 10
5.085364533125637
 20
6.379465582005169
 30
0.0
  0
VERTEX
  5
3F6
  8
DARTH
 10
5.099986524090372
 20
6.393569233652372
 30
0.0
  0
VERTEX
  5
3F7
  8
DARTH
 10
5.114343553330152
 20
6.406386397828353
 30
0.0
  0
VERTEX
  5
3F8
  8
DARTH
 10
5.128006202050429
 20
6.417458666037627
 30
0.0
  0
VERTEX
  5
3F9
  8
DARTH
 10
5.141898322488871
 20
6.427306966767159
 30
0.0
  0
VERTEX
  5
3FA
  8
DARTH
 10
5.158043069968949
 20
6.437458859039877
 30
0.0
  0
VERTEX
  5
3FB
  8
DARTH
 10
5.176111481190244
 20
6.447784782295107
 30
0.0
  0
VERTEX
  5
3FC
  8
DARTH
 10
5.195774592852336
 20
6.458155175972179
 30
0.0
  0
VERTEX
  5
3FD
  8
DARTH
 10
5.216703441654808
 20
6.468440479510416
 30
0.0
  0
VERTEX
  5
3FE
  8
DARTH
 10
5.23856906429724
 20
6.478511132349148
 30
0.0
  0
VERTEX
  5
3FF
  8
DARTH
 10
5.261042497479213
 20
6.488237573927701
 30
0.0
  0
VERTEX
  5
400
  8
DARTH
 10
5.283794777900309
 20
6.497490243685403
 30
0.0
  0
VERTEX
  5
401
  8
DARTH
 10
5.306496942260109
 20
6.50613958106158
 30
0.0
  0
VERTEX
  5
402
  8
DARTH
 10
5.328820027258196
 20
6.514056025495562
 30
0.0
  0
VERTEX
  5
403
  8
DARTH
 10
5.350435069594148
 20
6.521110016426674
 30
0.0
  0
VERTEX
  5
404
  8
DARTH
 10
5.371013105967549
 20
6.527171993294244
 30
0.0
  0
VERTEX
  5
405
  8
DARTH
 10
5.39022517307798
 20
6.532112395537599
 30
0.0
  0
VERTEX
  5
406
  8
DARTH
 10
5.407742307625021
 20
6.535801662596066
 30
0.0
  0
VERTEX
  5
407
  8
DARTH
 10
5.423235546308254
 20
6.538110233908974
 30
0.0
  0
VERTEX
  5
408
  8
DARTH
 10
5.430120403669561
 20
6.538706270985632
 30
0.0
  0
VERTEX
  5
409
  8
DARTH
 10
5.436375925827259
 20
6.538908548915648
 30
0.0
  0
VERTEX
  5
40A
  8
DARTH
 10
5.473929848698601
 20
6.538908548915648
 30
0.0
  0
VERTEX
  5
40B
  8
DARTH
 10
5.473929848698601
 20
6.572017955476237
 30
0.0
  0
VERTEX
  5
40C
  8
DARTH
 10
5.172751496545614
 20
7.123085726966051
 30
0.0
  0
VERTEX
  5
40D
  8
DARTH
 10
5.051838096966984
 20
7.327084106602703
 30
0.0
  0
VERTEX
  5
40E
  8
DARTH
 10
4.898111644347928
 20
7.586718407958438
 30
0.0
  0
VERTEX
  5
40F
  8
DARTH
 10
4.867124487141
 20
7.638741374026139
 30
0.0
  0
VERTEX
  5
410
  8
DARTH
 10
4.83567992159651
 20
7.690919988037686
 30
0.0
  0
VERTEX
  5
411
  8
DARTH
 10
4.771601297265729
 20
7.795482923436254
 30
0.0
  0
VERTEX
  5
412
  8
DARTH
 10
4.706241234897355
 20
7.899884741242035
 30
0.0
  0
VERTEX
  5
413
  8
DARTH
 10
4.639965198033158
 20
8.003602968542916
 30
0.0
  0
VERTEX
  5
414
  8
DARTH
 10
4.573138650214906
 20
8.106115132426787
 30
0.0
  0
VERTEX
  5
415
  8
DARTH
 10
4.506127054984368
 20
8.206898759981534
 30
0.0
  0
VERTEX
  5
416
  8
DARTH
 10
4.439295875883316
 20
8.305431378295053
 30
0.0
  0
VERTEX
  5
417
  8
DARTH
 10
4.373010576453515
 20
8.401190514455227
 30
0.0
  0
VERTEX
  5
418
  8
DARTH
 10
4.307636620236737
 20
8.493653695549948
 30
0.0
  0
VERTEX
  5
419
  8
DARTH
 10
4.275405603190034
 20
8.53848603016273
 30
0.0
  0
VERTEX
  5
41A
  8
DARTH
 10
4.243539470774751
 20
8.582298448667105
 30
0.0
  0
VERTEX
  5
41B
  8
DARTH
 10
4.212083905933608
 20
8.625025641949062
 30
0.0
  0
VERTEX
  5
41C
  8
DARTH
 10
4.181084591609326
 20
8.666602300894588
 30
0.0
  0
VERTEX
  5
41D
  8
DARTH
 10
4.150587210744627
 20
8.706963116389668
 30
0.0
  0
VERTEX
  5
41E
  8
DARTH
 10
4.120637446282232
 20
8.746042779320286
 30
0.0
  0
VERTEX
  5
41F
  8
DARTH
 10
4.091280981164862
 20
8.78377598057243
 30
0.0
  0
VERTEX
  5
420
  8
DARTH
 10
4.062563498335237
 20
8.820097411032087
 30
0.0
  0
VERTEX
  5
421
  8
DARTH
 10
4.034530680736079
 20
8.854941761585241
 30
0.0
  0
VERTEX
  5
422
  8
DARTH
 10
4.00722821131011
 20
8.888243723117883
 30
0.0
  0
VERTEX
  5
423
  8
DARTH
 10
3.980701773000051
 20
8.919937986515993
 30
0.0
  0
VERTEX
  5
424
  8
DARTH
 10
3.954997048748623
 20
8.94995924266556
 30
0.0
  0
VERTEX
  5
425
  8
DARTH
 10
3.930159721498546
 20
8.978242182452572
 30
0.0
  0
VERTEX
  5
426
  8
DARTH
 10
3.906235474192542
 20
9.004721496763013
 30
0.0
  0
VERTEX
  5
427
  8
DARTH
 10
3.866598431617606
 20
9.04717227449927
 30
0.0
  0
VERTEX
  5
428
  8
DARTH
 10
3.826907133516962
 20
9.08824512676913
 30
0.0
  0
VERTEX
  5
429
  8
DARTH
 10
3.787395700331101
 20
9.127752282655623
 30
0.0
  0
VERTEX
  5
42A
  8
DARTH
 10
3.748298252500515
 20
9.165505971241767
 30
0.0
  0
VERTEX
  5
42B
  8
DARTH
 10
3.709848910465698
 20
9.201318421610587
 30
0.0
  0
VERTEX
  5
42C
  8
DARTH
 10
3.672281794667142
 20
9.235001862845102
 30
0.0
  0
VERTEX
  5
42D
  8
DARTH
 10
3.63583102554534
 20
9.266368524028334
 30
0.0
  0
VERTEX
  5
42E
  8
DARTH
 10
3.600730723540784
 20
9.295230634243307
 30
0.0
  0
VERTEX
  5
42F
  8
DARTH
 10
3.567215009093968
 20
9.321400422573042
 30
0.0
  0
VERTEX
  5
430
  8
DARTH
 10
3.551124534842366
 20
9.333417017619393
 30
0.0
  0
VERTEX
  5
431
  8
DARTH
 10
3.535518002645384
 20
9.344690118100566
 30
0.0
  0
VERTEX
  5
432
  8
DARTH
 10
3.520424677558082
 20
9.355196252651941
 30
0.0
  0
VERTEX
  5
433
  8
DARTH
 10
3.505873824635524
 20
9.364911949908896
 30
0.0
  0
VERTEX
  5
434
  8
DARTH
 10
3.49189470893277
 20
9.373813738506808
 30
0.0
  0
VERTEX
  5
435
  8
DARTH
 10
3.478516595504881
 20
9.381878147081053
 30
0.0
  0
VERTEX
  5
436
  8
DARTH
 10
3.46576874940692
 20
9.389081704267015
 30
0.0
  0
VERTEX
  5
437
  8
DARTH
 10
3.453680435693949
 20
9.395400938700067
 30
0.0
  0
VERTEX
  5
438
  8
DARTH
 10
3.442280919421028
 20
9.400812379015585
 30
0.0
  0
VERTEX
  5
439
  8
DARTH
 10
3.431599465643219
 20
9.405292553848952
 30
0.0
  0
VERTEX
  5
43A
  8
DARTH
 10
3.421665339415584
 20
9.40881799183554
 30
0.0
  0
VERTEX
  5
43B
  8
DARTH
 10
3.412507805793185
 20
9.411365221610732
 30
0.0
  0
VERTEX
  5
43C
  8
DARTH
 10
3.404156129831082
 20
9.412910771809901
 30
0.0
  0
VERTEX
  5
43D
  8
DARTH
 10
3.396639576584338
 20
9.413431171068432
 30
0.0
  0
VERTEX
  5
43E
  8
DARTH
 10
3.366594726469984
 20
9.413431171068432
 30
0.0
  0
VERTEX
  5
43F
  8
DARTH
 10
3.327753201547937
 20
9.343886268919574
 30
0.0
  0
VERTEX
  5
440
  8
DARTH
 10
3.319318112469208
 20
9.327725768477997
 30
0.0
  0
VERTEX
  5
441
  8
DARTH
 10
3.31022593796472
 20
9.308415151388676
 30
0.0
  0
VERTEX
  5
442
  8
DARTH
 10
3.300763123586501
 20
9.286679835800129
 30
0.0
  0
VERTEX
  5
443
  8
DARTH
 10
3.291216114886579
 20
9.263245239860872
 30
0.0
  0
VERTEX
  5
444
  8
DARTH
 10
3.281871357416983
 20
9.23883678171942
 30
0.0
  0
VERTEX
  5
445
  8
DARTH
 10
3.273015296729743
 20
9.214179879524293
 30
0.0
  0
VERTEX
  5
446
  8
DARTH
 10
3.264934378376887
 20
9.189999951424003
 30
0.0
  0
VERTEX
  5
447
  8
DARTH
 10
3.257915047910444
 20
9.167022415567068
 30
0.0
  0
VERTEX
  5
448
  8
DARTH
 10
3.226918419194999
 20
9.059703464363418
 30
0.0
  0
VERTEX
  5
449
  8
DARTH
 10
3.253158162296775
 20
8.904391765388915
 30
0.0
  0
VERTEX
  5
44A
  8
DARTH
 10
3.86976077246495
 20
8.272849194660601
 30
0.0
  0
VERTEX
  5
44B
  8
DARTH
 10
4.047885911153336
 20
8.05032829836754
 30
0.0
  0
VERTEX
  5
44C
  8
DARTH
 10
4.076287479000417
 20
8.014570300554013
 30
0.0
  0
VERTEX
  5
44D
  8
DARTH
 10
4.104351544799878
 20
7.97868570732864
 30
0.0
  0
VERTEX
  5
44E
  8
DARTH
 10
4.132050071824782
 20
7.94272016127395
 30
0.0
  0
VERTEX
  5
44F
  8
DARTH
 10
4.159355023348191
 20
7.906719304972475
 30
0.0
  0
VERTEX
  5
450
  8
DARTH
 10
4.186238362643164
 20
7.870728781006744
 30
0.0
  0
VERTEX
  5
451
  8
DARTH
 10
4.212672052982763
 20
7.83479423195929
 30
0.0
  0
VERTEX
  5
452
  8
DARTH
 10
4.238628057640049
 20
7.798961300412641
 30
0.0
  0
VERTEX
  5
453
  8
DARTH
 10
4.264078339888085
 20
7.763275628949327
 30
0.0
  0
VERTEX
  5
454
  8
DARTH
 10
4.28899486299993
 20
7.727782860151882
 30
0.0
  0
VERTEX
  5
455
  8
DARTH
 10
4.313349590248645
 20
7.692528636602832
 30
0.0
  0
VERTEX
  5
456
  8
DARTH
 10
4.337114484907292
 20
7.657558600884709
 30
0.0
  0
VERTEX
  5
457
  8
DARTH
 10
4.360261510248931
 20
7.622918395580045
 30
0.0
  0
VERTEX
  5
458
  8
DARTH
 10
4.382762629546623
 20
7.588653663271367
 30
0.0
  0
VERTEX
  5
459
  8
DARTH
 10
4.404589806073431
 20
7.55481004654121
 30
0.0
  0
VERTEX
  5
45A
  8
DARTH
 10
4.425715003102413
 20
7.5214331879721
 30
0.0
  0
VERTEX
  5
45B
  8
DARTH
 10
4.446110183906633
 20
7.48856873014657
 30
0.0
  0
VERTEX
  5
45C
  8
DARTH
 10
4.46574731175915
 20
7.456262315647149
 30
0.0
  0
VERTEX
  5
45D
  8
DARTH
 10
4.484598349933028
 20
7.424559587056368
 30
0.0
  0
VERTEX
  5
45E
  8
DARTH
 10
4.502635261701323
 20
7.393506186956757
 30
0.0
  0
VERTEX
  5
45F
  8
DARTH
 10
4.519830010337102
 20
7.363147757930847
 30
0.0
  0
VERTEX
  5
460
  8
DARTH
 10
4.536154559113421
 20
7.333529942561168
 30
0.0
  0
VERTEX
  5
461
  8
DARTH
 10
4.551580871303345
 20
7.30469838343025
 30
0.0
  0
VERTEX
  5
462
  8
DARTH
 10
4.566080910179933
 20
7.276698723120624
 30
0.0
  0
VERTEX
  5
463
  8
DARTH
 10
4.579626639016245
 20
7.24957660421482
 30
0.0
  0
VERTEX
  5
464
  8
DARTH
 10
4.592190021085344
 20
7.223377669295369
 30
0.0
  0
VERTEX
  5
465
  8
DARTH
 10
4.60374301966029
 20
7.1981475609448
 30
0.0
  0
VERTEX
  5
466
  8
DARTH
 10
4.614257598014145
 20
7.173931921745645
 30
0.0
  0
VERTEX
  5
467
  8
DARTH
 10
4.62370571941997
 20
7.150776394280433
 30
0.0
  0
VERTEX
  5
468
  8
DARTH
 10
4.632059347150826
 20
7.128726621131695
 30
0.0
  0
VERTEX
  5
469
  8
DARTH
 10
4.639290444479773
 20
7.107828244881961
 30
0.0
  0
VERTEX
  5
46A
  8
DARTH
 10
4.645370974679873
 20
7.088126908113763
 30
0.0
  0
VERTEX
  5
46B
  8
DARTH
 10
4.650272901024187
 20
7.069668253409629
 30
0.0
  0
VERTEX
  5
46C
  8
DARTH
 10
4.663170948415726
 20
7.016250779853204
 30
0.0
  0
VERTEX
  5
46D
  8
DARTH
 10
4.630118369292463
 20
7.030773307582415
 30
0.0
  0
VERTEX
  5
46E
  8
DARTH
 10
4.14737407518608
 20
7.276623479763032
 30
0.0
  0
VERTEX
  5
46F
  8
DARTH
 10
3.989114804278099
 20
7.32403911063386
 30
0.0
  0
VERTEX
  5
470
  8
DARTH
 10
3.95273230660559
 20
7.287656612961351
 30
0.0
  0
VERTEX
  5
471
  8
DARTH
 10
3.8634049823273
 20
6.937632654569098
 30
0.0
  0
VERTEX
  5
472
  8
DARTH
 10
3.906851386944342
 20
6.894092647988144
 30
0.0
  0
VERTEX
  5
473
  8
DARTH
 10
4.218169440657077
 20
6.714390414123516
 30
0.0
  0
VERTEX
  5
474
  8
DARTH
 10
4.28514023028934
 20
6.675327424184498
 30
0.0
  0
VERTEX
  5
475
  8
DARTH
 10
4.356188672031847
 20
6.633154170658591
 30
0.0
  0
VERTEX
  5
476
  8
DARTH
 10
4.429146920887925
 20
6.589203470778775
 30
0.0
  0
VERTEX
  5
477
  8
DARTH
 10
4.501847131860904
 20
6.544808141778031
 30
0.0
  0
VERTEX
  5
478
  8
DARTH
 10
4.572121459954112
 20
6.50130100088934
 30
0.0
  0
VERTEX
  5
479
  8
DARTH
 10
4.637802060170877
 20
6.460014865345682
 30
0.0
  0
VERTEX
  5
47A
  8
DARTH
 10
4.696721087514528
 20
6.42228255238004
 30
0.0
  0
SEQEND
  5
FAB
  8
DARTH
  0
POLYLINE
  5
79
  8
DARTH
 66
     1
 10
0.0
 20
0.0
 30
0.0
 70
     1
  0
VERTEX
  5
47B
  8
DARTH
 10
6.132288255707788
 20
5.94280035797153
 30
0.0
  0
VERTEX
  5
47C
  8
DARTH
 10
9.377717022654483
 20
5.801984701069442
 30
0.0
  0
VERTEX
  5
47D
  8
DARTH
 10
9.720805206588846
 20
5.797096259327832
 30
0.0
  0
VERTEX
  5
47E
  8
DARTH
 10
9.720805206588846
 20
5.848218288255955
 30
0.0
  0
VERTEX
  5
47F
  8
DARTH
 10
9.721177246031512
 20
5.859784851237087
 30
0.0
  0
VERTEX
  5
480
  8
DARTH
 10
9.722243521754756
 20
5.873083125443591
 30
0.0
  0
VERTEX
  5
481
  8
DARTH
 10
9.723929269851435
 20
5.887642744169407
 30
0.0
  0
VERTEX
  5
482
  8
DARTH
 10
9.726159726414414
 20
5.902993340708476
 30
0.0
  0
VERTEX
  5
483
  8
DARTH
 10
9.72886012753655
 20
5.918664548354739
 30
0.0
  0
VERTEX
  5
484
  8
DARTH
 10
9.731955709310707
 20
5.934186000402136
 30
0.0
  0
VERTEX
  5
485
  8
DARTH
 10
9.735371707829746
 20
5.949087330144609
 30
0.0
  0
VERTEX
  5
486
  8
DARTH
 10
9.739033359186523
 20
5.9628981708761
 30
0.0
  0
VERTEX
  5
487
  8
DARTH
 10
9.745713307462324
 20
5.987974195354966
 30
0.0
  0
VERTEX
  5
488
  8
DARTH
 10
9.750426439467493
 20
6.009266457537223
 30
0.0
  0
VERTEX
  5
489
  8
DARTH
 10
9.751910221120546
 20
6.017790279974109
 30
0.0
  0
VERTEX
  5
48A
  8
DARTH
 10
9.75274002480829
 20
6.024524084485228
 30
0.0
  0
VERTEX
  5
48B
  8
DARTH
 10
9.752861759231504
 20
6.029186511953373
 30
0.0
  0
VERTEX
  5
48C
  8
DARTH
 10
9.752640196937907
 20
6.030653034572206
 30
0.0
  0
VERTEX
  5
48D
  8
DARTH
 10
9.75222133309097
 20
6.031496203261343
 30
0.0
  0
VERTEX
  5
48E
  8
DARTH
 10
9.74718115439775
 20
6.036536381954564
 30
0.0
  0
VERTEX
  5
48F
  8
DARTH
 10
7.708639371081897
 20
6.11277079919963
 30
0.0
  0
VERTEX
  5
490
  8
DARTH
 10
6.252067427849585
 20
6.16800240412174
 30
0.0
  0
VERTEX
  5
491
  8
DARTH
 10
5.96538049055053
 20
6.168000585573521
 30
0.0
  0
VERTEX
  5
492
  8
DARTH
 10
5.965604220108819
 20
5.954731370865243
 30
0.0
  0
SEQEND
  5
FAC
  8
DARTH
  0
POLYLINE
  5
7A
  8
DARTH
 66
     1
 10
0.0
 20
0.0
 30
0.0
 70
     1
  0
VERTEX
  5
493
  8
DARTH
 10
9.005161268719736
 20
6.789270196651536
 30
0.0
  0
VERTEX
  5
494
  8
DARTH
 10
9.019722652398237
 20
6.279274247559913
 30
0.0
  0
VERTEX
  5
495
  8
DARTH
 10
9.345573132838055
 20
6.279274247559913
 30
0.0
  0
VERTEX
  5
496
  8
DARTH
 10
9.356755520639425
 20
6.321001188849225
 30
0.0
  0
VERTEX
  5
497
  8
DARTH
 10
9.359006805575781
 20
6.330518789031981
 30
0.0
  0
VERTEX
  5
498
  8
DARTH
 10
9.361116681517935
 20
6.341592999719865
 30
0.0
  0
VERTEX
  5
499
  8
DARTH
 10
9.363038282617612
 20
6.35382448104507
 30
0.0
  0
VERTEX
  5
49A
  8
DARTH
 10
9.364724743026548
 20
6.366813893139787
 30
0.0
  0
VERTEX
  5
49B
  8
DARTH
 10
9.366129196896466
 20
6.380161896136209
 30
0.0
  0
VERTEX
  5
49C
  8
DARTH
 10
9.367204778379094
 20
6.393469150166528
 30
0.0
  0
VERTEX
  5
49D
  8
DARTH
 10
9.367904621626163
 20
6.406336315362936
 30
0.0
  0
VERTEX
  5
49E
  8
DARTH
 10
9.368181860789402
 20
6.418364051857626
 30
0.0
  0
VERTEX
  5
49F
  8
DARTH
 10
9.368425813138009
 20
6.473999973576715
 30
0.0
  0
VERTEX
  5
4A0
  8
DARTH
 10
9.01420595183479
 20
6.802847039705648
 30
0.0
  0
SEQEND
  5
FAD
  8
DARTH
  0
POLYLINE
  5
7B
  8
DARTH
 66
     1
 10
0.0
 20
0.0
 30
0.0
 70
     1
  0
VERTEX
  5
4A1
  8
DARTH
 10
9.837156218043997
 20
6.381273437378237
 30
0.0
  0
VERTEX
  5
4A2
  8
DARTH
 10
9.910461181558869
 20
6.276918772114062
 30
0.0
  0
VERTEX
  5
4A3
  8
DARTH
 10
9.937694464858666
 20
6.287369163456836
 30
0.0
  0
VERTEX
  5
4A4
  8
DARTH
 10
9.950064278422758
 20
6.291426854470395
 30
0.0
  0
VERTEX
  5
4A5
  8
DARTH
 10
9.963612731053992
 20
6.294749752342668
 30
0.0
  0
VERTEX
  5
4A6
  8
DARTH
 10
9.976699528744291
 20
6.296994953607717
 30
0.0
  0
VERTEX
  5
4A7
  8
DARTH
 10
9.98255721510907
 20
6.297606260679428
 30
0.0
  0
VERTEX
  5
4A8
  8
DARTH
 10
9.98768437748559
 20
6.297819554799608
 30
0.0
  0
VERTEX
  5
4A9
  8
DARTH
 10
9.992879442603666
 20
6.29829269557269
 30
0.0
  0
VERTEX
  5
4AA
  8
DARTH
 10
9.998931740175108
 20
6.299648730611335
 30
0.0
  0
VERTEX
  5
4AB
  8
DARTH
 10
10.00562258792189
 20
6.301792578994635
 30
0.0
  0
VERTEX
  5
4AC
  8
DARTH
 10
10.01273330356601
 20
6.304629159801683
 30
0.0
  0
VERTEX
  5
4AD
  8
DARTH
 10
10.02004520482943
 20
6.308063392111573
 30
0.0
  0
VERTEX
  5
4AE
  8
DARTH
 10
10.02733960943413
 20
6.312000195003398
 30
0.0
  0
VERTEX
  5
4AF
  8
DARTH
 10
10.0343978351021
 20
6.31634448755625
 30
0.0
  0
VERTEX
  5
4B0
  8
DARTH
 10
10.04100119955531
 20
6.321001188849225
 30
0.0
  0
VERTEX
  5
4B1
  8
DARTH
 10
10.07156139229791
 20
6.344182822898846
 30
0.0
  0
VERTEX
  5
4B2
  8
DARTH
 10
10.23879276461437
 20
6.918560713895252
 30
0.0
  0
VERTEX
  5
4B3
  8
DARTH
 10
10.07716184861001
 20
7.132069042869787
 30
0.0
  0
VERTEX
  5
4B4
  8
DARTH
 10
10.02836582302832
 20
7.196092536254358
 30
0.0
  0
VERTEX
  5
4B5
  8
DARTH
 10
9.979736119548155
 20
7.259027471438451
 30
0.0
  0
VERTEX
  5
4B6
  8
DARTH
 10
9.931268325656635
 20
7.320879032167962
 30
0.0
  0
VERTEX
  5
4B7
  8
DARTH
 10
9.882958028840878
 20
7.381652402188791
 30
0.0
  0
VERTEX
  5
4B8
  8
DARTH
 10
9.834800816588007
 20
7.441352765246838
 30
0.0
  0
VERTEX
  5
4B9
  8
DARTH
 10
9.786792276385139
 20
7.499985305087998
 30
0.0
  0
VERTEX
  5
4BA
  8
DARTH
 10
9.738927995719393
 20
7.557555205458173
 30
0.0
  0
VERTEX
  5
4BB
  8
DARTH
 10
9.691203562077888
 20
7.61406765010326
 30
0.0
  0
VERTEX
  5
4BC
  8
DARTH
 10
9.643614562947743
 20
7.669527822769156
 30
0.0
  0
VERTEX
  5
4BD
  8
DARTH
 10
9.596156585816077
 20
7.723940907201762
 30
0.0
  0
VERTEX
  5
4BE
  8
DARTH
 10
9.548825218170009
 20
7.777312087146973
 30
0.0
  0
VERTEX
  5
4BF
  8
DARTH
 10
9.501616047496658
 20
7.829646546350689
 30
0.0
  0
VERTEX
  5
4C0
  8
DARTH
 10
9.454524661283145
 20
7.880949468558811
 30
0.0
  0
VERTEX
  5
4C1
  8
DARTH
 10
9.407546647016584
 20
7.931226037517234
 30
0.0
  0
VERTEX
  5
4C2
  8
DARTH
 10
9.3606775921841
 20
7.980481436971859
 30
0.0
  0
VERTEX
  5
4C3
  8
DARTH
 10
9.313913084272809
 20
8.028720850668583
 30
0.0
  0
VERTEX
  5
4C4
  8
DARTH
 10
9.080992106819355
 20
8.26672491374208
 30
0.0
  0
VERTEX
  5
4C5
  8
DARTH
 10
8.95117495614149
 20
8.366169985672094
 30
0.0
  0
VERTEX
  5
4C6
  8
DARTH
 10
8.926488948700674
 20
8.384616807188
 30
0.0
  0
VERTEX
  5
4C7
  8
DARTH
 10
8.900380804565602
 20
8.40327107896447
 30
0.0
  0
VERTEX
  5
4C8
  8
DARTH
 10
8.873189970255488
 20
8.42194073718333
 30
0.0
  0
VERTEX
  5
4C9
  8
DARTH
 10
8.845255892289545
 20
8.440433718026407
 30
0.0
  0
VERTEX
  5
4CA
  8
DARTH
 10
8.816918017186989
 20
8.458557957675522
 30
0.0
  0
VERTEX
  5
4CB
  8
DARTH
 10
8.788515791467034
 20
8.476121392312502
 30
0.0
  0
VERTEX
  5
4CC
  8
DARTH
 10
8.760388661648893
 20
8.492931958119172
 30
0.0
  0
VERTEX
  5
4CD
  8
DARTH
 10
8.73287607425178
 20
8.508797591277354
 30
0.0
  0
VERTEX
  5
4CE
  8
DARTH
 10
8.706317475794911
 20
8.523526227968874
 30
0.0
  0
VERTEX
  5
4CF
  8
DARTH
 10
8.681052312797503
 20
8.536925804375558
 30
0.0
  0
VERTEX
  5
4D0
  8
DARTH
 10
8.657420031778765
 20
8.54880425667923
 30
0.0
  0
VERTEX
  5
4D1
  8
DARTH
 10
8.635760079257913
 20
8.558969521061714
 30
0.0
  0
VERTEX
  5
4D2
  8
DARTH
 10
8.616411901754162
 20
8.567229533704836
 30
0.0
  0
VERTEX
  5
4D3
  8
DARTH
 10
8.599714945786726
 20
8.573392230790418
 30
0.0
  0
VERTEX
  5
4D4
  8
DARTH
 10
8.59246675291638
 20
8.57562706605595
 30
0.0
  0
VERTEX
  5
4D5
  8
DARTH
 10
8.58600865787482
 20
8.577265548500288
 30
0.0
  0
VERTEX
  5
4D6
  8
DARTH
 10
8.580383091476943
 20
8.57828367014615
 30
0.0
  0
VERTEX
  5
4D7
  8
DARTH
 10
8.575632484537655
 20
8.578657423016267
 30
0.0
  0
VERTEX
  5
4D8
  8
DARTH
 10
8.552450850488036
 20
8.57889234528214
 30
0.0
  0
VERTEX
  5
4D9
  8
DARTH
 10
8.552450850488036
 20
8.33763107277221
 30
0.0
  0
SEQEND
  5
FAE
  8
DARTH
  0
POLYLINE
  5
7C
  8
DARTH
 66
     1
 10
0.0
 20
0.0
 30
0.0
 70
     1
  0
VERTEX
  5
4DA
  8
DARTH
 10
8.385367455193347
 20
7.601997200520758
 30
0.0
  0
VERTEX
  5
4DB
  8
DARTH
 10
8.410089082488508
 20
6.334910169278999
 30
0.0
  0
VERTEX
  5
4DC
  8
DARTH
 10
8.735714946298897
 20
6.334910169278999
 30
0.0
  0
VERTEX
  5
4DD
  8
DARTH
 10
8.754488204776802
 20
6.365285939575834
 30
0.0
  0
VERTEX
  5
4DE
  8
DARTH
 10
8.758539732639758
 20
7.271448184883615
 30
0.0
  0
VERTEX
  5
4DF
  8
DARTH
 10
8.756449230124687
 20
7.311684806706994
 30
0.0
  0
VERTEX
  5
4E0
  8
DARTH
 10
8.454445327504095
 20
7.56817310071874
 30
0.0
  0
VERTEX
  5
4E1
  8
DARTH
 10
8.428383750168729
 20
7.593562509439751
 30
0.0
  0
VERTEX
  5
4E2
  8
DARTH
 10
8.422975504800347
 20
7.598489681875858
 30
0.0
  0
VERTEX
  5
4E3
  8
DARTH
 10
8.41759561174959
 20
7.602751824200315
 30
0.0
  0
VERTEX
  5
4E4
  8
DARTH
 10
8.412385734621783
 20
7.60627957058345
 30
0.0
  0
VERTEX
  5
4E5
  8
DARTH
 10
8.40748753702225
 20
7.609003555195589
 30
0.0
  0
VERTEX
  5
4E6
  8
DARTH
 10
8.403042682556315
 20
7.610854412207061
 30
0.0
  0
VERTEX
  5
4E7
  8
DARTH
 10
8.399192834829305
 20
7.611762775788196
 30
0.0
  0
VERTEX
  5
4E8
  8
DARTH
 10
8.396079657446544
 20
7.611659280109318
 30
0.0
  0
VERTEX
  5
4E9
  8
DARTH
 10
8.394843590010922
 20
7.611206408225604
 30
0.0
  0
VERTEX
  5
4EA
  8
DARTH
 10
8.393844814013356
 20
7.610474559340759
 30
0.0
  0
SEQEND
  5
FAF
  8
DARTH
  0
POLYLINE
  5
7D
  8
DARTH
 66
     1
 10
0.0
 20
0.0
 30
0.0
 70
     1
  0
VERTEX
  5
4EB
  8
DARTH
 10
6.310246860555925
 20
6.56672650977519
 30
0.0
  0
VERTEX
  5
4EC
  8
DARTH
 10
6.308468674484894
 20
6.390546090998084
 30
0.0
  0
VERTEX
  5
4ED
  8
DARTH
 10
6.426424779542614
 20
6.390546090998084
 30
0.0
  0
VERTEX
  5
4EE
  8
DARTH
 10
6.451805815901034
 20
6.390777202603485
 30
0.0
  0
VERTEX
  5
4EF
  8
DARTH
 10
6.478743600660719
 20
6.391439575099347
 30
0.0
  0
VERTEX
  5
4F0
  8
DARTH
 10
6.506415487352777
 20
6.392486765005158
 30
0.0
  0
VERTEX
  5
4F1
  8
DARTH
 10
6.533998829508311
 20
6.393872328840407
 30
0.0
  0
VERTEX
  5
4F2
  8
DARTH
 10
6.560670980658429
 20
6.395549823124584
 30
0.0
  0
VERTEX
  5
4F3
  8
DARTH
 10
6.585609294334235
 20
6.397472804377177
 30
0.0
  0
VERTEX
  5
4F4
  8
DARTH
 10
6.607991124066834
 20
6.399594829117675
 30
0.0
  0
VERTEX
  5
4F5
  8
DARTH
 10
6.626993823387334
 20
6.401869453865567
 30
0.0
  0
VERTEX
  5
4F6
  8
DARTH
 10
6.709606762174333
 20
6.413192816733051
 30
0.0
  0
VERTEX
  5
4F7
  8
DARTH
 10
6.693523307592434
 20
6.937632654569098
 30
0.0
  0
VERTEX
  5
4F8
  8
DARTH
 10
6.677049149651726
 20
6.955412746895913
 30
0.0
  0
SEQEND
  5
FB0
  8
DARTH
  0
POLYLINE
  5
7E
  8
DARTH
 66
     1
 10
0.0
 20
0.0
 30
0.0
 70
     1
  0
VERTEX
  5
4F9
  8
DARTH
 10
6.957554427874234
 20
7.389080760407689
 30
0.0
  0
VERTEX
  5
4FA
  8
DARTH
 10
6.957554427874234
 20
6.390546090998084
 30
0.0
  0
VERTEX
  5
4FB
  8
DARTH
 10
7.347005879907837
 20
6.390546090998084
 30
0.0
  0
VERTEX
  5
4FC
  8
DARTH
 10
7.350308540313236
 20
6.775361216221762
 30
0.0
  0
VERTEX
  5
4FD
  8
DARTH
 10
7.353032808730879
 20
7.133686477596794
 30
0.0
  0
VERTEX
  5
4FE
  8
DARTH
 10
7.354944867123159
 20
7.454813206758828
 30
0.0
  0
VERTEX
  5
4FF
  8
DARTH
 10
7.356278533527684
 20
7.749450072072211
 30
0.0
  0
SEQEND
  5
FB1
  8
DARTH
  0
POLYLINE
  5
7F
  8
DARTH
 66
     1
 10
0.0
 20
0.0
 30
0.0
 70
     1
  0
VERTEX
  5
500
  8
DARTH
 10
7.717912024701743
 20
6.355805481626005
 30
0.0
  0
VERTEX
  5
501
  8
DARTH
 10
7.778184273230753
 20
6.348325762133497
 30
0.0
  0
VERTEX
  5
502
  8
DARTH
 10
7.810001065963856
 20
6.345187338545561
 30
0.0
  0
VERTEX
  5
503
  8
DARTH
 10
7.852075731763915
 20
6.34217137884187
 30
0.0
  0
VERTEX
  5
504
  8
DARTH
 10
7.898931609586709
 20
6.339620696740616
 30
0.0
  0
VERTEX
  5
505
  8
DARTH
 10
7.945092038388013
 20
6.337878105959993
 30
0.0
  0
VERTEX
  5
506
  8
DARTH
 10
8.051727555016262
 20
6.334910169278999
 30
0.0
  0
VERTEX
  5
507
  8
DARTH
 10
8.051727555016262
 20
7.646186117500156
 30
0.0
  0
VERTEX
  5
508
  8
DARTH
 10
8.027898452095807
 20
7.874170670173715
 30
0.0
  0
VERTEX
  5
509
  8
DARTH
 10
7.717912024701743
 20
7.874170670173715
 30
0.0
  0
SEQEND
  5
FB2
  8
DARTH
  0
POLYLINE
  5
80
  8
DARTH
 66
     1
 10
0.0
 20
0.0
 30
0.0
 70
     1
  0
VERTEX
  5
50A
  8
DARTH
 10
4.873636087075088
 20
8.18016823962869
 30
0.0
  0
VERTEX
  5
50B
  8
DARTH
 10
5.311445195108362
 20
7.150903687825595
 30
0.0
  0
VERTEX
  5
50C
  8
DARTH
 10
5.338782696981823
 20
7.150903687825595
 30
0.0
  0
VERTEX
  5
50D
  8
DARTH
 10
5.738827579602432
 20
7.749397292309986
 30
0.0
  0
VERTEX
  5
50E
  8
DARTH
 10
5.718035418852864
 20
8.171573767105917
 30
0.0
  0
VERTEX
  5
50F
  8
DARTH
 10
5.342697197843664
 20
8.812978776937817
 30
0.0
  0
VERTEX
  5
510
  8
DARTH
 10
5.130841664764237
 20
8.935505748069572
 30
0.0
  0
VERTEX
  5
511
  8
DARTH
 10
4.815571441689416
 20
8.914722054283486
 30
0.0
  0
VERTEX
  5
512
  8
DARTH
 10
4.728630072336804
 20
8.884545155309093
 30
0.0
  0
VERTEX
  5
513
  8
DARTH
 10
4.710792116880377
 20
8.878033492094767
 30
0.0
  0
VERTEX
  5
514
  8
DARTH
 10
4.693429302908617
 20
8.871089243266148
 30
0.0
  0
VERTEX
  5
515
  8
DARTH
 10
4.676973236730879
 20
8.863926563804366
 30
0.0
  0
VERTEX
  5
516
  8
DARTH
 10
4.661855524656515
 20
8.856759608690556
 30
0.0
  0
VERTEX
  5
517
  8
DARTH
 10
4.648507772994883
 20
8.849802532905851
 30
0.0
  0
VERTEX
  5
518
  8
DARTH
 10
4.637361588055334
 20
8.843269491431382
 30
0.0
  0
VERTEX
  5
519
  8
DARTH
 10
4.628848576147226
 20
8.837374639248281
 30
0.0
  0
VERTEX
  5
51A
  8
DARTH
 10
4.625714387051634
 20
8.8347334575726
 30
0.0
  0
VERTEX
  5
51B
  8
DARTH
 10
4.62340034357991
 20
8.832332131337687
 30
0.0
  0
VERTEX
  5
51C
  8
DARTH
 10
4.605111984175625
 20
8.810296006340675
 30
0.0
  0
SEQEND
  5
FB3
  8
DARTH
  0
POLYLINE
  5
81
  8
DARTH
 66
     1
 10
0.0
 20
0.0
 30
0.0
 70
     1
  0
VERTEX
  5
51D
  8
DARTH
 10
10.23163293213503
 20
7.238643534699582
 30
0.0
  0
VERTEX
  5
51E
  8
DARTH
 10
10.24283118520297
 20
7.221286219604521
 30
0.0
  0
VERTEX
  5
51F
  8
DARTH
 10
10.25364402448822
 20
7.205085108615373
 30
0.0
  0
VERTEX
  5
520
  8
DARTH
 10
10.26380863499534
 20
7.190395376592635
 30
0.0
  0
VERTEX
  5
521
  8
DARTH
 10
10.27306220172893
 20
7.177572198396806
 30
0.0
  0
VERTEX
  5
522
  8
DARTH
 10
10.28114190969356
 20
7.166970748888382
 30
0.0
  0
VERTEX
  5
523
  8
DARTH
 10
10.28778494389379
 20
7.158946202927861
 30
0.0
  0
VERTEX
  5
524
  8
DARTH
 10
10.29272848933422
 20
7.153853735375742
 30
0.0
  0
VERTEX
  5
525
  8
DARTH
 10
10.29448082408343
 20
7.152518023146739
 30
0.0
  0
VERTEX
  5
526
  8
DARTH
 10
10.2957097310194
 20
7.152048521092523
 30
0.0
  0
VERTEX
  5
527
  8
DARTH
 10
10.30498238463925
 20
7.151839085802314
 30
0.0
  0
VERTEX
  5
528
  8
DARTH
 10
10.72767238599645
 20
8.309985390306556
 30
0.0
  0
VERTEX
  5
529
  8
DARTH
 10
10.96334079164844
 20
8.948404510188428
 30
0.0
  0
VERTEX
  5
52A
  8
DARTH
 10
10.96334079164844
 20
8.98943811133706
 30
0.0
  0
VERTEX
  5
52B
  8
DARTH
 10
10.65734322219346
 20
8.965555028438787
 30
0.0
  0
VERTEX
  5
52C
  8
DARTH
 10
10.6180091257453
 20
8.953659917707029
 30
0.0
  0
VERTEX
  5
52D
  8
DARTH
 10
10.47195667463953
 20
8.57889234528214
 30
0.0
  0
VERTEX
  5
52E
  8
DARTH
 10
10.4572756225904
 20
8.57889234528214
 30
0.0
  0
VERTEX
  5
52F
  8
DARTH
 10
10.45266625747782
 20
8.579704392610303
 30
0.0
  0
VERTEX
  5
530
  8
DARTH
 10
10.44546399360403
 20
8.58200792878563
 30
0.0
  0
VERTEX
  5
531
  8
DARTH
 10
10.43606763775754
 20
8.585604045094382
 30
0.0
  0
VERTEX
  5
532
  8
DARTH
 10
10.4248759967269
 20
8.59029383282282
 30
0.0
  0
VERTEX
  5
533
  8
DARTH
 10
10.39870208626725
 20
8.6021587876838
 30
0.0
  0
VERTEX
  5
534
  8
DARTH
 10
10.37013271653332
 20
8.61601152365866
 30
0.0
  0
VERTEX
  5
535
  8
DARTH
 10
10.34235834183333
 20
8.630260771037488
 30
0.0
  0
VERTEX
  5
536
  8
DARTH
 10
10.31856941647553
 20
8.64331526011037
 30
0.0
  0
VERTEX
  5
537
  8
DARTH
 10
10.30916651427127
 20
8.648897198497735
 30
0.0
  0
VERTEX
  5
538
  8
DARTH
 10
10.30195639476814
 20
8.653583721167397
 30
0.0
  0
VERTEX
  5
539
  8
DARTH
 10
10.29733786475468
 20
8.657175919405617
 30
0.0
  0
VERTEX
  5
53A
  8
DARTH
 10
10.29612507292798
 20
8.658499487889891
 30
0.0
  0
VERTEX
  5
53B
  8
DARTH
 10
10.2957097310194
 20
8.659474884498655
 30
0.0
  0
VERTEX
  5
53C
  8
DARTH
 10
10.2957097310194
 20
8.665122370099843
 30
0.0
  0
VERTEX
  5
53D
  8
DARTH
 10
10.34207299911864
 20
8.801436032158486
 30
0.0
  0
VERTEX
  5
53E
  8
DARTH
 10
10.3600749868103
 20
8.855571104228506
 30
0.0
  0
VERTEX
  5
53F
  8
DARTH
 10
10.37481705721373
 20
8.902201064880012
 30
0.0
  0
VERTEX
  5
540
  8
DARTH
 10
10.38477791559442
 20
8.936351187572743
 30
0.0
  0
VERTEX
  5
541
  8
DARTH
 10
10.38748998567172
 20
8.947191707640735
 30
0.0
  0
VERTEX
  5
542
  8
DARTH
 10
10.38843626721788
 20
8.953046745766436
 30
0.0
  0
VERTEX
  5
543
  8
DARTH
 10
10.38843626721788
 20
8.968343797315743
 30
0.0
  0
VERTEX
  5
544
  8
DARTH
 10
10.02602154604569
 20
8.968343797315743
 30
0.0
  0
VERTEX
  5
545
  8
DARTH
 10
9.627589160881957
 20
8.013260474471432
 30
0.0
  0
VERTEX
  5
546
  8
DARTH
 10
9.628078670390371
 20
7.973371890852095
 30
0.0
  0
VERTEX
  5
547
  8
DARTH
 10
9.87193230157772
 20
7.68871759777676
 30
0.0
  0
VERTEX
  5
548
  8
DARTH
 10
9.898336399339254
 20
7.68871759777676
 30
0.0
  0
VERTEX
  5
549
  8
DARTH
 10
10.13213633869246
 20
8.245817337734218
 30
0.0
  0
VERTEX
  5
54A
  8
DARTH
 10
10.19403880916409
 20
8.194447481441758
 30
0.0
  0
VERTEX
  5
54B
  8
DARTH
 10
10.20650103726141
 20
8.183692379216296
 30
0.0
  0
VERTEX
  5
54C
  8
DARTH
 10
10.21818002681101
 20
8.172816011740146
 30
0.0
  0
VERTEX
  5
54D
  8
DARTH
 10
10.22881638930362
 20
8.162116689232693
 30
0.0
  0
VERTEX
  5
54E
  8
DARTH
 10
10.23815073622999
 20
8.151892721913335
 30
0.0
  0
VERTEX
  5
54F
  8
DARTH
 10
10.24592367908086
 20
8.142442420001458
 30
0.0
  0
VERTEX
  5
550
  8
DARTH
 10
10.25187582934696
 20
8.134064093716454
 30
0.0
  0
VERTEX
  5
551
  8
DARTH
 10
10.25408804835158
 20
8.130370143377586
 30
0.0
  0
VERTEX
  5
552
  8
DARTH
 10
10.25574779851905
 20
8.127056053277713
 30
0.0
  0
VERTEX
  5
553
  8
DARTH
 10
10.25682265628569
 20
8.12415911219425
 30
0.0
  0
VERTEX
  5
554
  8
DARTH
 10
10.25728019808786
 20
8.121716608904624
 30
0.0
  0
VERTEX
  5
555
  8
DARTH
 10
10.25861911654001
 20
8.10035559265995
 30
0.0
  0
VERTEX
  5
556
  8
DARTH
 10
9.9995827121695
 20
7.538011882461303
 30
0.0
  0
VERTEX
  5
557
  8
DARTH
 10
10.08820574952001
 20
7.431520497738871
 30
0.0
  0
VERTEX
  5
558
  8
DARTH
 10
10.10712680949952
 20
7.408365481699588
 30
0.0
  0
VERTEX
  5
559
  8
DARTH
 10
10.12694080282853
 20
7.38335552772555
 30
0.0
  0
VERTEX
  5
55A
  8
DARTH
 10
10.14705945395334
 20
7.357281732735474
 30
0.0
  0
VERTEX
  5
55B
  8
DARTH
 10
10.16689448732025
 20
7.330935193648077
 30
0.0
  0
VERTEX
  5
55C
  8
DARTH
 10
10.18585762737557
 20
7.305107007382073
 30
0.0
  0
VERTEX
  5
55D
  8
DARTH
 10
10.2033605985656
 20
7.280588270856179
 30
0.0
  0
VERTEX
  5
55E
  8
DARTH
 10
10.21881512533666
 20
7.25817008098911
 30
0.0
  0
SEQEND
  5
FB4
  8
DARTH
  0
POLYLINE
  5
82
  8
DARTH
 66
     1
 10
0.0
 20
0.0
 30
0.0
 70
     1
  0
VERTEX
  5
55F
  8
DARTH
 10
5.849171948298775
 20
8.105987010669907
 30
0.0
  0
VERTEX
  5
560
  8
DARTH
 10
5.938841031239308
 20
7.903755166982625
 30
0.0
  0
VERTEX
  5
561
  8
DARTH
 10
6.104791023223232
 20
8.069705158966547
 30
0.0
  0
VERTEX
  5
562
  8
DARTH
 10
5.974905545317313
 20
8.529690593789889
 30
0.0
  0
VERTEX
  5
563
  8
DARTH
 10
5.989267185926391
 20
8.544052234398963
 30
0.0
  0
VERTEX
  5
564
  8
DARTH
 10
6.243560099145959
 20
8.228972364858743
 30
0.0
  0
VERTEX
  5
565
  8
DARTH
 10
6.280157402078792
 20
8.226531507727929
 30
0.0
  0
VERTEX
  5
566
  8
DARTH
 10
6.531012361361238
 20
8.399492506919648
 30
0.0
  0
VERTEX
  5
567
  8
DARTH
 10
6.530260486303316
 20
8.421257233744727
 30
0.0
  0
VERTEX
  5
568
  8
DARTH
 10
6.08278860566954
 20
8.996161758175285
 30
0.0
  0
VERTEX
  5
569
  8
DARTH
 10
5.998921941910663
 20
9.091416179045453
 30
0.0
  0
VERTEX
  5
56A
  8
DARTH
 10
5.548128243375424
 20
9.045475841131513
 30
0.0
  0
VERTEX
  5
56B
  8
DARTH
 10
5.492483738797317
 20
9.033254257766744
 30
0.0
  0
VERTEX
  5
56C
  8
DARTH
 10
5.481305931578843
 20
9.030489612718805
 30
0.0
  0
VERTEX
  5
56D
  8
DARTH
 10
5.470878021004099
 20
9.02731197484167
 30
0.0
  0
VERTEX
  5
56E
  8
DARTH
 10
5.461428236486391
 20
9.02383368532842
 30
0.0
  0
VERTEX
  5
56F
  8
DARTH
 10
5.45318480743903
 20
9.020167085372133
 30
0.0
  0
VERTEX
  5
570
  8
DARTH
 10
5.446375963275322
 20
9.016424516165886
 30
0.0
  0
VERTEX
  5
571
  8
DARTH
 10
5.441229933408578
 20
9.012718318902758
 30
0.0
  0
VERTEX
  5
572
  8
DARTH
 10
5.439351795528225
 20
9.010913966372698
 30
0.0
  0
VERTEX
  5
573
  8
DARTH
 10
5.437974947252105
 20
9.009160834775827
 30
0.0
  0
VERTEX
  5
574
  8
DARTH
 10
5.437127917256879
 20
9.00747296676127
 30
0.0
  0
VERTEX
  5
575
  8
DARTH
 10
5.436839234219212
 20
9.005864404978167
 30
0.0
  0
VERTEX
  5
576
  8
DARTH
 10
5.436839234219212
 20
8.99069613555436
 30
0.0
  0
SEQEND
  5
FB5
  8
DARTH
  0
POLYLINE
  5
83
  8
DARTH
 66
     1
 10
0.0
 20
0.0
 30
0.0
 70
     1
  0
VERTEX
  5
577
  8
DARTH
 10
5.570006619767971
 20
6.56672650977519
 30
0.0
  0
VERTEX
  5
578
  8
DARTH
 10
5.798472725393271
 20
6.414152269105847
 30
0.0
  0
VERTEX
  5
579
  8
DARTH
 10
5.821712045115431
 20
6.436909359097323
 30
0.0
  0
VERTEX
  5
57A
  8
DARTH
 10
6.765065750760405
 20
7.976169859992039
 30
0.0
  0
VERTEX
  5
57B
  8
DARTH
 10
7.054797672963714
 20
8.450740254793198
 30
0.0
  0
VERTEX
  5
57C
  8
DARTH
 10
7.047902991708288
 20
8.456671892323692
 30
0.0
  0
VERTEX
  5
57D
  8
DARTH
 10
7.046585339905285
 20
8.457148020931408
 30
0.0
  0
VERTEX
  5
57E
  8
DARTH
 10
7.044097306935483
 20
8.457359419518934
 30
0.0
  0
VERTEX
  5
57F
  8
DARTH
 10
7.035867464077128
 20
8.457026504663668
 30
0.0
  0
VERTEX
  5
580
  8
DARTH
 10
7.023728196296525
 20
8.455750103818389
 30
0.0
  0
VERTEX
  5
581
  8
DARTH
 10
7.008194236756972
 20
8.453607173043594
 30
0.0
  0
VERTEX
  5
582
  8
DARTH
 10
6.989780318621769
 20
8.450674668399785
 30
0.0
  0
VERTEX
  5
583
  8
DARTH
 10
6.969001175054214
 20
8.447029545947462
 30
0.0
  0
VERTEX
  5
584
  8
DARTH
 10
6.922406144275252
 20
8.437909271859256
 30
0.0
  0
VERTEX
  5
585
  8
DARTH
 10
6.803803978097642
 20
8.413215013864324
 30
0.0
  0
VERTEX
  5
586
  8
DARTH
 10
6.494629099642365
 20
8.257897096475498
 30
0.0
  0
VERTEX
  5
587
  8
DARTH
 10
6.347586487718633
 20
8.140248466360294
 30
0.0
  0
VERTEX
  5
588
  8
DARTH
 10
6.318727092183316
 20
8.116710448847718
 30
0.0
  0
VERTEX
  5
589
  8
DARTH
 10
6.289882318056735
 20
8.092292407978313
 30
0.0
  0
VERTEX
  5
58A
  8
DARTH
 10
6.261062918508465
 20
8.067008306268026
 30
0.0
  0
VERTEX
  5
58B
  8
DARTH
 10
6.232279646708077
 20
8.0408721062328
 30
0.0
  0
VERTEX
  5
58C
  8
DARTH
 10
6.203543255825152
 20
8.013897770388587
 30
0.0
  0
VERTEX
  5
58D
  8
DARTH
 10
6.174864499029259
 20
7.986099261251329
 30
0.0
  0
VERTEX
  5
58E
  8
DARTH
 10
6.146254129489975
 20
7.957490541336973
 30
0.0
  0
VERTEX
  5
58F
  8
DARTH
 10
6.117722900376874
 20
7.928085573161465
 30
0.0
  0
VERTEX
  5
590
  8
DARTH
 10
6.089281564859531
 20
7.897898319240751
 30
0.0
  0
VERTEX
  5
591
  8
DARTH
 10
6.06094087610752
 20
7.866942742090776
 30
0.0
  0
VERTEX
  5
592
  8
DARTH
 10
6.032711587290418
 20
7.835232804227489
 30
0.0
  0
VERTEX
  5
593
  8
DARTH
 10
6.004604451577796
 20
7.802782468166832
 30
0.0
  0
VERTEX
  5
594
  8
DARTH
 10
5.97663022213923
 20
7.769605696424753
 30
0.0
  0
VERTEX
  5
595
  8
DARTH
 10
5.948799652144295
 20
7.735716451517199
 30
0.0
  0
VERTEX
  5
596
  8
DARTH
 10
5.921123494762566
 20
7.701128695960114
 30
0.0
  0
VERTEX
  5
597
  8
DARTH
 10
5.893612503163616
 20
7.665856392269445
 30
0.0
  0
VERTEX
  5
598
  8
DARTH
 10
5.86627743051702
 20
7.62991350296114
 30
0.0
  0
VERTEX
  5
599
  8
DARTH
 10
5.839129029992355
 20
7.593313990551142
 30
0.0
  0
VERTEX
  5
59A
  8
DARTH
 10
5.812178054759193
 20
7.556071817555397
 30
0.0
  0
VERTEX
  5
59B
  8
DARTH
 10
5.785435257987109
 20
7.518200946489854
 30
0.0
  0
VERTEX
  5
59C
  8
DARTH
 10
5.758911392845677
 20
7.479715339870457
 30
0.0
  0
VERTEX
  5
59D
  8
DARTH
 10
5.732617212504474
 20
7.440628960213152
 30
0.0
  0
VERTEX
  5
59E
  8
DARTH
 10
5.706563470133072
 20
7.400955770033884
 30
0.0
  0
VERTEX
  5
59F
  8
DARTH
 10
5.680760918901048
 20
7.360709731848601
 30
0.0
  0
VERTEX
  5
5A0
  8
DARTH
 10
5.655220311977975
 20
7.319904808173249
 30
0.0
  0
VERTEX
  5
5A1
  8
DARTH
 10
5.629952402533426
 20
7.278554961523773
 30
0.0
  0
VERTEX
  5
5A2
  8
DARTH
 10
5.604967943736979
 20
7.23667415441612
 30
0.0
  0
VERTEX
  5
5A3
  8
DARTH
 10
5.580277688758208
 20
7.194276349366234
 30
0.0
  0
VERTEX
  5
5A4
  8
DARTH
 10
5.555892390766685
 20
7.151375508890063
 30
0.0
  0
VERTEX
  5
5A5
  8
DARTH
 10
5.531822802931988
 20
7.107985595503552
 30
0.0
  0
VERTEX
  5
5A6
  8
DARTH
 10
5.508079678423689
 20
7.064120571722649
 30
0.0
  0
VERTEX
  5
5A7
  8
DARTH
 10
5.484673770411363
 20
7.019794400063297
 30
0.0
  0
VERTEX
  5
5A8
  8
DARTH
 10
5.430807807825404
 20
6.916503073160541
 30
0.0
  0
SEQEND
  5
FB6
  8
DARTH
  0
POLYLINE
  5
84
  8
DARTH
 66
     1
 10
0.0
 20
0.0
 30
0.0
 70
     1
  0
VERTEX
  5
5A9
  8
DARTH
 10
8.441179007049865
 20
8.996161758175285
 30
0.0
  0
VERTEX
  5
5AA
  8
DARTH
 10
8.441368263359097
 20
8.994299077658095
 30
0.0
  0
VERTEX
  5
5AB
  8
DARTH
 10
8.441910677374555
 20
8.992561360636955
 30
0.0
  0
VERTEX
  5
5AC
  8
DARTH
 10
8.442768216727876
 20
8.990986639480223
 30
0.0
  0
VERTEX
  5
5AD
  8
DARTH
 10
8.443902849050694
 20
8.989612946556267
 30
0.0
  0
VERTEX
  5
5AE
  8
DARTH
 10
8.44527654197465
 20
8.988478314233449
 30
0.0
  0
VERTEX
  5
5AF
  8
DARTH
 10
8.446851263131382
 20
8.987620774880128
 30
0.0
  0
VERTEX
  5
5B0
  8
DARTH
 10
8.448588980152522
 20
8.98707836086467
 30
0.0
  0
VERTEX
  5
5B1
  8
DARTH
 10
8.450451660669712
 20
8.986889104555438
 30
0.0
  0
VERTEX
  5
5B2
  8
DARTH
 10
8.452314341186902
 20
8.98707836086467
 30
0.0
  0
VERTEX
  5
5B3
  8
DARTH
 10
8.454052058208042
 20
8.987620774880128
 30
0.0
  0
VERTEX
  5
5B4
  8
DARTH
 10
8.455626779364774
 20
8.988478314233449
 30
0.0
  0
VERTEX
  5
5B5
  8
DARTH
 10
8.45700047228873
 20
8.989612946556267
 30
0.0
  0
VERTEX
  5
5B6
  8
DARTH
 10
8.45813510461155
 20
8.990986639480223
 30
0.0
  0
VERTEX
  5
5B7
  8
DARTH
 10
8.45899264396487
 20
8.992561360636955
 30
0.0
  0
VERTEX
  5
5B8
  8
DARTH
 10
8.459535057980327
 20
8.994299077658095
 30
0.0
  0
VERTEX
  5
5B9
  8
DARTH
 10
8.45972431428956
 20
8.996161758175285
 30
0.0
  0
VERTEX
  5
5BA
  8
DARTH
 10
8.459535057980327
 20
8.998024438692475
 30
0.0
  0
VERTEX
  5
5BB
  8
DARTH
 10
8.45899264396487
 20
8.999762155713615
 30
0.0
  0
VERTEX
  5
5BC
  8
DARTH
 10
8.45813510461155
 20
9.001336876870347
 30
0.0
  0
VERTEX
  5
5BD
  8
DARTH
 10
8.45700047228873
 20
9.002710569794303
 30
0.0
  0
VERTEX
  5
5BE
  8
DARTH
 10
8.455626779364774
 20
9.003845202117123
 30
0.0
  0
VERTEX
  5
5BF
  8
DARTH
 10
8.454052058208042
 20
9.004702741470442
 30
0.0
  0
VERTEX
  5
5C0
  8
DARTH
 10
8.452314341186902
 20
9.005245155485902
 30
0.0
  0
VERTEX
  5
5C1
  8
DARTH
 10
8.450451660669712
 20
9.005434411795134
 30
0.0
  0
VERTEX
  5
5C2
  8
DARTH
 10
8.448588980152522
 20
9.005245155485902
 30
0.0
  0
VERTEX
  5
5C3
  8
DARTH
 10
8.446851263131382
 20
9.004702741470442
 30
0.0
  0
VERTEX
  5
5C4
  8
DARTH
 10
8.44527654197465
 20
9.003845202117123
 30
0.0
  0
VERTEX
  5
5C5
  8
DARTH
 10
8.443902849050694
 20
9.002710569794303
 30
0.0
  0
VERTEX
  5
5C6
  8
DARTH
 10
8.442768216727876
 20
9.001336876870347
 30
0.0
  0
VERTEX
  5
5C7
  8
DARTH
 10
8.441910677374555
 20
8.999762155713615
 30
0.0
  0
VERTEX
  5
5C8
  8
DARTH
 10
8.441368263359097
 20
8.998024438692475
 30
0.0
  0
SEQEND
  5
FB7
  8
DARTH
  0
POLYLINE
  5
85
  8
DARTH
 66
     1
 10
0.0
 20
0.0
 30
0.0
 70
     1
  0
VERTEX
  5
5C9
  8
DARTH
 10
5.786145272159927
 20
10.57251287354939
 30
0.0
  0
VERTEX
  5
5CA
  8
DARTH
 10
5.870083564194106
 20
9.89560915930051
 30
0.0
  0
VERTEX
  5
5CB
  8
DARTH
 10
6.104470294848245
 20
9.89560915930051
 30
0.0
  0
VERTEX
  5
5CC
  8
DARTH
 10
6.10582511392797
 20
9.960517734639447
 30
0.0
  0
VERTEX
  5
5CD
  8
DARTH
 10
5.930341595056657
 20
11.54636359109635
 30
0.0
  0
VERTEX
  5
5CE
  8
DARTH
 10
5.902176709797381
 20
11.5919353327351
 30
0.0
  0
VERTEX
  5
5CF
  8
DARTH
 10
5.594474345756622
 20
11.59248672388481
 30
0.0
  0
VERTEX
  5
5D0
  8
DARTH
 10
5.515199756741682
 20
11.54707320644863
 30
0.0
  0
VERTEX
  5
5D1
  8
DARTH
 10
5.504005412006924
 20
11.10615630809825
 30
0.0
  0
VERTEX
  5
5D2
  8
DARTH
 10
5.493246355402432
 20
10.69045334865692
 30
0.0
  0
VERTEX
  5
5D3
  8
DARTH
 10
5.483098554470232
 20
10.31015719704533
 30
0.0
  0
VERTEX
  5
5D4
  8
DARTH
 10
5.473386041668298
 20
9.955074984342795
 30
0.0
  0
VERTEX
  5
5D5
  8
DARTH
 10
5.567385501808451
 20
9.932524861328078
 30
0.0
  0
VERTEX
  5
5D6
  8
DARTH
 10
5.586408052520246
 20
9.92813505925183
 30
0.0
  0
VERTEX
  5
5D7
  8
DARTH
 10
5.604425135970263
 20
9.924310477655538
 30
0.0
  0
VERTEX
  5
5D8
  8
DARTH
 10
5.621023065092166
 20
9.921115464872527
 30
0.0
  0
VERTEX
  5
5D9
  8
DARTH
 10
5.635788152819615
 20
9.918614369236114
 30
0.0
  0
VERTEX
  5
5DA
  8
DARTH
 10
5.648306712086275
 20
9.916871539079626
 30
0.0
  0
VERTEX
  5
5DB
  8
DARTH
 10
5.65816505582581
 20
9.91595132273638
 30
0.0
  0
VERTEX
  5
5DC
  8
DARTH
 10
5.664949496971882
 20
9.9159180685397
 30
0.0
  0
VERTEX
  5
5DD
  8
DARTH
 10
5.66705972686414
 20
9.916254161100486
 30
0.0
  0
VERTEX
  5
5DE
  8
DARTH
 10
5.668246348458156
 20
9.91683612482291
 30
0.0
  0
VERTEX
  5
5DF
  8
DARTH
 10
5.675107734967707
 20
9.923697511332461
 30
0.0
  0
VERTEX
  5
5E0
  8
DARTH
 10
5.752109457294033
 20
10.59357093519948
 30
0.0
  0
VERTEX
  5
5E1
  8
DARTH
 10
5.755037663700301
 20
10.66523940974787
 30
0.0
  0
SEQEND
  5
FB8
  8
DARTH
  0
POLYLINE
  5
86
  8
DARTH
 66
     1
 10
0.0
 20
0.0
 30
0.0
 70
     1
  0
VERTEX
  5
5E2
  8
DARTH
 10
9.776879721872072
 20
10.07178957807762
 30
0.0
  0
VERTEX
  5
5E3
  8
DARTH
 10
9.776441128307932
 20
10.04397161721807
 30
0.0
  0
VERTEX
  5
5E4
  8
DARTH
 10
10.35093169704781
 20
10.04397161721807
 30
0.0
  0
VERTEX
  5
5E5
  8
DARTH
 10
10.50365296021899
 20
10.34771913238044
 30
0.0
  0
VERTEX
  5
5E6
  8
DARTH
 10
10.3680606873425
 20
10.98050963282269
 30
0.0
  0
VERTEX
  5
5E7
  8
DARTH
 10
10.1009840050026
 20
11.54693692962727
 30
0.0
  0
VERTEX
  5
5E8
  8
DARTH
 10
9.8621766455661
 20
11.6212753062835
 30
0.0
  0
VERTEX
  5
5E9
  8
DARTH
 10
9.75331807598474
 20
11.62280766836446
 30
0.0
  0
VERTEX
  5
5EA
  8
DARTH
 10
9.73123625777891
 20
11.62290105977088
 30
0.0
  0
VERTEX
  5
5EB
  8
DARTH
 10
9.710221350435974
 20
11.6225736717502
 30
0.0
  0
VERTEX
  5
5EC
  8
DARTH
 10
9.690762934939283
 20
11.62186230998015
 30
0.0
  0
VERTEX
  5
5ED
  8
DARTH
 10
9.67335059227219
 20
11.62080378013842
 30
0.0
  0
VERTEX
  5
5EE
  8
DARTH
 10
9.658473903418052
 20
11.61943488790272
 30
0.0
  0
VERTEX
  5
5EF
  8
DARTH
 10
9.646622449360223
 20
11.61779243895077
 30
0.0
  0
VERTEX
  5
5F0
  8
DARTH
 10
9.638285811082056
 20
11.61591323896027
 30
0.0
  0
VERTEX
  5
5F1
  8
DARTH
 10
9.635588541917645
 20
11.61489635909984
 30
0.0
  0
VERTEX
  5
5F2
  8
DARTH
 10
9.633953569566907
 20
11.61383409360892
 30
0.0
  0
VERTEX
  5
5F3
  8
DARTH
 10
9.623447632730429
 20
11.60332815677243
 30
0.0
  0
SEQEND
  5
FB9
  8
DARTH
  0
POLYLINE
  5
87
  8
DARTH
 66
     1
 10
0.0
 20
0.0
 30
0.0
 70
     1
  0
VERTEX
  5
5F4
  8
DARTH
 10
4.871207363408502
 20
10.20781689473922
 30
0.0
  0
VERTEX
  5
5F5
  8
DARTH
 10
5.223568200962713
 20
10.06568835396511
 30
0.0
  0
VERTEX
  5
5F6
  8
DARTH
 10
5.24211350820241
 20
10.06422237227861
 30
0.0
  0
VERTEX
  5
5F7
  8
DARTH
 10
5.244459686521568
 20
10.06446475222406
 30
0.0
  0
VERTEX
  5
5F8
  8
DARTH
 10
5.247636804174506
 20
10.06546894467334
 30
0.0
  0
VERTEX
  5
5F9
  8
DARTH
 10
5.251590189631703
 20
10.06719699046159
 30
0.0
  0
VERTEX
  5
5FA
  8
DARTH
 10
5.256265171363638
 20
10.06961093042396
 30
0.0
  0
VERTEX
  5
5FB
  8
DARTH
 10
5.267561237533636
 20
10.0763446562116
 30
0.0
  0
VERTEX
  5
5FC
  8
DARTH
 10
5.281087630448331
 20
10.0853664487174
 30
0.0
  0
VERTEX
  5
5FD
  8
DARTH
 10
5.296406977871552
 20
10.0963726346225
 30
0.0
  0
VERTEX
  5
5FE
  8
DARTH
 10
5.313081907567126
 20
10.10905954060802
 30
0.0
  0
VERTEX
  5
5FF
  8
DARTH
 10
5.330675047298885
 20
10.12312349335511
 30
0.0
  0
VERTEX
  5
600
  8
DARTH
 10
5.348749024830658
 20
10.13826081954489
 30
0.0
  0
VERTEX
  5
601
  8
DARTH
 10
5.354029445246128
 20
10.14246458132707
 30
0.0
  0
VERTEX
  5
602
  8
DARTH
 10
5.35988297502984
 20
10.14660104675348
 30
0.0
  0
VERTEX
  5
603
  8
DARTH
 10
5.372843865263076
 20
10.15478865856137
 30
0.0
  0
VERTEX
  5
604
  8
DARTH
 10
5.386700700652537
 20
10.16305679501325
 30
0.0
  0
VERTEX
  5
605
  8
DARTH
 10
5.400522486320393
 20
10.17163859615385
 30
0.0
  0
VERTEX
  5
606
  8
DARTH
 10
5.407129299609398
 20
10.17611997724639
 30
0.0
  0
VERTEX
  5
607
  8
DARTH
 10
5.413378227388818
 20
10.18076720202788
 30
0.0
  0
VERTEX
  5
608
  8
DARTH
 10
5.419152895298922
 20
10.1856094130039
 30
0.0
  0
VERTEX
  5
609
  8
DARTH
 10
5.424336928979981
 20
10.19067575268005
 30
0.0
  0
VERTEX
  5
60A
  8
DARTH
 10
5.42881395407227
 20
10.19599536356191
 30
0.0
  0
VERTEX
  5
60B
  8
DARTH
 10
5.432467596216055
 20
10.20159738815507
 30
0.0
  0
VERTEX
  5
60C
  8
DARTH
 10
5.435181481051613
 20
10.20751096896512
 30
0.0
  0
VERTEX
  5
60D
  8
DARTH
 10
5.436839234219212
 20
10.21376524849766
 30
0.0
  0
VERTEX
  5
60E
  8
DARTH
 10
5.441678670677238
 20
10.2443620271666
 30
0.0
  0
VERTEX
  5
60F
  8
DARTH
 10
5.44590373538929
 20
10.27530325010871
 30
0.0
  0
VERTEX
  5
610
  8
DARTH
 10
5.449544643359272
 20
10.30656118288969
 30
0.0
  0
VERTEX
  5
611
  8
DARTH
 10
5.452631609591082
 20
10.33810809107524
 30
0.0
  0
VERTEX
  5
612
  8
DARTH
 10
5.45519484908862
 20
10.36991624023107
 30
0.0
  0
VERTEX
  5
613
  8
DARTH
 10
5.457264576855788
 20
10.40195789592288
 30
0.0
  0
VERTEX
  5
614
  8
DARTH
 10
5.458871007896485
 20
10.43420532371637
 30
0.0
  0
VERTEX
  5
615
  8
DARTH
 10
5.460044357214612
 20
10.46663078917726
 30
0.0
  0
VERTEX
  5
616
  8
DARTH
 10
5.46081483981407
 20
10.49920655787123
 30
0.0
  0
VERTEX
  5
617
  8
DARTH
 10
5.461212670698757
 20
10.531904895364
 30
0.0
  0
VERTEX
  5
618
  8
DARTH
 10
5.461268064872574
 20
10.56469806722126
 30
0.0
  0
VERTEX
  5
619
  8
DARTH
 10
5.461011237339421
 20
10.59755833900873
 30
0.0
  0
VERTEX
  5
61A
  8
DARTH
 10
5.459681777167809
 20
10.66336924463709
 30
0.0
  0
VERTEX
  5
61B
  8
DARTH
 10
5.457466010215123
 20
10.72911573677471
 30
0.0
  0
VERTEX
  5
61C
  8
DARTH
 10
5.454605656512565
 20
10.7945759399472
 30
0.0
  0
VERTEX
  5
61D
  8
DARTH
 10
5.451342436091338
 20
10.85952797868021
 30
0.0
  0
VERTEX
  5
61E
  8
DARTH
 10
5.444574275217679
 20
10.98702006093029
 30
0.0
  0
VERTEX
  5
61F
  8
DARTH
 10
5.441552774827652
 20
11.04911635349862
 30
0.0
  0
VERTEX
  5
620
  8
DARTH
 10
5.439095287843765
 20
11.10981697972998
 30
0.0
  0
VERTEX
  5
621
  8
DARTH
 10
5.437443534297217
 20
11.16890006415
 30
0.0
  0
VERTEX
  5
622
  8
DARTH
 10
5.436839234219212
 20
11.22614373128431
 30
0.0
  0
VERTEX
  5
623
  8
DARTH
 10
5.436461148574274
 20
11.23703507445942
 30
0.0
  0
VERTEX
  5
624
  8
DARTH
 10
5.435378078619083
 20
11.24822792978346
 30
0.0
  0
VERTEX
  5
625
  8
DARTH
 10
5.433666804823072
 20
11.2596761855168
 30
0.0
  0
VERTEX
  5
626
  8
DARTH
 10
5.431404107655674
 20
11.27133372991981
 30
0.0
  0
VERTEX
  5
627
  8
DARTH
 10
5.428666767586324
 20
11.28315445125283
 30
0.0
  0
VERTEX
  5
628
  8
DARTH
 10
5.425531565084453
 20
11.29509223777625
 30
0.0
  0
VERTEX
  5
629
  8
DARTH
 10
5.41837469466089
 20
11.31913455943568
 30
0.0
  0
VERTEX
  5
62A
  8
DARTH
 10
5.410547740140451
 20
11.34309180098101
 30
0.0
  0
VERTEX
  5
62B
  8
DARTH
 10
5.402664945278607
 20
11.36659506849513
 30
0.0
  0
VERTEX
  5
62C
  8
DARTH
 10
5.395340553830824
 20
11.38927546806095
 30
0.0
  0
VERTEX
  5
62D
  8
DARTH
 10
5.389188809552573
 20
11.41076410576135
 30
0.0
  0
VERTEX
  5
62E
  8
DARTH
 10
5.247997206148572
 20
11.46268762105477
 30
0.0
  0
VERTEX
  5
62F
  8
DARTH
 10
5.24690539925233
 20
11.46289483386758
 30
0.0
  0
VERTEX
  5
630
  8
DARTH
 10
5.244464034380012
 20
11.46282095039424
 30
0.0
  0
VERTEX
  5
631
  8
DARTH
 10
5.236303806693481
 20
11.46199052103834
 30
0.0
  0
VERTEX
  5
632
  8
DARTH
 10
5.21227159145713
 20
11.45872339783429
 30
0.0
  0
VERTEX
  5
633
  8
DARTH
 10
5.188239376220778
 20
11.45545627463024
 30
0.0
  0
VERTEX
  5
634
  8
DARTH
 10
5.180079148534247
 20
11.45462584527434
 30
0.0
  0
VERTEX
  5
635
  8
DARTH
 10
5.17763778366193
 20
11.45455196180101
 30
0.0
  0
VERTEX
  5
636
  8
DARTH
 10
5.176545976765688
 20
11.45475917461381
 30
0.0
  0
VERTEX
  5
637
  8
DARTH
 10
5.175439123880921
 20
11.45448815398544
 30
0.0
  0
VERTEX
  5
638
  8
DARTH
 10
5.172818185774167
 20
11.45305092012988
 30
0.0
  0
VERTEX
  5
639
  8
DARTH
 10
5.163351381510529
 20
11.44690539234098
 30
0.0
  0
VERTEX
  5
63A
  8
DARTH
 10
5.129739354093556
 20
11.42312315367841
 30
0.0
  0
VERTEX
  5
63B
  8
DARTH
 10
5.080787136368074
 20
11.38705373228641
 30
0.0
  0
VERTEX
  5
63C
  8
DARTH
 10
5.021571970187384
 20
11.3423384018253
 30
0.0
  0
VERTEX
  5
63D
  8
DARTH
 10
4.957171097404793
 20
11.29261843595541
 30
0.0
  0
VERTEX
  5
63E
  8
DARTH
 10
4.892661759873603
 20
11.24153510833704
 30
0.0
  0
VERTEX
  5
63F
  8
DARTH
 10
4.861953054906441
 20
11.21662008189103
 30
0.0
  0
VERTEX
  5
640
  8
DARTH
 10
4.833121199447119
 20
11.19272969263053
 30
0.0
  0
VERTEX
  5
641
  8
DARTH
 10
4.806800848727298
 20
11.17031909976306
 30
0.0
  0
VERTEX
  5
642
  8
DARTH
 10
4.783626657978643
 20
11.14984346249617
 30
0.0
  0
VERTEX
  5
643
  8
DARTH
 10
4.81171079317274
 20
10.29433326495396
 30
0.0
  0
VERTEX
  5
644
  8
DARTH
 10
4.812095675161104
 20
10.2693784923361
 30
0.0
  0
VERTEX
  5
645
  8
DARTH
 10
4.812772301479868
 20
10.26399202939808
 30
0.0
  0
VERTEX
  5
646
  8
DARTH
 10
4.814562073648837
 20
10.25824476838882
 30
0.0
  0
VERTEX
  5
647
  8
DARTH
 10
4.817342977217334
 20
10.25231413545815
 30
0.0
  0
VERTEX
  5
648
  8
DARTH
 10
4.820992997734681
 20
10.24637755675594
 30
0.0
  0
VERTEX
  5
649
  8
DARTH
 10
4.825390120750198
 20
10.24061245843203
 30
0.0
  0
VERTEX
  5
64A
  8
DARTH
 10
4.830412331813206
 20
10.23519626663629
 30
0.0
  0
VERTEX
  5
64B
  8
DARTH
 10
4.835937616473028
 20
10.23030640751858
 30
0.0
  0
VERTEX
  5
64C
  8
DARTH
 10
4.841843960278982
 20
10.22612030722873
 30
0.0
  0
SEQEND
  5
FBA
  8
DARTH
  0
POLYLINE
  5
88
  8
DARTH
 66
     1
 10
0.0
 20
0.0
 30
0.0
 70
     1
  0
VERTEX
  5
64D
  8
DARTH
 10
8.519305238864353
 20
10.19688280609874
 30
0.0
  0
VERTEX
  5
64E
  8
DARTH
 10
9.043901492339964
 20
10.08438248711702
 30
0.0
  0
VERTEX
  5
64F
  8
DARTH
 10
9.108810067678897
 20
10.08106223169747
 30
0.0
  0
VERTEX
  5
650
  8
DARTH
 10
9.108810067678897
 20
10.15055282255482
 30
0.0
  0
VERTEX
  5
651
  8
DARTH
 10
9.016423001594356
 20
11.03614555454178
 30
0.0
  0
VERTEX
  5
652
  8
DARTH
 10
9.016083531480422
 20
11.10583823498323
 30
0.0
  0
VERTEX
  5
653
  8
DARTH
 10
8.682268001165903
 20
11.07972432553717
 30
0.0
  0
VERTEX
  5
654
  8
DARTH
 10
8.682268001165903
 20
11.22820237636385
 30
0.0
  0
VERTEX
  5
655
  8
DARTH
 10
8.788903517794154
 20
11.23955563049643
 30
0.0
  0
VERTEX
  5
656
  8
DARTH
 10
8.834698111433113
 20
11.24505213975363
 30
0.0
  0
VERTEX
  5
657
  8
DARTH
 10
8.880557903417836
 20
11.25162518637793
 30
0.0
  0
VERTEX
  5
658
  8
DARTH
 10
8.92115836217755
 20
11.25844970063749
 30
0.0
  0
VERTEX
  5
659
  8
DARTH
 10
8.937822425482167
 20
11.26169842383928
 30
0.0
  0
VERTEX
  5
65A
  8
DARTH
 10
8.95117495614149
 20
11.26470061280045
 30
0.0
  0
VERTEX
  5
65B
  8
DARTH
 10
9.006810877860575
 20
11.27849234097188
 30
0.0
  0
VERTEX
  5
65C
  8
DARTH
 10
9.01235828155657
 20
11.40584062697106
 30
0.0
  0
VERTEX
  5
65D
  8
DARTH
 10
9.013286727664628
 20
11.43190668579631
 30
0.0
  0
VERTEX
  5
65E
  8
DARTH
 10
9.01379349992246
 20
11.45716057066382
 30
0.0
  0
VERTEX
  5
65F
  8
DARTH
 10
9.013893205267454
 20
11.48098259612323
 30
0.0
  0
VERTEX
  5
660
  8
DARTH
 10
9.01360045063699
 20
11.50275307672418
 30
0.0
  0
VERTEX
  5
661
  8
DARTH
 10
9.012929842968457
 20
11.52185232701629
 30
0.0
  0
VERTEX
  5
662
  8
DARTH
 10
9.011895989199243
 20
11.53766066154921
 30
0.0
  0
VERTEX
  5
663
  8
DARTH
 10
9.01051349626673
 20
11.54955839487257
 30
0.0
  0
VERTEX
  5
664
  8
DARTH
 10
9.00969607478217
 20
11.55384713437742
 30
0.0
  0
VERTEX
  5
665
  8
DARTH
 10
9.008796971108303
 20
11.556925841536
 30
0.0
  0
VERTEX
  5
666
  8
DARTH
 10
8.999688256964042
 20
11.58066277010176
 30
0.0
  0
VERTEX
  5
667
  8
DARTH
 10
8.817953744143376
 20
11.51570834785294
 30
0.0
  0
VERTEX
  5
668
  8
DARTH
 10
8.779172828790013
 20
11.50145736468526
 30
0.0
  0
VERTEX
  5
669
  8
DARTH
 10
8.738597188501926
 20
11.48583689289463
 30
0.0
  0
VERTEX
  5
66A
  8
DARTH
 10
8.697429252129336
 20
11.46935510028323
 30
0.0
  0
VERTEX
  5
66B
  8
DARTH
 10
8.65687144852246
 20
11.45252015465322
 30
0.0
  0
VERTEX
  5
66C
  8
DARTH
 10
8.618126206531521
 20
11.43584022380677
 30
0.0
  0
VERTEX
  5
66D
  8
DARTH
 10
8.582395955006739
 20
11.41982347554606
 30
0.0
  0
VERTEX
  5
66E
  8
DARTH
 10
8.550883122798329
 20
11.40497807767325
 30
0.0
  0
VERTEX
  5
66F
  8
DARTH
 10
8.524790138756515
 20
11.39181219799052
 30
0.0
  0
VERTEX
  5
670
  8
DARTH
 10
8.413361046190323
 20
11.33287047037691
 30
0.0
  0
VERTEX
  5
671
  8
DARTH
 10
8.402780423032667
 20
10.97415156271691
 30
0.0
  0
VERTEX
  5
672
  8
DARTH
 10
8.435888695471037
 20
10.96480615254289
 30
0.0
  0
VERTEX
  5
673
  8
DARTH
 10
8.453865709151588
 20
10.96022733771237
 30
0.0
  0
VERTEX
  5
674
  8
DARTH
 10
8.47833830688645
 20
10.95466870017498
 30
0.0
  0
VERTEX
  5
675
  8
DARTH
 10
8.506090310857932
 20
10.94883200527165
 30
0.0
  0
VERTEX
  5
676
  8
DARTH
 10
8.533905543248341
 20
10.9434190183433
 30
0.0
  0
VERTEX
  5
677
  8
DARTH
 10
8.56166917215308
 20
10.93802240972506
 30
0.0
  0
VERTEX
  5
678
  8
DARTH
 10
8.58928067158437
 20
10.93223030923045
 30
0.0
  0
VERTEX
  5
679
  8
DARTH
 10
8.613545322599748
 20
10.92673767141796
 30
0.0
  0
VERTEX
  5
67A
  8
DARTH
 10
8.631268406256744
 20
10.9222394508461
 30
0.0
  0
VERTEX
  5
67B
  8
DARTH
 10
8.663722693926209
 20
10.91310160737446
 30
0.0
  0
VERTEX
  5
67C
  8
DARTH
 10
8.663722693926209
 20
10.67718096756245
 30
0.0
  0
VERTEX
  5
67D
  8
DARTH
 10
8.45972431428956
 20
10.65169305267086
 30
0.0
  0
VERTEX
  5
67E
  8
DARTH
 10
8.45972431428956
 20
10.57943096088429
 30
0.0
  0
SEQEND
  5
FBB
  8
DARTH
  0
POLYLINE
  5
89
  8
DARTH
 66
     1
 10
0.0
 20
0.0
 30
0.0
 70
     1
  0
VERTEX
  5
67F
  8
DARTH
 10
7.272824650949055
 20
11.63775021597165
 30
0.0
  0
VERTEX
  5
680
  8
DARTH
 10
7.727184678321592
 20
11.41950574962031
 30
0.0
  0
VERTEX
  5
681
  8
DARTH
 10
7.776902752932962
 20
11.41632435295553
 30
0.0
  0
VERTEX
  5
682
  8
DARTH
 10
8.219582644399509
 20
11.73931588397189
 30
0.0
  0
VERTEX
  5
683
  8
DARTH
 10
8.209362666553673
 20
12.27322313115111
 30
0.0
  0
VERTEX
  5
684
  8
DARTH
 10
7.776153736835933
 20
11.91601301137636
 30
0.0
  0
VERTEX
  5
685
  8
DARTH
 10
7.290116190670741
 20
12.28795379322122
 30
0.0
  0
VERTEX
  5
686
  8
DARTH
 10
7.272824650949055
 20
12.28795379322122
 30
0.0
  0
SEQEND
  5
FBC
  8
DARTH
  0
POLYLINE
  5
8A
  8
DARTH
 66
     1
 10
0.0
 20
0.0
 30
0.0
 70
     1
  0
VERTEX
  5
687
  8
DARTH
 10
2.803405606182466
 20
11.76270288131279
 30
0.0
  0
VERTEX
  5
688
  8
DARTH
 10
2.804378343062756
 20
11.7517850554815
 30
0.0
  0
VERTEX
  5
689
  8
DARTH
 10
2.804640759424467
 20
11.75090887083537
 30
0.0
  0
VERTEX
  5
68A
  8
DARTH
 10
2.805216288753937
 20
11.75052030264972
 30
0.0
  0
VERTEX
  5
68B
  8
DARTH
 10
2.806088291890005
 20
11.75060162718707
 30
0.0
  0
VERTEX
  5
68C
  8
DARTH
 10
2.807240129671515
 20
11.75113512070997
 30
0.0
  0
VERTEX
  5
68D
  8
DARTH
 10
2.810316752526219
 20
11.75348771976251
 30
0.0
  0
VERTEX
  5
68E
  8
DARTH
 10
2.814313044028782
 20
11.75743630990759
 30
0.0
  0
VERTEX
  5
68F
  8
DARTH
 10
2.819095890889932
 20
11.76283910124547
 30
0.0
  0
VERTEX
  5
690
  8
DARTH
 10
2.824532179820403
 20
11.76955430387641
 30
0.0
  0
VERTEX
  5
691
  8
DARTH
 10
2.830488797530923
 20
11.77744012790068
 30
0.0
  0
VERTEX
  5
692
  8
DARTH
 10
2.836832630732223
 20
11.78635478341852
 30
0.0
  0
VERTEX
  5
693
  8
DARTH
 10
2.8683141815214
 20
11.83184233718683
 30
0.0
  0
VERTEX
  5
694
  8
DARTH
 10
3.01650061069642
 20
12.01817112391471
 30
0.0
  0
VERTEX
  5
695
  8
DARTH
 10
3.047012778055919
 20
12.05611446115644
 30
0.0
  0
VERTEX
  5
696
  8
DARTH
 10
3.078230860485261
 20
12.09410988427684
 30
0.0
  0
VERTEX
  5
697
  8
DARTH
 10
3.110110896821827
 20
12.13211629879625
 30
0.0
  0
VERTEX
  5
698
  8
DARTH
 10
3.142608925902997
 20
12.17009261023505
 30
0.0
  0
VERTEX
  5
699
  8
DARTH
 10
3.175680986566152
 20
12.20799772411359
 30
0.0
  0
VERTEX
  5
69A
  8
DARTH
 10
3.209283117648671
 20
12.24579054595224
 30
0.0
  0
VERTEX
  5
69B
  8
DARTH
 10
3.243371357987936
 20
12.28342998127136
 30
0.0
  0
VERTEX
  5
69C
  8
DARTH
 10
3.277901746421325
 20
12.32087493559131
 30
0.0
  0
VERTEX
  5
69D
  8
DARTH
 10
3.312830321786219
 20
12.35808431443246
 30
0.0
  0
VERTEX
  5
69E
  8
DARTH
 10
3.348113122919999
 20
12.39501702331516
 30
0.0
  0
VERTEX
  5
69F
  8
DARTH
 10
3.383706188660045
 20
12.43163196775978
 30
0.0
  0
VERTEX
  5
6A0
  8
DARTH
 10
3.419565557843737
 20
12.46788805328668
 30
0.0
  0
VERTEX
  5
6A1
  8
DARTH
 10
3.455647269308455
 20
12.50374418541623
 30
0.0
  0
VERTEX
  5
6A2
  8
DARTH
 10
3.49190736189158
 20
12.53915926966878
 30
0.0
  0
VERTEX
  5
6A3
  8
DARTH
 10
3.528301874430491
 20
12.5740922115647
 30
0.0
  0
VERTEX
  5
6A4
  8
DARTH
 10
3.564786845762571
 20
12.60850191662435
 30
0.0
  0
VERTEX
  5
6A5
  8
DARTH
 10
3.601318314725196
 20
12.6423472903681
 30
0.0
  0
VERTEX
  5
6A6
  8
DARTH
 10
3.63785232015575
 20
12.6755872383163
 30
0.0
  0
VERTEX
  5
6A7
  8
DARTH
 10
3.674344900891611
 20
12.70818066598932
 30
0.0
  0
VERTEX
  5
6A8
  8
DARTH
 10
3.71075209577016
 20
12.74008647890752
 30
0.0
  0
VERTEX
  5
6A9
  8
DARTH
 10
3.747029943628777
 20
12.77126358259127
 30
0.0
  0
VERTEX
  5
6AA
  8
DARTH
 10
3.783134483304844
 20
12.80167088256091
 30
0.0
  0
VERTEX
  5
6AB
  8
DARTH
 10
3.819021753635739
 20
12.83126728433683
 30
0.0
  0
VERTEX
  5
6AC
  8
DARTH
 10
3.854647793458842
 20
12.86001169343938
 30
0.0
  0
VERTEX
  5
6AD
  8
DARTH
 10
3.889968641611535
 20
12.88786301538892
 30
0.0
  0
VERTEX
  5
6AE
  8
DARTH
 10
3.924940336931197
 20
12.91478015570581
 30
0.0
  0
VERTEX
  5
6AF
  8
DARTH
 10
3.95951891825521
 20
12.94072201991043
 30
0.0
  0
VERTEX
  5
6B0
  8
DARTH
 10
3.993660424420951
 20
12.96564751352312
 30
0.0
  0
VERTEX
  5
6B1
  8
DARTH
 10
4.027320894265802
 20
12.98951554206426
 30
0.0
  0
VERTEX
  5
6B2
  8
DARTH
 10
4.060456366627146
 20
13.0122850110542
 30
0.0
  0
VERTEX
  5
6B3
  8
DARTH
 10
4.093022880342359
 20
13.0339148260133
 30
0.0
  0
VERTEX
  5
6B4
  8
DARTH
 10
4.124976474248824
 20
13.05436389246194
 30
0.0
  0
VERTEX
  5
6B5
  8
DARTH
 10
4.148795460174586
 20
13.06903824910251
 30
0.0
  0
VERTEX
  5
6B6
  8
DARTH
 10
4.173200843035926
 20
13.08355224804742
 30
0.0
  0
VERTEX
  5
6B7
  8
DARTH
 10
4.198138533240193
 20
13.09788585510673
 30
0.0
  0
VERTEX
  5
6B8
  8
DARTH
 10
4.223554441194739
 20
13.11201903609053
 30
0.0
  0
VERTEX
  5
6B9
  8
DARTH
 10
4.249394477306915
 20
13.12593175680888
 30
0.0
  0
VERTEX
  5
6BA
  8
DARTH
 10
4.275604551984069
 20
13.13960398307187
 30
0.0
  0
VERTEX
  5
6BB
  8
DARTH
 10
4.302130575633552
 20
13.15301568068957
 30
0.0
  0
VERTEX
  5
6BC
  8
DARTH
 10
4.328918458662717
 20
13.16614681547206
 30
0.0
  0
VERTEX
  5
6BD
  8
DARTH
 10
4.355914111478912
 20
13.1789773532294
 30
0.0
  0
VERTEX
  5
6BE
  8
DARTH
 10
4.383063444489489
 20
13.19148725977169
 30
0.0
  0
VERTEX
  5
6BF
  8
DARTH
 10
4.410312368101797
 20
13.20365650090898
 30
0.0
  0
VERTEX
  5
6C0
  8
DARTH
 10
4.437606792723188
 20
13.21546504245136
 30
0.0
  0
VERTEX
  5
6C1
  8
DARTH
 10
4.464892628761012
 20
13.22689285020891
 30
0.0
  0
VERTEX
  5
6C2
  8
DARTH
 10
4.492115786622619
 20
13.2379198899917
 30
0.0
  0
VERTEX
  5
6C3
  8
DARTH
 10
4.51922217671536
 20
13.2485261276098
 30
0.0
  0
VERTEX
  5
6C4
  8
DARTH
 10
4.546157709446583
 20
13.25869152887329
 30
0.0
  0
VERTEX
  5
6C5
  8
DARTH
 10
4.572868295223643
 20
13.26839605959224
 30
0.0
  0
VERTEX
  5
6C6
  8
DARTH
 10
4.599299844453887
 20
13.27761968557674
 30
0.0
  0
VERTEX
  5
6C7
  8
DARTH
 10
4.625398267544667
 20
13.28634237263686
 30
0.0
  0
VERTEX
  5
6C8
  8
DARTH
 10
4.651109474903333
 20
13.29454408658266
 30
0.0
  0
VERTEX
  5
6C9
  8
DARTH
 10
4.676379376937236
 20
13.30220479322424
 30
0.0
  0
VERTEX
  5
6CA
  8
DARTH
 10
4.701153884053726
 20
13.30930445837166
 30
0.0
  0
VERTEX
  5
6CB
  8
DARTH
 10
4.725378906660153
 20
13.315823047835
 30
0.0
  0
VERTEX
  5
6CC
  8
DARTH
 10
4.749000355163869
 20
13.32174052742433
 30
0.0
  0
VERTEX
  5
6CD
  8
DARTH
 10
4.771964139972223
 20
13.32703686294973
 30
0.0
  0
VERTEX
  5
6CE
  8
DARTH
 10
4.794216171492566
 20
13.33169202022128
 30
0.0
  0
VERTEX
  5
6CF
  8
DARTH
 10
4.815702360132248
 20
13.33568596504904
 30
0.0
  0
VERTEX
  5
6D0
  8
DARTH
 10
4.83636861629862
 20
13.33899866324311
 30
0.0
  0
VERTEX
  5
6D1
  8
DARTH
 10
4.856160850399034
 20
13.34161008061355
 30
0.0
  0
VERTEX
  5
6D2
  8
DARTH
 10
4.875024972840837
 20
13.34350018297043
 30
0.0
  0
VERTEX
  5
6D3
  8
DARTH
 10
4.892906894031382
 20
13.34464893612384
 30
0.0
  0
VERTEX
  5
6D4
  8
DARTH
 10
4.90975252437802
 20
13.34503630588385
 30
0.0
  0
VERTEX
  5
6D5
  8
DARTH
 10
4.970182537531947
 20
13.34503630588385
 30
0.0
  0
VERTEX
  5
6D6
  8
DARTH
 10
5.045386330929105
 20
13.57685264638005
 30
0.0
  0
VERTEX
  5
6D7
  8
DARTH
 10
5.249192334202085
 20
14.22593839976938
 30
0.0
  0
VERTEX
  5
6D8
  8
DARTH
 10
5.453379378756591
 20
14.8773199644782
 30
0.0
  0
VERTEX
  5
6D9
  8
DARTH
 10
5.658101502557495
 20
15.53192543444414
 30
0.0
  0
VERTEX
  5
6DA
  8
DARTH
 10
5.863204667639923
 20
16.18882671572956
 30
0.0
  0
VERTEX
  5
6DB
  8
DARTH
 10
5.848310606470528
 20
16.20372077689863
 30
0.0
  0
VERTEX
  5
6DC
  8
DARTH
 10
5.130841664764237
 20
16.29322383490662
 30
0.0
  0
VERTEX
  5
6DD
  8
DARTH
 10
5.03486282252375
 20
16.29374015699542
 30
0.0
  0
VERTEX
  5
6DE
  8
DARTH
 10
4.586046769522786
 20
15.3757474486305
 30
0.0
  0
VERTEX
  5
6DF
  8
DARTH
 10
3.55920999199397
 20
13.29867303778462
 30
0.0
  0
SEQEND
  5
FBD
  8
DARTH
  0
POLYLINE
  5
8B
  8
DARTH
 66
     1
 10
0.0
 20
0.0
 30
0.0
 70
     1
  0
VERTEX
  5
6E0
  8
DARTH
 10
11.81942813335063
 20
12.32289162208109
 30
0.0
  0
VERTEX
  5
6E1
  8
DARTH
 10
12.25223964480727
 20
11.90312657361908
 30
0.0
  0
VERTEX
  5
6E2
  8
DARTH
 10
12.24752416408873
 20
12.13031868168381
 30
0.0
  0
VERTEX
  5
6E3
  8
DARTH
 10
12.22034811693864
 20
12.64542786511895
 30
0.0
  0
VERTEX
  5
6E4
  8
DARTH
 10
11.92572149589482
 20
12.95231781589569
 30
0.0
  0
VERTEX
  5
6E5
  8
DARTH
 10
11.78768326930667
 20
13.04774356771317
 30
0.0
  0
VERTEX
  5
6E6
  8
DARTH
 10
11.77253890985479
 20
13.05798232488225
 30
0.0
  0
VERTEX
  5
6E7
  8
DARTH
 10
11.75569472931315
 20
13.06895029458652
 30
0.0
  0
VERTEX
  5
6E8
  8
DARTH
 10
11.71761798644176
 20
13.09267342865696
 30
0.0
  0
VERTEX
  5
6E9
  8
DARTH
 10
11.67487520365489
 20
13.11811208403717
 30
0.0
  0
VERTEX
  5
6EA
  8
DARTH
 10
11.62888854391491
 20
13.14446537483983
 30
0.0
  0
VERTEX
  5
6EB
  8
DARTH
 10
11.58108017018419
 20
13.17093241517759
 30
0.0
  0
VERTEX
  5
6EC
  8
DARTH
 10
11.53287224542509
 20
13.19671231916313
 30
0.0
  0
VERTEX
  5
6ED
  8
DARTH
 10
11.48568693259999
 20
13.22100420090914
 30
0.0
  0
VERTEX
  5
6EE
  8
DARTH
 10
11.44094639467127
 20
13.24300717452827
 30
0.0
  0
VERTEX
  5
6EF
  8
DARTH
 10
11.23224774662402
 20
13.34284502952588
 30
0.0
  0
VERTEX
  5
6F0
  8
DARTH
 10
11.03797113652905
 20
13.40010404713536
 30
0.0
  0
VERTEX
  5
6F1
  8
DARTH
 10
10.9947735551727
 20
13.41235732134388
 30
0.0
  0
VERTEX
  5
6F2
  8
DARTH
 10
10.94641000024436
 20
13.42524059966253
 30
0.0
  0
VERTEX
  5
6F3
  8
DARTH
 10
10.89451560295879
 20
13.43836808277688
 30
0.0
  0
VERTEX
  5
6F4
  8
DARTH
 10
10.84072549453075
 20
13.45135397137247
 30
0.0
  0
VERTEX
  5
6F5
  8
DARTH
 10
10.78667480617504
 20
13.46381246613484
 30
0.0
  0
VERTEX
  5
6F6
  8
DARTH
 10
10.73399866910641
 20
13.47535776774955
 30
0.0
  0
VERTEX
  5
6F7
  8
DARTH
 10
10.68433221453964
 20
13.48560407690214
 30
0.0
  0
VERTEX
  5
6F8
  8
DARTH
 10
10.63931057368949
 20
13.49416559427815
 30
0.0
  0
VERTEX
  5
6F9
  8
DARTH
 10
10.43492662094492
 20
13.53096812381146
 30
0.0
  0
VERTEX
  5
6FA
  8
DARTH
 10
9.80995483031126
 20
13.57441862363618
 30
0.0
  0
VERTEX
  5
6FB
  8
DARTH
 10
9.118082721298745
 20
13.52789401917165
 30
0.0
  0
VERTEX
  5
6FC
  8
DARTH
 10
8.904811688042248
 20
13.50735113531243
 30
0.0
  0
VERTEX
  5
6FD
  8
DARTH
 10
8.899518009381378
 20
14.22593839976938
 30
0.0
  0
VERTEX
  5
6FE
  8
DARTH
 10
8.876993727182706
 20
17.39718593775729
 30
0.0
  0
VERTEX
  5
6FF
  8
DARTH
 10
8.236778806571627
 20
17.40733617140657
 30
0.0
  0
VERTEX
  5
700
  8
DARTH
 10
8.246453281033062
 20
12.47649358589923
 30
0.0
  0
VERTEX
  5
701
  8
DARTH
 10
8.2697303916732
 20
12.45322063951787
 30
0.0
  0
VERTEX
  5
702
  8
DARTH
 10
8.414191688045136
 20
12.55686687392243
 30
0.0
  0
VERTEX
  5
703
  8
DARTH
 10
8.447703477412842
 20
12.5806184936429
 30
0.0
  0
VERTEX
  5
704
  8
DARTH
 10
8.480836823978064
 20
12.60350279031705
 30
0.0
  0
VERTEX
  5
705
  8
DARTH
 10
8.51370602842967
 20
12.62558403151681
 30
0.0
  0
VERTEX
  5
706
  8
DARTH
 10
8.546425391456516
 20
12.6469264848141
 30
0.0
  0
VERTEX
  5
707
  8
DARTH
 10
8.579109213747468
 20
12.66759441778083
 30
0.0
  0
VERTEX
  5
708
  8
DARTH
 10
8.611871795991387
 20
12.68765209798894
 30
0.0
  0
VERTEX
  5
709
  8
DARTH
 10
8.644827438877137
 20
12.70716379301033
 30
0.0
  0
VERTEX
  5
70A
  8
DARTH
 10
8.67809044309358
 20
12.72619377041694
 30
0.0
  0
VERTEX
  5
70B
  8
DARTH
 10
8.71177510932958
 20
12.74480629778068
 30
0.0
  0
VERTEX
  5
70C
  8
DARTH
 10
8.745995738273995
 20
12.76306564267347
 30
0.0
  0
VERTEX
  5
70D
  8
DARTH
 10
8.78086663061569
 20
12.78103607266724
 30
0.0
  0
VERTEX
  5
70E
  8
DARTH
 10
8.816502087043528
 20
12.79878185533391
 30
0.0
  0
VERTEX
  5
70F
  8
DARTH
 10
8.853016408246368
 20
12.81636725824539
 30
0.0
  0
VERTEX
  5
710
  8
DARTH
 10
8.890523894913077
 20
12.83385654897361
 30
0.0
  0
VERTEX
  5
711
  8
DARTH
 10
8.929138847732514
 20
12.85131399509049
 30
0.0
  0
VERTEX
  5
712
  8
DARTH
 10
8.968975567393546
 20
12.86880386416796
 30
0.0
  0
VERTEX
  5
713
  8
DARTH
 10
9.136628028538441
 20
12.94138575824475
 30
0.0
  0
VERTEX
  5
714
  8
DARTH
 10
9.563170095051435
 20
13.05533674960319
 30
0.0
  0
VERTEX
  5
715
  8
DARTH
 10
10.32352769187895
 20
13.05758404366858
 30
0.0
  0
VERTEX
  5
716
  8
DARTH
 10
10.51825341789575
 20
13.00675555163556
 30
0.0
  0
VERTEX
  5
717
  8
DARTH
 10
10.55773685007101
 20
12.99623862830872
 30
0.0
  0
VERTEX
  5
718
  8
DARTH
 10
10.59657737009662
 20
12.98546237646312
 30
0.0
  0
VERTEX
  5
719
  8
DARTH
 10
10.6348119827338
 20
12.97440857281379
 30
0.0
  0
VERTEX
  5
71A
  8
DARTH
 10
10.67247769274381
 20
12.96305899407578
 30
0.0
  0
VERTEX
  5
71B
  8
DARTH
 10
10.70961150488789
 20
12.95139541696412
 30
0.0
  0
VERTEX
  5
71C
  8
DARTH
 10
10.74625042392728
 20
12.93939961819384
 30
0.0
  0
VERTEX
  5
71D
  8
DARTH
 10
10.78243145462324
 20
12.92705337448
 30
0.0
  0
VERTEX
  5
71E
  8
DARTH
 10
10.818191601737
 20
12.91433846253762
 30
0.0
  0
VERTEX
  5
71F
  8
DARTH
 10
10.85356787002981
 20
12.90123665908174
 30
0.0
  0
VERTEX
  5
720
  8
DARTH
 10
10.88859726426292
 20
12.88772974082741
 30
0.0
  0
VERTEX
  5
721
  8
DARTH
 10
10.92331678919756
 20
12.87379948448966
 30
0.0
  0
VERTEX
  5
722
  8
DARTH
 10
10.95776344959499
 20
12.85942766678352
 30
0.0
  0
VERTEX
  5
723
  8
DARTH
 10
10.99197425021645
 20
12.84459606442404
 30
0.0
  0
VERTEX
  5
724
  8
DARTH
 10
11.02598619582319
 20
12.82928645412626
 30
0.0
  0
VERTEX
  5
725
  8
DARTH
 10
11.05983629117644
 20
12.81348061260521
 30
0.0
  0
VERTEX
  5
726
  8
DARTH
 10
11.09356154103746
 20
12.79716031657594
 30
0.0
  0
VERTEX
  5
727
  8
DARTH
 10
11.12719895016748
 20
12.78030734275347
 30
0.0
  0
VERTEX
  5
728
  8
DARTH
 10
11.16078552332776
 20
12.76290346785285
 30
0.0
  0
VERTEX
  5
729
  8
DARTH
 10
11.19435826527953
 20
12.74493046858912
 30
0.0
  0
VERTEX
  5
72A
  8
DARTH
 10
11.22795418078405
 20
12.72637012167731
 30
0.0
  0
VERTEX
  5
72B
  8
DARTH
 10
11.26161027460256
 20
12.70720420383247
 30
0.0
  0
VERTEX
  5
72C
  8
DARTH
 10
11.2953635514963
 20
12.68741449176963
 30
0.0
  0
VERTEX
  5
72D
  8
DARTH
 10
11.32925101622652
 20
12.66698276220383
 30
0.0
  0
VERTEX
  5
72E
  8
DARTH
 10
11.36330967355446
 20
12.64589079185011
 30
0.0
  0
VERTEX
  5
72F
  8
DARTH
 10
11.39757652824136
 20
12.6241203574235
 30
0.0
  0
VERTEX
  5
730
  8
DARTH
 10
11.43208858504848
 20
12.60165323563905
 30
0.0
  0
VERTEX
  5
731
  8
DARTH
 10
11.46688284873705
 20
12.57847120321179
 30
0.0
  0
VERTEX
  5
732
  8
DARTH
 10
11.50199632406833
 20
12.55455603685676
 30
0.0
  0
VERTEX
  5
733
  8
DARTH
 10
11.53746601580355
 20
12.529889513289
 30
0.0
  0
VERTEX
  5
734
  8
DARTH
 10
11.57332892870397
 20
12.50445340922355
 30
0.0
  0
VERTEX
  5
735
  8
DARTH
 10
11.60962206753081
 20
12.47822950137544
 30
0.0
  0
VERTEX
  5
736
  8
DARTH
 10
11.64638243704534
 20
12.45119956645972
 30
0.0
  0
SEQEND
  5
FBE
  8
DARTH
  0
POLYLINE
  5
8C
  8
DARTH
 66
     1
 10
0.0
 20
0.0
 30
0.0
 70
     1
  0
VERTEX
  5
737
  8
DARTH
 10
2.693296953044377
 20
12.35286236856015
 30
0.0
  0
VERTEX
  5
738
  8
DARTH
 10
2.673406554385786
 20
12.05613745272503
 30
0.0
  0
VERTEX
  5
739
  8
DARTH
 10
2.690829832599424
 20
12.09322806720442
 30
0.0
  0
VERTEX
  5
73A
  8
DARTH
 10
3.324944052107027
 20
14.12785113581789
 30
0.0
  0
VERTEX
  5
73B
  8
DARTH
 10
3.312283537757898
 20
14.14051165016699
 30
0.0
  0
VERTEX
  5
73C
  8
DARTH
 10
2.933008846395526
 20
14.09929028407511
 30
0.0
  0
VERTEX
  5
73D
  8
DARTH
 10
2.894768581526026
 20
13.95727678219171
 30
0.0
  0
VERTEX
  5
73E
  8
DARTH
 10
2.805065903048157
 20
13.35430895950371
 30
0.0
  0
SEQEND
  5
FBF
  8
DARTH
  0
POLYLINE
  5
8D
  8
DARTH
 66
     1
 10
0.0
 20
0.0
 30
0.0
 70
     1
  0
VERTEX
  5
73F
  8
DARTH
 10
2.673588455504599
 20
11.79935317060264
 30
0.0
  0
VERTEX
  5
740
  8
DARTH
 10
2.676619815915417
 20
11.7594125368899
 30
0.0
  0
VERTEX
  5
741
  8
DARTH
 10
4.377674312296899
 20
15.17074059371356
 30
0.0
  0
VERTEX
  5
742
  8
DARTH
 10
4.364167780605882
 20
15.18424712540465
 30
0.0
  0
VERTEX
  5
743
  8
DARTH
 10
3.760479423661059
 20
14.97570612038801
 30
0.0
  0
VERTEX
  5
744
  8
DARTH
 10
3.717080834455043
 20
14.9862959965969
 30
0.0
  0
VERTEX
  5
745
  8
DARTH
 10
5.142803416413198
 20
17.02049981039443
 30
0.0
  0
VERTEX
  5
746
  8
DARTH
 10
5.126379625798663
 20
17.03692360100878
 30
0.0
  0
VERTEX
  5
747
  8
DARTH
 10
4.881185098338646
 20
16.92598098664494
 30
0.0
  0
VERTEX
  5
748
  8
DARTH
 10
4.828274893692607
 20
16.90170633944028
 30
0.0
  0
VERTEX
  5
749
  8
DARTH
 10
4.771847247850975
 20
16.87521600244047
 30
0.0
  0
VERTEX
  5
74A
  8
DARTH
 10
4.713642499092582
 20
16.84736463992919
 30
0.0
  0
VERTEX
  5
74B
  8
DARTH
 10
4.655400985696266
 20
16.81900691619008
 30
0.0
  0
VERTEX
  5
74C
  8
DARTH
 10
4.598863045940858
 20
16.79099749550682
 30
0.0
  0
VERTEX
  5
74D
  8
DARTH
 10
4.545769018105194
 20
16.76419104216306
 30
0.0
  0
VERTEX
  5
74E
  8
DARTH
 10
4.497859240468109
 20
16.73944222044245
 30
0.0
  0
VERTEX
  5
74F
  8
DARTH
 10
4.45687405130844
 20
16.71760569462867
 30
0.0
  0
VERTEX
  5
750
  8
DARTH
 10
4.277757531738249
 20
16.62017301697625
 30
0.0
  0
VERTEX
  5
751
  8
DARTH
 10
3.888306079704646
 20
16.22825986382674
 30
0.0
  0
VERTEX
  5
752
  8
DARTH
 10
3.749930360041005
 20
16.04400948738709
 30
0.0
  0
VERTEX
  5
753
  8
DARTH
 10
3.716328026706822
 20
15.99866821211059
 30
0.0
  0
VERTEX
  5
754
  8
DARTH
 10
3.683391891320625
 20
15.95301711110779
 30
0.0
  0
VERTEX
  5
755
  8
DARTH
 10
3.651124041914392
 20
15.90706068258259
 30
0.0
  0
VERTEX
  5
756
  8
DARTH
 10
3.619526566520105
 20
15.86080342473886
 30
0.0
  0
VERTEX
  5
757
  8
DARTH
 10
3.588601553169743
 20
15.81424983578048
 30
0.0
  0
VERTEX
  5
758
  8
DARTH
 10
3.558351089895288
 20
15.76740441391133
 30
0.0
  0
VERTEX
  5
759
  8
DARTH
 10
3.528777264728719
 20
15.7202716573353
 30
0.0
  0
VERTEX
  5
75A
  8
DARTH
 10
3.499882165702016
 20
15.67285606425627
 30
0.0
  0
VERTEX
  5
75B
  8
DARTH
 10
3.47166788084716
 20
15.62516213287811
 30
0.0
  0
VERTEX
  5
75C
  8
DARTH
 10
3.444136498196132
 20
15.57719436140471
 30
0.0
  0
VERTEX
  5
75D
  8
DARTH
 10
3.417290105780912
 20
15.52895724803995
 30
0.0
  0
VERTEX
  5
75E
  8
DARTH
 10
3.391130791633479
 20
15.48045529098771
 30
0.0
  0
VERTEX
  5
75F
  8
DARTH
 10
3.365660643785814
 20
15.43169298845186
 30
0.0
  0
VERTEX
  5
760
  8
DARTH
 10
3.340881750269899
 20
15.38267483863631
 30
0.0
  0
VERTEX
  5
761
  8
DARTH
 10
3.316796199117712
 20
15.33340533974491
 30
0.0
  0
VERTEX
  5
762
  8
DARTH
 10
3.293406078361234
 20
15.28388898998156
 30
0.0
  0
VERTEX
  5
763
  8
DARTH
 10
3.270713476032447
 20
15.23413028755013
 30
0.0
  0
VERTEX
  5
764
  8
DARTH
 10
3.248720480163329
 20
15.18413373065451
 30
0.0
  0
VERTEX
  5
765
  8
DARTH
 10
3.227429178785861
 20
15.13390381749858
 30
0.0
  0
VERTEX
  5
766
  8
DARTH
 10
3.206841659932024
 20
15.08344504628622
 30
0.0
  0
VERTEX
  5
767
  8
DARTH
 10
3.186960011633798
 20
15.0327619152213
 30
0.0
  0
VERTEX
  5
768
  8
DARTH
 10
3.167786321923163
 20
14.98185892250772
 30
0.0
  0
VERTEX
  5
769
  8
DARTH
 10
3.1493226788321
 20
14.93074056634934
 30
0.0
  0
VERTEX
  5
76A
  8
DARTH
 10
3.131571170392589
 20
14.87941134495006
 30
0.0
  0
VERTEX
  5
76B
  8
DARTH
 10
3.11453388463661
 20
14.82787575651375
 30
0.0
  0
VERTEX
  5
76C
  8
DARTH
 10
3.098212909596143
 20
14.7761382992443
 30
0.0
  0
VERTEX
  5
76D
  8
DARTH
 10
3.08261033330317
 20
14.72420347134558
 30
0.0
  0
VERTEX
  5
76E
  8
DARTH
 10
3.06772824378967
 20
14.67207577102148
 30
0.0
  0
VERTEX
  5
76F
  8
DARTH
 10
3.053568729087623
 20
14.61975969647587
 30
0.0
  0
VERTEX
  5
770
  8
DARTH
 10
3.04013387722901
 20
14.56725974591265
 30
0.0
  0
VERTEX
  5
771
  8
DARTH
 10
3.027425776245812
 20
14.51458041753568
 30
0.0
  0
VERTEX
  5
772
  8
DARTH
 10
3.015446514170008
 20
14.46172620954886
 30
0.0
  0
VERTEX
  5
773
  8
DARTH
 10
2.965461317313064
 20
14.23388133833596
 30
0.0
  0
VERTEX
  5
774
  8
DARTH
 10
2.987871230777007
 20
14.21147142487209
 30
0.0
  0
VERTEX
  5
775
  8
DARTH
 10
3.497523912068512
 20
14.28908680617089
 30
0.0
  0
VERTEX
  5
776
  8
DARTH
 10
3.508791807173692
 20
14.27781891106575
 30
0.0
  0
SEQEND
  5
FC0
  8
DARTH
  0
POLYLINE
  5
8E
  8
DARTH
 66
     1
 10
0.0
 20
0.0
 30
0.0
 70
     1
  0
VERTEX
  5
777
  8
DARTH
 10
7.325494888472365
 20
12.38977058468579
 30
0.0
  0
VERTEX
  5
778
  8
DARTH
 10
7.763826988086418
 20
12.08337335349263
 30
0.0
  0
VERTEX
  5
779
  8
DARTH
 10
7.805831742926078
 20
12.09949209031548
 30
0.0
  0
VERTEX
  5
77A
  8
DARTH
 10
8.144454091214737
 20
12.34709677506164
 30
0.0
  0
VERTEX
  5
77B
  8
DARTH
 10
8.144454091214737
 20
14.23777517136738
 30
0.0
  0
VERTEX
  5
77C
  8
DARTH
 10
8.104753189151804
 20
17.56361310595805
 30
0.0
  0
VERTEX
  5
77D
  8
DARTH
 10
8.088100788330909
 20
17.58026550677943
 30
0.0
  0
VERTEX
  5
77E
  8
DARTH
 10
7.25427934370936
 20
17.59669496553642
 30
0.0
  0
VERTEX
  5
77F
  8
DARTH
 10
7.254352937936217
 20
17.56409370291455
 30
0.0
  0
VERTEX
  5
780
  8
DARTH
 10
7.308005860759328
 20
17.04482510020308
 30
0.0
  0
VERTEX
  5
781
  8
DARTH
 10
7.353890544678165
 20
16.15465035269771
 30
0.0
  0
VERTEX
  5
782
  8
DARTH
 10
7.355182813317073
 20
13.52121672466096
 30
0.0
  0
SEQEND
  5
FC1
  8
DARTH
  0
POLYLINE
  5
8F
  8
DARTH
 66
     1
 10
0.0
 20
0.0
 30
0.0
 70
     1
  0
VERTEX
  5
783
  8
DARTH
 10
6.605193590320022
 20
12.78738506312168
 30
0.0
  0
VERTEX
  5
784
  8
DARTH
 10
7.13373484665134
 20
12.53221655822629
 30
0.0
  0
VERTEX
  5
785
  8
DARTH
 10
7.176017844583573
 20
12.52904278733726
 30
0.0
  0
VERTEX
  5
786
  8
DARTH
 10
7.200254530426514
 20
13.28012773054492
 30
0.0
  0
VERTEX
  5
787
  8
DARTH
 10
7.272824650949055
 20
15.92528040444119
 30
0.0
  0
VERTEX
  5
788
  8
DARTH
 10
7.272824650949055
 20
16.01556054839999
 30
0.0
  0
VERTEX
  5
789
  8
DARTH
 10
7.12516884446506
 20
16.01556054839999
 30
0.0
  0
VERTEX
  5
78A
  8
DARTH
 10
7.106944586228488
 20
15.93210666582136
 30
0.0
  0
VERTEX
  5
78B
  8
DARTH
 10
6.916607133034336
 20
14.76375230972055
 30
0.0
  0
VERTEX
  5
78C
  8
DARTH
 10
6.911951577331562
 20
14.75871385610751
 30
0.0
  0
VERTEX
  5
78D
  8
DARTH
 10
6.910862047220072
 20
14.75842106543621
 30
0.0
  0
VERTEX
  5
78E
  8
DARTH
 10
6.908595792563061
 20
14.75856907186215
 30
0.0
  0
VERTEX
  5
78F
  8
DARTH
 10
6.900785873495034
 20
14.76011066029863
 30
0.0
  0
VERTEX
  5
790
  8
DARTH
 10
6.889027347892608
 20
14.76318499000279
 30
0.0
  0
VERTEX
  5
791
  8
DARTH
 10
6.873825743520908
 20
14.76763842956044
 30
0.0
  0
VERTEX
  5
792
  8
DARTH
 10
6.835115409530186
 20
14.78006811257944
 30
0.0
  0
VERTEX
  5
793
  8
DARTH
 10
6.788699093643871
 20
14.79617065804216
 30
0.0
  0
VERTEX
  5
794
  8
DARTH
 10
6.670102165658953
 20
14.83866591358985
 30
0.0
  0
VERTEX
  5
795
  8
DARTH
 10
6.683213693365735
 20
14.93066007487781
 30
0.0
  0
VERTEX
  5
796
  8
DARTH
 10
6.898152743279077
 20
16.04337850925953
 30
0.0
  0
VERTEX
  5
797
  8
DARTH
 10
6.879737800687764
 20
16.05482876611429
 30
0.0
  0
VERTEX
  5
798
  8
DARTH
 10
6.877274971091956
 20
16.05605652477076
 30
0.0
  0
VERTEX
  5
799
  8
DARTH
 10
6.873729527516629
 20
16.05737022987738
 30
0.0
  0
VERTEX
  5
79A
  8
DARTH
 10
6.863660578243244
 20
16.06020774712221
 30
0.0
  0
VERTEX
  5
79B
  8
DARTH
 10
6.85007051249926
 20
16.06324585321099
 30
0.0
  0
VERTEX
  5
79C
  8
DARTH
 10
6.833498889916326
 20
16.06638908350596
 30
0.0
  0
VERTEX
  5
79D
  8
DARTH
 10
6.814485270126095
 20
16.06954197336933
 30
0.0
  0
VERTEX
  5
79E
  8
DARTH
 10
6.793569212760216
 20
16.07260905816331
 30
0.0
  0
VERTEX
  5
79F
  8
DARTH
 10
6.771290277450342
 20
16.07549487325014
 30
0.0
  0
VERTEX
  5
7A0
  8
DARTH
 10
6.748188023828122
 20
16.07810395399203
 30
0.0
  0
VERTEX
  5
7A1
  8
DARTH
 10
6.635053189559798
 20
16.089928885015
 30
0.0
  0
VERTEX
  5
7A2
  8
DARTH
 10
6.610436684934511
 20
16.06192381649923
 30
0.0
  0
VERTEX
  5
7A3
  8
DARTH
 10
5.860577167085435
 20
13.17509482268354
 30
0.0
  0
VERTEX
  5
7A4
  8
DARTH
 10
5.877791677252926
 20
13.13023452828099
 30
0.0
  0
VERTEX
  5
7A5
  8
DARTH
 10
6.312489055599503
 20
12.95342346588497
 30
0.0
  0
VERTEX
  5
7A6
  8
DARTH
 10
6.332688460548241
 20
12.9736228708337
 30
0.0
  0
VERTEX
  5
7A7
  8
DARTH
 10
6.490122726597555
 20
13.67929292122299
 30
0.0
  0
VERTEX
  5
7A8
  8
DARTH
 10
6.510936857917377
 20
13.73353367798318
 30
0.0
  0
VERTEX
  5
7A9
  8
DARTH
 10
6.735010740997888
 20
13.65291070854076
 30
0.0
  0
VERTEX
  5
7AA
  8
DARTH
 10
6.735010740997888
 20
13.56610301659085
 30
0.0
  0
VERTEX
  5
7AB
  8
DARTH
 10
6.605193590320022
 20
12.81677870960768
 30
0.0
  0
SEQEND
  5
FC2
  8
DARTH
  0
POLYLINE
  5
90
  8
DARTH
 66
     1
 10
0.0
 20
0.0
 30
0.0
 70
     1
  0
VERTEX
  5
7AC
  8
DARTH
 10
12.01115065069123
 20
12.99648423854017
 30
0.0
  0
VERTEX
  5
7AD
  8
DARTH
 10
12.19660372308818
 20
12.84947176368903
 30
0.0
  0
VERTEX
  5
7AE
  8
DARTH
 10
12.19262959943945
 20
13.96630409841365
 30
0.0
  0
VERTEX
  5
7AF
  8
DARTH
 10
12.16103105594161
 20
14.24448370700908
 30
0.0
  0
VERTEX
  5
7B0
  8
DARTH
 10
12.15376466696792
 20
14.30534463610186
 30
0.0
  0
VERTEX
  5
7B1
  8
DARTH
 10
12.14520940881459
 20
14.37175044162924
 30
0.0
  0
VERTEX
  5
7B2
  8
DARTH
 10
12.13567954584395
 20
14.44155928378324
 30
0.0
  0
VERTEX
  5
7B3
  8
DARTH
 10
12.12548934241832
 20
14.51262932275586
 30
0.0
  0
VERTEX
  5
7B4
  8
DARTH
 10
12.11495306290003
 20
14.5828187187391
 30
0.0
  0
VERTEX
  5
7B5
  8
DARTH
 10
12.10438497165141
 20
14.64998563192497
 30
0.0
  0
VERTEX
  5
7B6
  8
DARTH
 10
12.09409933303479
 20
14.71198822250547
 30
0.0
  0
VERTEX
  5
7B7
  8
DARTH
 10
12.08441041141248
 20
14.76668465067261
 30
0.0
  0
VERTEX
  5
7B8
  8
DARTH
 10
12.03938831038121
 20
15.01070598574071
 30
0.0
  0
VERTEX
  5
7B9
  8
DARTH
 10
11.90836873252649
 20
15.4106733056152
 30
0.0
  0
VERTEX
  5
7BA
  8
DARTH
 10
11.84526833110384
 20
15.52350736745758
 30
0.0
  0
VERTEX
  5
7BB
  8
DARTH
 10
11.8318678548197
 20
15.54682940905103
 30
0.0
  0
VERTEX
  5
7BC
  8
DARTH
 10
11.81796500241546
 20
15.56985505965695
 30
0.0
  0
VERTEX
  5
7BD
  8
DARTH
 10
11.80396426518311
 20
15.59198968377867
 30
0.0
  0
VERTEX
  5
7BE
  8
DARTH
 10
11.79027013441463
 20
15.61263864591952
 30
0.0
  0
VERTEX
  5
7BF
  8
DARTH
 10
11.77728710140202
 20
15.63120731058283
 30
0.0
  0
VERTEX
  5
7C0
  8
DARTH
 10
11.76541965743725
 20
15.64710104227193
 30
0.0
  0
VERTEX
  5
7C1
  8
DARTH
 10
11.75507229381232
 20
15.65972520549015
 30
0.0
  0
VERTEX
  5
7C2
  8
DARTH
 10
11.75059504565604
 20
15.66462537532997
 30
0.0
  0
VERTEX
  5
7C3
  8
DARTH
 10
11.74664950181921
 20
15.66848516474082
 30
0.0
  0
VERTEX
  5
7C4
  8
DARTH
 10
11.71113107395724
 20
15.70062890018168
 30
0.0
  0
VERTEX
  5
7C5
  8
DARTH
 10
11.66601548252673
 20
15.49903118621329
 30
0.0
  0
VERTEX
  5
7C6
  8
DARTH
 10
11.65169068267153
 20
15.48042831242601
 30
0.0
  0
VERTEX
  5
7C7
  8
DARTH
 10
11.63049173242781
 20
15.45452281943569
 30
0.0
  0
VERTEX
  5
7C8
  8
DARTH
 10
11.60437915833824
 20
15.42378562645605
 30
0.0
  0
VERTEX
  5
7C9
  8
DARTH
 10
11.5753134869455
 20
15.39068765270082
 30
0.0
  0
VERTEX
  5
7CA
  8
DARTH
 10
11.54525524479224
 20
15.35769981738373
 30
0.0
  0
VERTEX
  5
7CB
  8
DARTH
 10
11.53046657422501
 20
15.34201936389377
 30
0.0
  0
VERTEX
  5
7CC
  8
DARTH
 10
11.51616495842114
 20
15.32729303971849
 30
0.0
  0
VERTEX
  5
7CD
  8
DARTH
 10
11.50259546319848
 20
15.31382970975961
 30
0.0
  0
VERTEX
  5
7CE
  8
DARTH
 10
11.49000315437486
 20
15.30193823891884
 30
0.0
  0
VERTEX
  5
7CF
  8
DARTH
 10
11.47863309776812
 20
15.2919274920979
 30
0.0
  0
VERTEX
  5
7D0
  8
DARTH
 10
11.46873035919607
 20
15.2841063341985
 30
0.0
  0
VERTEX
  5
7D1
  8
DARTH
 10
11.06533998146676
 20
15.11883399734329
 30
0.0
  0
VERTEX
  5
7D2
  8
DARTH
 10
11.05435269335761
 20
15.11130762824553
 30
0.0
  0
VERTEX
  5
7D3
  8
DARTH
 10
11.41475464645466
 20
13.40994488122279
 30
0.0
  0
VERTEX
  5
7D4
  8
DARTH
 10
11.45078170688046
 20
13.39582703406301
 30
0.0
  0
VERTEX
  5
7D5
  8
DARTH
 10
11.63823964258737
 20
13.26966187372715
 30
0.0
  0
VERTEX
  5
7D6
  8
DARTH
 10
11.67968111386472
 20
13.24131740672962
 30
0.0
  0
VERTEX
  5
7D7
  8
DARTH
 10
11.72565945067988
 20
13.20907410447177
 30
0.0
  0
VERTEX
  5
7D8
  8
DARTH
 10
11.7746451352262
 20
13.17405242209794
 30
0.0
  0
VERTEX
  5
7D9
  8
DARTH
 10
11.82510864969698
 20
13.13737281475244
 30
0.0
  0
VERTEX
  5
7DA
  8
DARTH
 10
11.87552047628554
 20
13.10015573757959
 30
0.0
  0
VERTEX
  5
7DB
  8
DARTH
 10
11.92435109718522
 20
13.06352164572371
 30
0.0
  0
VERTEX
  5
7DC
  8
DARTH
 10
11.97007099458935
 20
13.02859099432913
 30
0.0
  0
SEQEND
  5
FC3
  8
DARTH
  0
POLYLINE
  5
91
  8
DARTH
 66
     1
 10
0.0
 20
0.0
 30
0.0
 70
     1
  0
VERTEX
  5
7DD
  8
DARTH
 10
10.90917298917587
 20
13.53710562562881
 30
0.0
  0
VERTEX
  5
7DE
  8
DARTH
 10
11.26933836110341
 20
13.42338498704979
 30
0.0
  0
VERTEX
  5
7DF
  8
DARTH
 10
11.28324734153318
 20
13.42130126094621
 30
0.0
  0
VERTEX
  5
7E0
  8
DARTH
 10
11.28604136230897
 20
13.42125847156095
 30
0.0
  0
VERTEX
  5
7E1
  8
DARTH
 10
11.28864793784068
 20
13.42194499341006
 30
0.0
  0
VERTEX
  5
7E2
  8
DARTH
 10
11.29101001957578
 20
13.42329385597432
 30
0.0
  0
VERTEX
  5
7E3
  8
DARTH
 10
11.29307055896171
 20
13.42523808873448
 30
0.0
  0
VERTEX
  5
7E4
  8
DARTH
 10
11.29477250744594
 20
13.42771072117132
 30
0.0
  0
VERTEX
  5
7E5
  8
DARTH
 10
11.29605881647592
 20
13.43064478276561
 30
0.0
  0
VERTEX
  5
7E6
  8
DARTH
 10
11.2968724374991
 20
13.43397330299811
 30
0.0
  0
VERTEX
  5
7E7
  8
DARTH
 10
11.29715632196296
 20
13.43762931134959
 30
0.0
  0
VERTEX
  5
7E8
  8
DARTH
 10
11.29715632196296
 20
13.45604108785655
 30
0.0
  0
VERTEX
  5
7E9
  8
DARTH
 10
11.21453705214168
 20
13.83171709019312
 30
0.0
  0
VERTEX
  5
7EA
  8
DARTH
 10
11.12597976332379
 20
14.23580111666515
 30
0.0
  0
VERTEX
  5
7EB
  8
DARTH
 10
11.02908397974472
 20
14.67977726213589
 30
0.0
  0
VERTEX
  5
7EC
  8
DARTH
 10
10.92625017716905
 20
15.1521614317421
 30
0.0
  0
VERTEX
  5
7ED
  8
DARTH
 10
10.92625017716905
 20
15.19658618023738
 30
0.0
  0
VERTEX
  5
7EE
  8
DARTH
 10
11.02361304017745
 20
15.22798577044331
 30
0.0
  0
VERTEX
  5
7EF
  8
DARTH
 10
11.04973090545237
 20
15.23674978438097
 30
0.0
  0
VERTEX
  5
7F0
  8
DARTH
 10
11.07478510186287
 20
15.24586927327585
 30
0.0
  0
VERTEX
  5
7F1
  8
DARTH
 10
11.09885628860535
 20
15.25539505978658
 30
0.0
  0
VERTEX
  5
7F2
  8
DARTH
 10
11.12202512487624
 20
15.26537796657185
 30
0.0
  0
VERTEX
  5
7F3
  8
DARTH
 10
11.14437226987196
 20
15.27586881629029
 30
0.0
  0
VERTEX
  5
7F4
  8
DARTH
 10
11.16597838278892
 20
15.28691843160057
 30
0.0
  0
VERTEX
  5
7F5
  8
DARTH
 10
11.18692412282354
 20
15.29857763516135
 30
0.0
  0
VERTEX
  5
7F6
  8
DARTH
 10
11.20729014917225
 20
15.31089724963129
 30
0.0
  0
VERTEX
  5
7F7
  8
DARTH
 10
11.22715712103146
 20
15.32392809766904
 30
0.0
  0
VERTEX
  5
7F8
  8
DARTH
 10
11.24660569759758
 20
15.33772100193326
 30
0.0
  0
VERTEX
  5
7F9
  8
DARTH
 10
11.26571653806704
 20
15.35232678508262
 30
0.0
  0
VERTEX
  5
7FA
  8
DARTH
 10
11.28457030163625
 20
15.36779626977575
 30
0.0
  0
VERTEX
  5
7FB
  8
DARTH
 10
11.30324764750164
 20
15.38418027867134
 30
0.0
  0
VERTEX
  5
7FC
  8
DARTH
 10
11.32182923485961
 20
15.40152963442802
 30
0.0
  0
VERTEX
  5
7FD
  8
DARTH
 10
11.34039572290659
 20
15.41989515970447
 30
0.0
  0
VERTEX
  5
7FE
  8
DARTH
 10
11.35902777083901
 20
15.43932767715933
 30
0.0
  0
VERTEX
  5
7FF
  8
DARTH
 10
11.44744106141905
 20
15.53384863606127
 30
0.0
  0
VERTEX
  5
800
  8
DARTH
 10
11.45854557975454
 20
15.55635391424769
 30
0.0
  0
VERTEX
  5
801
  8
DARTH
 10
11.47105913892316
 20
15.57996273504678
 30
0.0
  0
VERTEX
  5
802
  8
DARTH
 10
11.48430589302424
 20
15.6043772097349
 30
0.0
  0
VERTEX
  5
803
  8
DARTH
 10
11.49760999615708
 20
15.62929944958846
 30
0.0
  0
VERTEX
  5
804
  8
DARTH
 10
11.51029560242103
 20
15.65443156588383
 30
0.0
  0
VERTEX
  5
805
  8
DARTH
 10
11.51619526738321
 20
15.66698323747107
 30
0.0
  0
VERTEX
  5
806
  8
DARTH
 10
11.52168686591541
 20
15.67947566989741
 30
0.0
  0
VERTEX
  5
807
  8
DARTH
 10
11.52668591728005
 20
15.69187162707239
 30
0.0
  0
VERTEX
  5
808
  8
DARTH
 10
11.53110794073953
 20
15.70413387290558
 30
0.0
  0
VERTEX
  5
809
  8
DARTH
 10
11.53486845555629
 20
15.7162251713065
 30
0.0
  0
VERTEX
  5
80A
  8
DARTH
 10
11.53788298099274
 20
15.72810828618472
 30
0.0
  0
VERTEX
  5
80B
  8
DARTH
 10
11.54090266771368
 20
15.74290975096259
 30
0.0
  0
VERTEX
  5
80C
  8
DARTH
 10
11.54354402304578
 20
15.75836944261088
 30
0.0
  0
VERTEX
  5
80D
  8
DARTH
 10
11.54580248826444
 20
15.77439302558343
 30
0.0
  0
VERTEX
  5
80E
  8
DARTH
 10
11.54767350464501
 20
15.79088616433409
 30
0.0
  0
VERTEX
  5
80F
  8
DARTH
 10
11.54915251346289
 20
15.80775452331672
 30
0.0
  0
VERTEX
  5
810
  8
DARTH
 10
11.55023495599344
 20
15.82490376698516
 30
0.0
  0
VERTEX
  5
811
  8
DARTH
 10
11.55091627351204
 20
15.84223955979326
 30
0.0
  0
VERTEX
  5
812
  8
DARTH
 10
11.55119190729408
 20
15.85966756619489
 30
0.0
  0
VERTEX
  5
813
  8
DARTH
 10
11.55105729861492
 20
15.87709345064388
 30
0.0
  0
VERTEX
  5
814
  8
DARTH
 10
11.55050788874994
 20
15.89442287759408
 30
0.0
  0
VERTEX
  5
815
  8
DARTH
 10
11.54953911897452
 20
15.91156151149936
 30
0.0
  0
VERTEX
  5
816
  8
DARTH
 10
11.54814643056404
 20
15.92841501681356
 30
0.0
  0
VERTEX
  5
817
  8
DARTH
 10
11.54632526479387
 20
15.94488905799052
 30
0.0
  0
VERTEX
  5
818
  8
DARTH
 10
11.54407106293939
 20
15.96088929948411
 30
0.0
  0
VERTEX
  5
819
  8
DARTH
 10
11.54137926627597
 20
15.97632140574817
 30
0.0
  0
VERTEX
  5
81A
  8
DARTH
 10
11.538245316079
 20
15.99109104123655
 30
0.0
  0
VERTEX
  5
81B
  8
DARTH
 10
11.5343375715888
 20
16.00574706513369
 30
0.0
  0
VERTEX
  5
81C
  8
DARTH
 10
11.52945769040001
 20
16.02062870849927
 30
0.0
  0
VERTEX
  5
81D
  8
DARTH
 10
11.52371573812782
 20
16.03569341744376
 30
0.0
  0
VERTEX
  5
81E
  8
DARTH
 10
11.51722178038742
 20
16.05089863807759
 30
0.0
  0
VERTEX
  5
81F
  8
DARTH
 10
11.51008588279401
 20
16.06620181651122
 30
0.0
  0
VERTEX
  5
820
  8
DARTH
 10
11.50241811096279
 20
16.0815603988551
 30
0.0
  0
VERTEX
  5
821
  8
DARTH
 10
11.48592720704771
 20
16.1122735597154
 30
0.0
  0
VERTEX
  5
822
  8
DARTH
 10
11.46862959356375
 20
16.14269768954209
 30
0.0
  0
VERTEX
  5
823
  8
DARTH
 10
11.45140579543249
 20
16.17249235721877
 30
0.0
  0
VERTEX
  5
824
  8
DARTH
 10
11.43513633757551
 20
16.20131713162904
 30
0.0
  0
VERTEX
  5
825
  8
DARTH
 10
11.42763465028786
 20
16.21525942413539
 30
0.0
  0
VERTEX
  5
826
  8
DARTH
 10
11.42070174491437
 20
16.22883158165649
 30
0.0
  0
VERTEX
  5
827
  8
DARTH
 10
11.10243059594615
 20
16.54683669037369
 30
0.0
  0
VERTEX
  5
828
  8
DARTH
 10
10.7280916353349
 20
16.79440090341394
 30
0.0
  0
VERTEX
  5
829
  8
DARTH
 10
10.16987413314336
 20
17.07264306106263
 30
0.0
  0
VERTEX
  5
82A
  8
DARTH
 10
10.12880196586215
 20
17.07264306106263
 30
0.0
  0
VERTEX
  5
82B
  8
DARTH
 10
10.12880196586215
 20
16.91137275325932
 30
0.0
  0
VERTEX
  5
82C
  8
DARTH
 10
10.3142550382591
 20
13.65836633986902
 30
0.0
  0
VERTEX
  5
82D
  8
DARTH
 10
10.3142550382591
 20
13.650063780794
 30
0.0
  0
VERTEX
  5
82E
  8
DARTH
 10
10.31453304834492
 20
13.64921801839799
 30
0.0
  0
VERTEX
  5
82F
  8
DARTH
 10
10.3153487626438
 20
13.64839597180794
 30
0.0
  0
VERTEX
  5
830
  8
DARTH
 10
10.31848340812913
 20
13.64684005277815
 30
0.0
  0
VERTEX
  5
831
  8
DARTH
 10
10.32343918321195
 20
13.64543007716961
 30
0.0
  0
VERTEX
  5
832
  8
DARTH
 10
10.32999629638911
 20
13.64420009844727
 30
0.0
  0
VERTEX
  5
833
  8
DARTH
 10
10.33793495615747
 20
13.64318417007608
 30
0.0
  0
VERTEX
  5
834
  8
DARTH
 10
10.34703537101388
 20
13.642416345521
 30
0.0
  0
VERTEX
  5
835
  8
DARTH
 10
10.3570777494552
 20
13.64193067824698
 30
0.0
  0
VERTEX
  5
836
  8
DARTH
 10
10.36784229997827
 20
13.64176122171898
 30
0.0
  0
VERTEX
  5
837
  8
DARTH
 10
10.38171753291733
 20
13.64117113535242
 30
0.0
  0
VERTEX
  5
838
  8
DARTH
 10
10.40067521646472
 20
13.63947993088555
 30
0.0
  0
VERTEX
  5
839
  8
DARTH
 10
10.42387044590453
 20
13.63680619026767
 30
0.0
  0
VERTEX
  5
83A
  8
DARTH
 10
10.45045831652082
 20
13.63326849544801
 30
0.0
  0
VERTEX
  5
83B
  8
DARTH
 10
10.47959392359768
 20
13.62898542837585
 30
0.0
  0
VERTEX
  5
83C
  8
DARTH
 10
10.51043236241918
 20
13.62407557100044
 30
0.0
  0
VERTEX
  5
83D
  8
DARTH
 10
10.54212872826938
 20
13.61865750527105
 30
0.0
  0
VERTEX
  5
83E
  8
DARTH
 10
10.57383811643238
 20
13.61284981313695
 30
0.0
  0
VERTEX
  5
83F
  8
DARTH
 10
10.72624667116731
 20
13.58393840455491
 30
0.0
  0
VERTEX
  5
840
  8
DARTH
 10
10.73857839863123
 20
13.59627013201883
 30
0.0
  0
VERTEX
  5
841
  8
DARTH
 10
10.64806085384644
 20
14.70808724381994
 30
0.0
  0
VERTEX
  5
842
  8
DARTH
 10
10.65913824851443
 20
14.74131942782391
 30
0.0
  0
VERTEX
  5
843
  8
DARTH
 10
10.85524379564818
 20
13.7808510260167
 30
0.0
  0
SEQEND
  5
FC4
  8
DARTH
  0
POLYLINE
  5
92
  8
DARTH
 66
     1
 10
0.0
 20
0.0
 30
0.0
 70
     1
  0
VERTEX
  5
844
  8
DARTH
 10
5.130841664764237
 20
13.3304622264447
 30
0.0
  0
VERTEX
  5
845
  8
DARTH
 10
5.594474345756622
 20
13.23809576138998
 30
0.0
  0
VERTEX
  5
846
  8
DARTH
 10
5.668655574715403
 20
13.23397952983755
 30
0.0
  0
VERTEX
  5
847
  8
DARTH
 10
5.848013555261872
 20
13.89212286945487
 30
0.0
  0
VERTEX
  5
848
  8
DARTH
 10
6.496462766530641
 20
16.246827024005
 30
0.0
  0
VERTEX
  5
849
  8
DARTH
 10
6.508072859529589
 20
16.25843711700403
 30
0.0
  0
VERTEX
  5
84A
  8
DARTH
 10
7.2365957915874
 20
16.21423891407441
 30
0.0
  0
VERTEX
  5
84B
  8
DARTH
 10
7.250206059724569
 20
16.22883158165649
 30
0.0
  0
VERTEX
  5
84C
  8
DARTH
 10
7.169099715144521
 20
17.42363876006333
 30
0.0
  0
VERTEX
  5
84D
  8
DARTH
 10
7.148215171558624
 20
17.44452330364888
 30
0.0
  0
VERTEX
  5
84E
  8
DARTH
 10
6.28065071362535
 20
17.38616621709278
 30
0.0
  0
VERTEX
  5
84F
  8
DARTH
 10
6.261673773601972
 20
17.37996263017486
 30
0.0
  0
VERTEX
  5
850
  8
DARTH
 10
6.259512741204334
 20
17.37866985814635
 30
0.0
  0
VERTEX
  5
851
  8
DARTH
 10
6.256965138449978
 20
17.37611668907006
 30
0.0
  0
VERTEX
  5
852
  8
DARTH
 10
6.254063216176999
 20
17.37237160875711
 30
0.0
  0
VERTEX
  5
853
  8
DARTH
 10
6.250839225223499
 20
17.3675031030186
 30
0.0
  0
VERTEX
  5
854
  8
DARTH
 10
6.243554040627318
 20
17.3546697585094
 30
0.0
  0
VERTEX
  5
855
  8
DARTH
 10
6.235367591366224
 20
17.33816454203136
 30
0.0
  0
VERTEX
  5
856
  8
DARTH
 10
6.226537884145001
 20
17.31853534007343
 30
0.0
  0
VERTEX
  5
857
  8
DARTH
 10
6.217322925668436
 20
17.29633003912451
 30
0.0
  0
VERTEX
  5
858
  8
DARTH
 10
6.207980722641315
 20
17.27209652567353
 30
0.0
  0
VERTEX
  5
859
  8
DARTH
 10
6.198769281768424
 20
17.2463826862094
 30
0.0
  0
VERTEX
  5
85A
  8
DARTH
 10
6.154841729958259
 20
17.11900632916187
 30
0.0
  0
VERTEX
  5
85B
  8
DARTH
 10
5.879103348628059
 20
16.36456287621821
 30
0.0
  0
VERTEX
  5
85C
  8
DARTH
 10
5.887257159020638
 20
16.35640906582557
 30
0.0
  0
VERTEX
  5
85D
  8
DARTH
 10
5.88864319546306
 20
16.35548805809353
 30
0.0
  0
VERTEX
  5
85E
  8
DARTH
 10
5.891080201630153
 20
16.35441550087197
 30
0.0
  0
VERTEX
  5
85F
  8
DARTH
 10
5.898870844538138
 20
16.35186819344673
 30
0.0
  0
VERTEX
  5
860
  8
DARTH
 10
5.910156530544164
 20
16.3488720545228
 30
0.0
  0
VERTEX
  5
861
  8
DARTH
 10
5.924464702447804
 20
16.34553199507307
 30
0.0
  0
VERTEX
  5
862
  8
DARTH
 10
5.960258275146209
 20
16.33823975848797
 30
0.0
  0
VERTEX
  5
863
  8
DARTH
 10
6.002471105029922
 20
16.33083077147481
 30
0.0
  0
VERTEX
  5
864
  8
DARTH
 10
6.024209465092172
 20
16.32709807397244
 30
0.0
  0
VERTEX
  5
865
  8
DARTH
 10
6.04493838367218
 20
16.32316637265102
 30
0.0
  0
VERTEX
  5
866
  8
DARTH
 10
6.06417207727266
 20
16.31915385483995
 30
0.0
  0
VERTEX
  5
867
  8
DARTH
 10
6.081424762396328
 20
16.31517870786865
 30
0.0
  0
VERTEX
  5
868
  8
DARTH
 10
6.096210655545899
 20
16.31135911906653
 30
0.0
  0
VERTEX
  5
869
  8
DARTH
 10
6.108043973224093
 20
16.30781327576302
 30
0.0
  0
VERTEX
  5
86A
  8
DARTH
 10
6.116438931933622
 20
16.30465936528753
 30
0.0
  0
VERTEX
  5
86B
  8
DARTH
 10
6.119195219332238
 20
16.30326631840074
 30
0.0
  0
VERTEX
  5
86C
  8
DARTH
 10
6.120909748177207
 20
16.30201557496948
 30
0.0
  0
VERTEX
  5
86D
  8
DARTH
 10
6.132288255707788
 20
16.29062486242228
 30
0.0
  0
VERTEX
  5
86E
  8
DARTH
 10
5.882498875893558
 20
15.56120052102745
 30
0.0
  0
VERTEX
  5
86F
  8
DARTH
 10
5.122460371818549
 20
13.3379631761298
 30
0.0
  0
SEQEND
  5
FC5
  8
DARTH
  0
POLYLINE
  5
93
  8
DARTH
 66
     1
 10
0.0
 20
0.0
 30
0.0
 70
     1
  0
VERTEX
  5
870
  8
DARTH
 10
11.79185208350679
 20
13.89505951884286
 30
0.0
  0
VERTEX
  5
871
  8
DARTH
 10
11.80715227105458
 20
13.98484940565334
 30
0.0
  0
VERTEX
  5
872
  8
DARTH
 10
11.80640118226487
 20
14.42993677940604
 30
0.0
  0
VERTEX
  5
873
  8
DARTH
 10
11.77554525319045
 20
14.48692340741812
 30
0.0
  0
VERTEX
  5
874
  8
DARTH
 10
11.76875422115006
 20
14.49886273844052
 30
0.0
  0
VERTEX
  5
875
  8
DARTH
 10
11.76127297582246
 20
14.51095202154864
 30
0.0
  0
VERTEX
  5
876
  8
DARTH
 10
11.75334718728321
 20
14.52285866788637
 30
0.0
  0
VERTEX
  5
877
  8
DARTH
 10
11.74522252560785
 20
14.53425008859757
 30
0.0
  0
VERTEX
  5
878
  8
DARTH
 10
11.73714466087192
 20
14.54479369482611
 30
0.0
  0
VERTEX
  5
879
  8
DARTH
 10
11.72935926315099
 20
14.55415689771588
 30
0.0
  0
VERTEX
  5
87A
  8
DARTH
 10
11.72211200252059
 20
14.56200710841075
 30
0.0
  0
VERTEX
  5
87B
  8
DARTH
 10
11.7156485490563
 20
14.56801173805458
 30
0.0
  0
VERTEX
  5
87C
  8
DARTH
 10
11.68660777399656
 20
14.59211344067895
 30
0.0
  0
VERTEX
  5
87D
  8
DARTH
 10
11.68727370424134
 20
14.48557270112512
 30
0.0
  0
VERTEX
  5
87E
  8
DARTH
 10
11.75891810515098
 20
13.8229034228404
 30
0.0
  0
VERTEX
  5
87F
  8
DARTH
 10
11.76773500055499
 20
13.81408652743639
 30
0.0
  0
VERTEX
  5
880
  8
DARTH
 10
11.76871253439111
 20
13.81365419967452
 30
0.0
  0
VERTEX
  5
881
  8
DARTH
 10
11.76981840807878
 20
13.81414802475058
 30
0.0
  0
VERTEX
  5
882
  8
DARTH
 10
11.77104025690263
 20
13.81552648819143
 30
0.0
  0
VERTEX
  5
883
  8
DARTH
 10
11.77236571614728
 20
13.81774807552394
 30
0.0
  0
VERTEX
  5
884
  8
DARTH
 10
11.77527800703745
 20
13.82455456397139
 30
0.0
  0
VERTEX
  5
885
  8
DARTH
 10
11.77845636302624
 20
13.83423537430788
 30
0.0
  0
VERTEX
  5
886
  8
DARTH
 10
11.78180186639062
 20
13.84645839074834
 30
0.0
  0
VERTEX
  5
887
  8
DARTH
 10
11.78521559940753
 20
13.8608914975077
 30
0.0
  0
VERTEX
  5
888
  8
DARTH
 10
11.78859864435394
 20
13.8772025788009
 30
0.0
  0
SEQEND
  5
FC6
  8
DARTH
  0
POLYLINE
  5
94
  8
DARTH
 66
     1
 10
0.0
 20
0.0
 30
0.0
 70
     1
  0
VERTEX
  5
889
  8
DARTH
 10
9.016063948262584
 20
14.55427725867923
 30
0.0
  0
VERTEX
  5
88A
  8
DARTH
 10
9.016083531480422
 20
13.64008053252949
 30
0.0
  0
VERTEX
  5
88B
  8
DARTH
 10
9.136628028538441
 20
13.66066010931837
 30
0.0
  0
VERTEX
  5
88C
  8
DARTH
 10
9.34062640817509
 20
13.67901312684977
 30
0.0
  0
VERTEX
  5
88D
  8
DARTH
 10
9.389718365312568
 20
13.68318577814987
 30
0.0
  0
VERTEX
  5
88E
  8
DARTH
 10
9.437907274245312
 20
13.68679020924846
 30
0.0
  0
VERTEX
  5
88F
  8
DARTH
 10
9.485177118253992
 20
13.68982645382991
 30
0.0
  0
VERTEX
  5
890
  8
DARTH
 10
9.531511880619274
 20
13.69229454557856
 30
0.0
  0
VERTEX
  5
891
  8
DARTH
 10
9.576895544621824
 20
13.69419451817877
 30
0.0
  0
VERTEX
  5
892
  8
DARTH
 10
9.621312093542306
 20
13.69552640531489
 30
0.0
  0
VERTEX
  5
893
  8
DARTH
 10
9.664745510661389
 20
13.69629024067128
 30
0.0
  0
VERTEX
  5
894
  8
DARTH
 10
9.70717977925974
 20
13.69648605793229
 30
0.0
  0
VERTEX
  5
895
  8
DARTH
 10
9.748598882618023
 20
13.69611389078228
 30
0.0
  0
VERTEX
  5
896
  8
DARTH
 10
9.788986804016906
 20
13.69517377290559
 30
0.0
  0
VERTEX
  5
897
  8
DARTH
 10
9.828327526737056
 20
13.6936657379866
 30
0.0
  0
VERTEX
  5
898
  8
DARTH
 10
9.866605034059138
 20
13.69158981970963
 30
0.0
  0
VERTEX
  5
899
  8
DARTH
 10
9.903803309263818
 20
13.68894605175906
 30
0.0
  0
VERTEX
  5
89A
  8
DARTH
 10
9.939906335631767
 20
13.68573446781924
 30
0.0
  0
VERTEX
  5
89B
  8
DARTH
 10
9.974898096443646
 20
13.68195510157452
 30
0.0
  0
VERTEX
  5
89C
  8
DARTH
 10
10.00876257498012
 20
13.67760798670926
 30
0.0
  0
VERTEX
  5
89D
  8
DARTH
 10
10.15104134320351
 20
13.65781882998044
 30
0.0
  0
VERTEX
  5
89E
  8
DARTH
 10
10.16699983038602
 20
13.67377731716296
 30
0.0
  0
VERTEX
  5
89F
  8
DARTH
 10
10.03628150729014
 20
16.04337850925953
 30
0.0
  0
VERTEX
  5
8A0
  8
DARTH
 10
9.976376520504761
 20
17.13755163640156
 30
0.0
  0
VERTEX
  5
8A1
  8
DARTH
 10
9.96154907785346
 20
17.15348330741077
 30
0.0
  0
VERTEX
  5
8A2
  8
DARTH
 10
9.959562547676938
 20
17.15527729220328
 30
0.0
  0
VERTEX
  5
8A3
  8
DARTH
 10
9.956798241594052
 20
17.15721867112293
 30
0.0
  0
VERTEX
  5
8A4
  8
DARTH
 10
9.948880190689312
 20
17.16155990910264
 30
0.0
  0
VERTEX
  5
8A5
  8
DARTH
 10
9.937682703099476
 20
17.1665396168678
 30
0.0
  0
VERTEX
  5
8A6
  8
DARTH
 10
9.923093556784774
 20
17.17219038993631
 30
0.0
  0
VERTEX
  5
8A7
  8
DARTH
 10
9.90500052970544
 20
17.1785448238261
 30
0.0
  0
VERTEX
  5
8A8
  8
DARTH
 10
9.883291399821704
 20
17.18563551405507
 30
0.0
  0
VERTEX
  5
8A9
  8
DARTH
 10
9.857853945093801
 20
17.19349505614113
 30
0.0
  0
VERTEX
  5
8AA
  8
DARTH
 10
9.82857594348196
 20
17.2021560456022
 30
0.0
  0
VERTEX
  5
8AB
  8
DARTH
 10
9.7580494114474
 20
17.22201274872099
 30
0.0
  0
VERTEX
  5
8AC
  8
DARTH
 10
9.670814027399885
 20
17.24546638755475
 30
0.0
  0
VERTEX
  5
8AD
  8
DARTH
 10
9.56597201502127
 20
17.27277772624676
 30
0.0
  0
VERTEX
  5
8AE
  8
DARTH
 10
9.442625597993416
 20
17.30420752894031
 30
0.0
  0
VERTEX
  5
8AF
  8
DARTH
 10
9.192263950257527
 20
17.36746009403718
 30
0.0
  0
VERTEX
  5
8B0
  8
DARTH
 10
8.99140282576273
 20
17.39350558225564
 30
0.0
  0
VERTEX
  5
8B1
  8
DARTH
 10
9.003723595403734
 20
16.43098978354231
 30
0.0
  0
VERTEX
  5
8B2
  8
DARTH
 10
9.006198977829914
 20
16.21898176462447
 30
0.0
  0
VERTEX
  5
8B3
  8
DARTH
 10
9.008509064479192
 20
15.98512711065039
 30
0.0
  0
VERTEX
  5
8B4
  8
DARTH
 10
9.010603240623041
 20
15.73712327533532
 30
0.0
  0
VERTEX
  5
8B5
  8
DARTH
 10
9.01243089153294
 20
15.48266771239453
 30
0.0
  0
VERTEX
  5
8B6
  8
DARTH
 10
9.013941402480366
 20
15.22945787554326
 30
0.0
  0
VERTEX
  5
8B7
  8
DARTH
 10
9.015084158736798
 20
14.98519121849679
 30
0.0
  0
VERTEX
  5
8B8
  8
DARTH
 10
9.01580854557371
 20
14.75756519497035
 30
0.0
  0
SEQEND
  5
FC7
  8
DARTH
  0
POLYLINE
  5
95
  8
DARTH
 66
     1
 10
0.0
 20
0.0
 30
0.0
 70
     1
  0
VERTEX
  5
8B9
  8
DARTH
 10
9.647221231927908
 20
15.43601969715951
 30
0.0
  0
VERTEX
  5
8BA
  8
DARTH
 10
9.64781848622575
 20
15.44992867758928
 30
0.0
  0
VERTEX
  5
8BB
  8
DARTH
 10
9.645430958583159
 20
16.37706239381812
 30
0.0
  0
VERTEX
  5
8BC
  8
DARTH
 10
9.593864116310044
 20
16.42862923609124
 30
0.0
  0
VERTEX
  5
8BD
  8
DARTH
 10
9.535352134191893
 20
16.40617608181511
 30
0.0
  0
VERTEX
  5
8BE
  8
DARTH
 10
9.535352134191893
 20
15.42211071672974
 30
0.0
  0
VERTEX
  5
8BF
  8
DARTH
 10
9.59098805591098
 20
15.42211071672974
 30
0.0
  0
VERTEX
  5
8C0
  8
DARTH
 10
9.60217632906766
 20
15.42239460119359
 30
0.0
  0
VERTEX
  5
8C1
  8
DARTH
 10
9.612637568237908
 20
15.42320822221678
 30
0.0
  0
VERTEX
  5
8C2
  8
DARTH
 10
9.622141129535715
 20
15.42449453124676
 30
0.0
  0
VERTEX
  5
8C3
  8
DARTH
 10
9.630456369075077
 20
15.42619647973099
 30
0.0
  0
VERTEX
  5
8C4
  8
DARTH
 10
9.637352642969983
 20
15.42825701911692
 30
0.0
  0
VERTEX
  5
8C5
  8
DARTH
 10
9.642599307334429
 20
15.43061910085201
 30
0.0
  0
VERTEX
  5
8C6
  8
DARTH
 10
9.64453195972835
 20
15.43189539242783
 30
0.0
  0
VERTEX
  5
8C7
  8
DARTH
 10
9.645965718282405
 20
15.43322567638372
 30
0.0
  0
VERTEX
  5
8C8
  8
DARTH
 10
9.64687175251084
 20
15.43460282165064
 30
0.0
  0
SEQEND
  5
FC8
  8
DARTH
  0
POLYLINE
  5
96
  8
DARTH
 66
     1
 10
0.0
 20
0.0
 30
0.0
 70
     1
  0
VERTEX
  5
8C9
  8
DARTH
 10
11.04679467422707
 20
15.7837442079038
 30
0.0
  0
VERTEX
  5
8CA
  8
DARTH
 10
11.13010990984711
 20
15.91356135858167
 30
0.0
  0
VERTEX
  5
8CB
  8
DARTH
 10
11.1302485568057
 20
16.02764044127665
 30
0.0
  0
VERTEX
  5
8CC
  8
DARTH
 10
11.03596230695424
 20
16.11621777385777
 30
0.0
  0
SEQEND
  5
FC9
  8
DARTH
  0
POLYLINE
  5
97
  8
DARTH
 66
     1
 10
0.0
 20
0.0
 30
0.0
 70
     1
  0
VERTEX
  5
8CD
  8
DARTH
 10
5.1164546435951
 20
16.42248990614268
 30
0.0
  0
VERTEX
  5
8CE
  8
DARTH
 10
5.650110267475709
 20
16.35339055232699
 30
0.0
  0
VERTEX
  5
8CF
  8
DARTH
 10
5.724195556772662
 20
16.35864873233435
 30
0.0
  0
VERTEX
  5
8D0
  8
DARTH
 10
6.089173602889931
 20
17.33521051621689
 30
0.0
  0
VERTEX
  5
8D1
  8
DARTH
 10
6.069129909877079
 20
17.35525420922972
 30
0.0
  0
VERTEX
  5
8D2
  8
DARTH
 10
5.378236189841275
 20
17.12244561121812
 30
0.0
  0
VERTEX
  5
8D3
  8
DARTH
 10
5.32975220835478
 20
17.04482510020308
 30
0.0
  0
VERTEX
  5
8D4
  8
DARTH
 10
5.097027215940271
 20
16.44191733379751
 30
0.0
  0
SEQEND
  5
FCA
  8
DARTH
  0
POLYLINE
  5
98
  8
DARTH
 66
     1
 10
0.0
 20
0.0
 30
0.0
 70
     1
  0
VERTEX
  5
8D5
  8
DARTH
 10
4.008850576762667
 20
15.19620769910071
 30
0.0
  0
VERTEX
  5
8D6
  8
DARTH
 10
4.008850576762667
 20
15.18262334079405
 30
0.0
  0
VERTEX
  5
8D7
  8
DARTH
 10
4.369856430938347
 20
15.31330212083314
 30
0.0
  0
VERTEX
  5
8D8
  8
DARTH
 10
4.379470172236323
 20
15.32291586213111
 30
0.0
  0
VERTEX
  5
8D9
  8
DARTH
 10
5.012891436590669
 20
16.61259788026567
 30
0.0
  0
VERTEX
  5
8DA
  8
DARTH
 10
4.995882451222032
 20
16.62960686563435
 30
0.0
  0
VERTEX
  5
8DB
  8
DARTH
 10
4.682138722077886
 20
16.17319565993741
 30
0.0
  0
SEQEND
  5
FCB
  8
DARTH
  0
POLYLINE
  5
99
  8
DARTH
 66
     1
 10
0.0
 20
0.0
 30
0.0
 70
     1
  0
VERTEX
  5
8DC
  8
DARTH
 10
12.06304880550897
 20
4.948648453111767
 30
0.0
  0
VERTEX
  5
8DD
  8
DARTH
 10
12.06926810632559
 20
4.939018139991389
 30
0.0
  0
VERTEX
  5
8DE
  8
DARTH
 10
12.07536001146522
 20
4.928226971058504
 30
0.0
  0
VERTEX
  5
8DF
  8
DARTH
 10
12.08150668701211
 20
4.916823676883551
 30
0.0
  0
VERTEX
  5
8E0
  8
DARTH
 10
12.08789029905049
 20
4.905356988036966
 30
0.0
  0
VERTEX
  5
8E1
  8
DARTH
 10
12.09469301366464
 20
4.894375635089188
 30
0.0
  0
VERTEX
  5
8E2
  8
DARTH
 10
12.09830846133895
 20
4.889238437880612
 30
0.0
  0
VERTEX
  5
8E3
  8
DARTH
 10
12.1020969969388
 20
4.884428348610653
 30
0.0
  0
VERTEX
  5
8E4
  8
DARTH
 10
12.10608139122471
 20
4.880013958600614
 30
0.0
  0
VERTEX
  5
8E5
  8
DARTH
 10
12.11028441495723
 20
4.876063859171799
 30
0.0
  0
VERTEX
  5
8E6
  8
DARTH
 10
12.11472883889687
 20
4.872646641645515
 30
0.0
  0
VERTEX
  5
8E7
  8
DARTH
 10
12.11943743380418
 20
4.869830897343064
 30
0.0
  0
VERTEX
  5
8E8
  8
DARTH
 10
12.12113794489398
 20
4.869431370631764
 30
0.0
  0
VERTEX
  5
8E9
  8
DARTH
 10
12.12429298355469
 20
4.869222794518841
 30
0.0
  0
VERTEX
  5
8EA
  8
DARTH
 10
12.13486903061426
 20
4.869365384669443
 30
0.0
  0
VERTEX
  5
8EB
  8
DARTH
 10
12.15097034903372
 20
4.870232448957516
 30
0.0
  0
VERTEX
  5
8EC
  8
DARTH
 10
12.17240171286391
 20
4.871797768545706
 30
0.0
  0
VERTEX
  5
8ED
  8
DARTH
 10
12.23047367295982
 20
4.876918298273016
 30
0.0
  0
VERTEX
  5
8EE
  8
DARTH
 10
12.30752310330867
 20
4.884517223152534
 30
0.0
  0
VERTEX
  5
8EF
  8
DARTH
 10
12.40198819631713
 20
4.894384792485423
 30
0.0
  0
VERTEX
  5
8F0
  8
DARTH
 10
12.5123071443919
 20
4.906311255572845
 30
0.0
  0
VERTEX
  5
8F1
  8
DARTH
 10
12.77425937536706
 20
4.935501860215935
 30
0.0
  0
VERTEX
  5
8F2
  8
DARTH
 10
13.41969056400702
 20
5.009360763807647
 30
0.0
  0
VERTEX
  5
8F3
  8
DARTH
 10
14.1438609832562
 20
5.092669889202048
 30
0.0
  0
VERTEX
  5
8F4
  8
DARTH
 10
14.1522371187511
 20
5.103693235243798
 30
0.0
  0
VERTEX
  5
8F5
  8
DARTH
 10
14.16420748592926
 20
5.120160503079137
 30
0.0
  0
VERTEX
  5
8F6
  8
DARTH
 10
14.17864537173377
 20
5.140555887222067
 30
0.0
  0
VERTEX
  5
8F7
  8
DARTH
 10
14.19442406310774
 20
5.163363582186596
 30
0.0
  0
VERTEX
  5
8F8
  8
DARTH
 10
14.21041684699425
 20
5.187067782486727
 30
0.0
  0
VERTEX
  5
8F9
  8
DARTH
 10
14.22549701033641
 20
5.210152682636464
 30
0.0
  0
VERTEX
  5
8FA
  8
DARTH
 10
14.23853784007731
 20
5.231102477149813
 30
0.0
  0
VERTEX
  5
8FB
  8
DARTH
 10
14.24841262316005
 20
5.248401360540777
 30
0.0
  0
VERTEX
  5
8FC
  8
DARTH
 10
14.2585284221938
 20
5.265542155165551
 30
0.0
  0
VERTEX
  5
8FD
  8
DARTH
 10
14.26995070508885
 20
5.283828986259953
 30
0.0
  0
VERTEX
  5
8FE
  8
DARTH
 10
14.27537673281523
 20
5.293178219891537
 30
0.0
  0
VERTEX
  5
8FF
  8
DARTH
 10
14.28019932730397
 20
5.302545227930453
 30
0.0
  0
VERTEX
  5
900
  8
DARTH
 10
14.28410847048743
 20
5.31184043214001
 30
0.0
  0
VERTEX
  5
901
  8
DARTH
 10
14.28562361719354
 20
5.316433114609813
 30
0.0
  0
VERTEX
  5
902
  8
DARTH
 10
14.28679414429795
 20
5.320974254283518
 30
0.0
  0
VERTEX
  5
903
  8
DARTH
 10
14.2895504269153
 20
5.335128139437276
 30
0.0
  0
VERTEX
  5
904
  8
DARTH
 10
14.29179821827013
 20
5.349939450106879
 30
0.0
  0
VERTEX
  5
905
  8
DARTH
 10
14.29354244576739
 20
5.36531037839814
 30
0.0
  0
VERTEX
  5
906
  8
DARTH
 10
14.29478803681199
 20
5.381143116416869
 30
0.0
  0
VERTEX
  5
907
  8
DARTH
 10
14.29553991880889
 20
5.397339856268879
 30
0.0
  0
VERTEX
  5
908
  8
DARTH
 10
14.295803019163
 20
5.413802790059984
 30
0.0
  0
VERTEX
  5
909
  8
DARTH
 10
14.29558226527926
 20
5.430434109895995
 30
0.0
  0
VERTEX
  5
90A
  8
DARTH
 10
14.2948825845626
 20
5.447136007882725
 30
0.0
  0
VERTEX
  5
90B
  8
DARTH
 10
14.29370890441796
 20
5.463810676125986
 30
0.0
  0
VERTEX
  5
90C
  8
DARTH
 10
14.29206615225027
 20
5.48036030673159
 30
0.0
  0
VERTEX
  5
90D
  8
DARTH
 10
14.28995925546445
 20
5.496687091805349
 30
0.0
  0
VERTEX
  5
90E
  8
DARTH
 10
14.28739314146545
 20
5.512693223453076
 30
0.0
  0
VERTEX
  5
90F
  8
DARTH
 10
14.2843727376582
 20
5.528280893780584
 30
0.0
  0
VERTEX
  5
910
  8
DARTH
 10
14.28090297144762
 20
5.543352294893685
 30
0.0
  0
VERTEX
  5
911
  8
DARTH
 10
14.27698877023866
 20
5.55780961889819
 30
0.0
  0
VERTEX
  5
912
  8
DARTH
 10
14.27263506143623
 20
5.571555057899912
 30
0.0
  0
VERTEX
  5
913
  8
DARTH
 10
14.26768054742488
 20
5.584760271433544
 30
0.0
  0
VERTEX
  5
914
  8
DARTH
 10
14.26184266117621
 20
5.598131598145081
 30
0.0
  0
VERTEX
  5
915
  8
DARTH
 10
14.25520282986838
 20
5.611618303671813
 30
0.0
  0
VERTEX
  5
916
  8
DARTH
 10
14.24784248067951
 20
5.62516965365103
 30
0.0
  0
VERTEX
  5
917
  8
DARTH
 10
14.23984304078772
 20
5.638734913720022
 30
0.0
  0
VERTEX
  5
918
  8
DARTH
 10
14.23128593737116
 20
5.652263349516078
 30
0.0
  0
VERTEX
  5
919
  8
DARTH
 10
14.22225259760796
 20
5.665704226676487
 30
0.0
  0
VERTEX
  5
91A
  8
DARTH
 10
14.21282444867625
 20
5.679006810838542
 30
0.0
  0
VERTEX
  5
91B
  8
DARTH
 10
14.20308291775416
 20
5.69212036763953
 30
0.0
  0
VERTEX
  5
91C
  8
DARTH
 10
14.19310943201983
 20
5.704994162716741
 30
0.0
  0
VERTEX
  5
91D
  8
DARTH
 10
14.17279230482697
 20
5.729819530248992
 30
0.0
  0
VERTEX
  5
91E
  8
DARTH
 10
14.15252448452272
 20
5.753077038533615
 30
0.0
  0
VERTEX
  5
91F
  8
DARTH
 10
14.13295738853216
 20
5.774360812668924
 30
0.0
  0
VERTEX
  5
920
  8
DARTH
 10
14.12178471047312
 20
5.785304597515729
 30
0.0
  0
VERTEX
  5
921
  8
DARTH
 10
14.10923826912306
 20
5.796137383813335
 30
0.0
  0
VERTEX
  5
922
  8
DARTH
 10
14.09571139931314
 20
5.806825260205234
 30
0.0
  0
VERTEX
  5
923
  8
DARTH
 10
14.08159743587451
 20
5.817334315334922
 30
0.0
  0
VERTEX
  5
924
  8
DARTH
 10
14.05318156743574
 20
5.837680316381634
 30
0.0
  0
VERTEX
  5
925
  8
DARTH
 10
14.03966633209791
 20
5.847449439585647
 30
0.0
  0
VERTEX
  5
926
  8
DARTH
 10
14.027137342456
 20
5.856904096101424
 30
0.0
  0
VERTEX
  5
927
  8
DARTH
 10
14.01490434807754
 20
5.866155941921802
 30
0.0
  0
VERTEX
  5
928
  8
DARTH
 10
14.00027603383574
 20
5.87673736832775
 30
0.0
  0
VERTEX
  5
929
  8
DARTH
 10
13.96530515210421
 20
5.900991609812982
 30
0.0
  0
VERTEX
  5
92A
  8
DARTH
 10
13.92516810994573
 20
5.927872114390368
 30
0.0
  0
VERTEX
  5
92B
  8
DARTH
 10
13.8828083200446
 20
5.955584175893154
 30
0.0
  0
VERTEX
  5
92C
  8
DARTH
 10
13.84116919508512
 20
5.982333088154586
 30
0.0
  0
VERTEX
  5
92D
  8
DARTH
 10
13.80319414775158
 20
6.00632414500791
 30
0.0
  0
VERTEX
  5
92E
  8
DARTH
 10
13.77182659072829
 20
6.025762640286373
 30
0.0
  0
VERTEX
  5
92F
  8
DARTH
 10
13.75000993669955
 20
6.038853867823219
 30
0.0
  0
VERTEX
  5
930
  8
DARTH
 10
13.6486737090629
 20
6.399818744617932
 30
0.0
  0
VERTEX
  5
931
  8
DARTH
 10
13.5104692743626
 20
6.872724079230164
 30
0.0
  0
VERTEX
  5
932
  8
DARTH
 10
13.45927639579293
 20
7.046950237225937
 30
0.0
  0
VERTEX
  5
933
  8
DARTH
 10
13.40867984597672
 20
7.217243696251186
 30
0.0
  0
VERTEX
  5
934
  8
DARTH
 10
13.35866642535464
 20
7.383645346019636
 30
0.0
  0
VERTEX
  5
935
  8
DARTH
 10
13.30922293436734
 20
7.546196076245012
 30
0.0
  0
VERTEX
  5
936
  8
DARTH
 10
13.2603361734555
 20
7.704936776641039
 30
0.0
  0
VERTEX
  5
937
  8
DARTH
 10
13.21199294305978
 20
7.859908336921444
 30
0.0
  0
VERTEX
  5
938
  8
DARTH
 10
13.16418004362085
 20
8.011151646799949
 30
0.0
  0
VERTEX
  5
939
  8
DARTH
 10
13.11688427557937
 20
8.158707595990283
 30
0.0
  0
VERTEX
  5
93A
  8
DARTH
 10
13.07009243937601
 20
8.302617074206168
 30
0.0
  0
VERTEX
  5
93B
  8
DARTH
 10
13.02379133545145
 20
8.442920971161332
 30
0.0
  0
VERTEX
  5
93C
  8
DARTH
 10
12.97796776424633
 20
8.579660176569497
 30
0.0
  0
VERTEX
  5
93D
  8
DARTH
 10
12.93260852620134
 20
8.712875580144392
 30
0.0
  0
VERTEX
  5
93E
  8
DARTH
 10
12.88770042175714
 20
8.84260807159974
 30
0.0
  0
VERTEX
  5
93F
  8
DARTH
 10
12.84323025135439
 20
8.968898540649267
 30
0.0
  0
VERTEX
  5
940
  8
DARTH
 10
12.79918481543376
 20
9.091787877006698
 30
0.0
  0
VERTEX
  5
941
  8
DARTH
 10
12.75555091443592
 20
9.211316970385758
 30
0.0
  0
VERTEX
  5
942
  8
DARTH
 10
12.61476017361742
 20
9.593379947753489
 30
0.0
  0
VERTEX
  5
943
  8
DARTH
 10
12.39405556452187
 20
10.09033488531731
 30
0.0
  0
VERTEX
  5
944
  8
DARTH
 10
12.32662442377027
 20
10.21087938237533
 30
0.0
  0
VERTEX
  5
945
  8
DARTH
 10
12.29959684056829
 20
10.25854107979498
 30
0.0
  0
VERTEX
  5
946
  8
DARTH
 10
12.27586863126758
 20
10.29898120833641
 30
0.0
  0
VERTEX
  5
947
  8
DARTH
 10
12.25537793742325
 20
10.33228922511069
 30
0.0
  0
VERTEX
  5
948
  8
DARTH
 10
12.24632732803322
 20
10.34629664693235
 30
0.0
  0
VERTEX
  5
949
  8
DARTH
 10
12.23806290059045
 20
10.35855458722888
 30
0.0
  0
VERTEX
  5
94A
  8
DARTH
 10
12.23057692278935
 20
10.36907422813916
 30
0.0
  0
VERTEX
  5
94B
  8
DARTH
 10
12.2238616623243
 20
10.37786675180207
 30
0.0
  0
VERTEX
  5
94C
  8
DARTH
 10
12.21790938688969
 20
10.3849433403565
 30
0.0
  0
VERTEX
  5
94D
  8
DARTH
 10
12.21271236417993
 20
10.39031517594133
 30
0.0
  0
VERTEX
  5
94E
  8
DARTH
 10
12.20826286188939
 20
10.39399344069545
 30
0.0
  0
VERTEX
  5
94F
  8
DARTH
 10
12.20455314771247
 20
10.39598931675773
 30
0.0
  0
VERTEX
  5
950
  8
DARTH
 10
12.20297329482112
 20
10.39635985344784
 30
0.0
  0
VERTEX
  5
951
  8
DARTH
 10
12.20157548934356
 20
10.39631398626707
 30
0.0
  0
VERTEX
  5
952
  8
DARTH
 10
12.20035876474161
 20
10.39585311298279
 30
0.0
  0
VERTEX
  5
953
  8
DARTH
 10
12.19932215447705
 20
10.39497863136235
 30
0.0
  0
VERTEX
  5
954
  8
DARTH
 10
12.19238469452639
 20
10.38705980115244
 30
0.0
  0
VERTEX
  5
955
  8
DARTH
 10
11.83587919965617
 20
9.239602559845524
 30
0.0
  0
VERTEX
  5
956
  8
DARTH
 10
11.85542127603713
 20
9.221177563584206
 30
0.0
  0
VERTEX
  5
957
  8
DARTH
 10
11.87677780567966
 20
9.2021652229081
 30
0.0
  0
VERTEX
  5
958
  8
DARTH
 10
11.89916635057818
 20
9.182616036278851
 30
0.0
  0
VERTEX
  5
959
  8
DARTH
 10
11.9218044727271
 20
9.162580502158118
 30
0.0
  0
VERTEX
  5
95A
  8
DARTH
 10
11.94390973412085
 20
9.142109119007547
 30
0.0
  0
VERTEX
  5
95B
  8
DARTH
 10
11.9545180301578
 20
9.13172576481534
 30
0.0
  0
VERTEX
  5
95C
  8
DARTH
 10
11.96469969675385
 20
9.121252385288791
 30
0.0
  0
VERTEX
  5
95D
  8
DARTH
 10
11.97435692915833
 20
9.11069529273561
 30
0.0
  0
VERTEX
  5
95E
  8
DARTH
 10
11.98339192262052
 20
9.100060799463499
 30
0.0
  0
VERTEX
  5
95F
  8
DARTH
 10
11.99170687238973
 20
9.089355217780168
 30
0.0
  0
VERTEX
  5
960
  8
DARTH
 10
11.99920397371527
 20
9.078584859993324
 30
0.0
  0
VERTEX
  5
961
  8
DARTH
 10
12.00461704442558
 20
9.069970226251606
 30
0.0
  0
VERTEX
  5
962
  8
DARTH
 10
12.00994028035942
 20
9.06085238769533
 30
0.0
  0
VERTEX
  5
963
  8
DARTH
 10
12.02022711851182
 20
9.041340692458586
 30
0.0
  0
VERTEX
  5
964
  8
DARTH
 10
12.02988422940068
 20
9.020516966922035
 30
0.0
  0
VERTEX
  5
965
  8
DARTH
 10
12.03873135425421
 20
8.998848403724626
 30
0.0
  0
VERTEX
  5
966
  8
DARTH
 10
12.04658823430063
 20
8.9768021955053
 30
0.0
  0
VERTEX
  5
967
  8
DARTH
 10
12.05327461076816
 20
8.954845534903004
 30
0.0
  0
VERTEX
  5
968
  8
DARTH
 10
12.05612252929366
 20
8.944046782657914
 30
0.0
  0
VERTEX
  5
969
  8
DARTH
 10
12.05861022488502
 20
8.933445614556682
 30
0.0
  0
VERTEX
  5
96A
  8
DARTH
 10
12.06071516519575
 20
8.923100429679181
 30
0.0
  0
VERTEX
  5
96B
  8
DARTH
 10
12.0624148178794
 20
8.91306962710528
 30
0.0
  0
VERTEX
  5
96C
  8
DARTH
 10
12.06444596991144
 20
8.897713382205723
 30
0.0
  0
VERTEX
  5
96D
  8
DARTH
 10
12.06600974664515
 20
8.881722659470565
 30
0.0
  0
VERTEX
  5
96E
  8
DARTH
 10
12.06711707880021
 20
8.865191331314414
 30
0.0
  0
VERTEX
  5
96F
  8
DARTH
 10
12.06777889709632
 20
8.848213270151877
 30
0.0
  0
VERTEX
  5
970
  8
DARTH
 10
12.0680061322532
 20
8.830882348397566
 30
0.0
  0
VERTEX
  5
971
  8
DARTH
 10
12.06780971499054
 20
8.813292438466087
 30
0.0
  0
VERTEX
  5
972
  8
DARTH
 10
12.06720057602804
 20
8.795537412772052
 30
0.0
  0
VERTEX
  5
973
  8
DARTH
 10
12.0661896460854
 20
8.777711143730066
 30
0.0
  0
VERTEX
  5
974
  8
DARTH
 10
12.06478785588232
 20
8.759907503754741
 30
0.0
  0
VERTEX
  5
975
  8
DARTH
 10
12.0630061361385
 20
8.742220365260684
 30
0.0
  0
VERTEX
  5
976
  8
DARTH
 10
12.06085541757365
 20
8.724743600662505
 30
0.0
  0
VERTEX
  5
977
  8
DARTH
 10
12.05834663090746
 20
8.70757108237481
 30
0.0
  0
VERTEX
  5
978
  8
DARTH
 10
12.05549070685964
 20
8.690796682812215
 30
0.0
  0
VERTEX
  5
979
  8
DARTH
 10
12.05229857614987
 20
8.674514274389319
 30
0.0
  0
VERTEX
  5
97A
  8
DARTH
 10
12.04878116949788
 20
8.658817729520736
 30
0.0
  0
VERTEX
  5
97B
  8
DARTH
 10
12.04494941762335
 20
8.643800920621075
 30
0.0
  0
VERTEX
  5
97C
  8
DARTH
 10
12.03989058436182
 20
8.627598816888682
 30
0.0
  0
VERTEX
  5
97D
  8
DARTH
 10
12.03346140921409
 20
8.610759723922627
 30
0.0
  0
VERTEX
  5
97E
  8
DARTH
 10
12.02590213319846
 20
8.593598559182265
 30
0.0
  0
VERTEX
  5
97F
  8
DARTH
 10
12.01745299733324
 20
8.576430240126948
 30
0.0
  0
VERTEX
  5
980
  8
DARTH
 10
12.00835424263673
 20
8.559569684216033
 30
0.0
  0
VERTEX
  5
981
  8
DARTH
 10
11.99884611012723
 20
8.543331808908867
 30
0.0
  0
VERTEX
  5
982
  8
DARTH
 10
11.98916884082304
 20
8.528031531664809
 30
0.0
  0
VERTEX
  5
983
  8
DARTH
 10
11.97956267574249
 20
8.513983769943206
 30
0.0
  0
VERTEX
  5
984
  8
DARTH
 10
11.97122364084665
 20
8.502784447640995
 30
0.0
  0
VERTEX
  5
985
  8
DARTH
 10
11.96228725514279
 20
8.491701473515295
 30
0.0
  0
VERTEX
  5
986
  8
DARTH
 10
11.95279792085054
 20
8.480724425949283
 30
0.0
  0
VERTEX
  5
987
  8
DARTH
 10
11.94280004018953
 20
8.469842883326141
 30
0.0
  0
VERTEX
  5
988
  8
DARTH
 10
11.93233801537939
 20
8.459046424029045
 30
0.0
  0
VERTEX
  5
989
  8
DARTH
 10
11.92145624863975
 20
8.448324626441176
 30
0.0
  0
VERTEX
  5
98A
  8
DARTH
 10
11.89861109825051
 20
8.427063329925828
 30
0.0
  0
VERTEX
  5
98B
  8
DARTH
 10
11.87461980677885
 20
8.40597562084553
 30
0.0
  0
VERTEX
  5
98C
  8
DARTH
 10
11.84983759198181
 20
8.384978126265715
 30
0.0
  0
VERTEX
  5
98D
  8
DARTH
 10
11.7993212634398
 20
8.342920288869257
 30
0.0
  0
VERTEX
  5
98E
  8
DARTH
 10
11.77429758520891
 20
8.321693200183475
 30
0.0
  0
VERTEX
  5
98F
  8
DARTH
 10
11.74990385468083
 20
8.300222834259902
 30
0.0
  0
VERTEX
  5
990
  8
DARTH
 10
11.72649528961261
 20
8.278425818163969
 30
0.0
  0
VERTEX
  5
991
  8
DARTH
 10
11.71527144967502
 20
8.267378762259312
 30
0.0
  0
VERTEX
  5
992
  8
DARTH
 10
11.70442710776128
 20
8.256218778961106
 30
0.0
  0
VERTEX
  5
993
  8
DARTH
 10
11.69400666609103
 20
8.244935446652523
 30
0.0
  0
VERTEX
  5
994
  8
DARTH
 10
11.68405452688391
 20
8.233518343716746
 30
0.0
  0
VERTEX
  5
995
  8
DARTH
 10
11.67461509235952
 20
8.221957048536952
 30
0.0
  0
VERTEX
  5
996
  8
DARTH
 10
11.66573276473752
 20
8.210241139496318
 30
0.0
  0
VERTEX
  5
997
  8
DARTH
 10
11.65745194623753
 20
8.198360194978026
 30
0.0
  0
VERTEX
  5
998
  8
DARTH
 10
11.64981703907917
 20
8.186303793365257
 30
0.0
  0
VERTEX
  5
999
  8
DARTH
 10
11.64287244548209
 20
8.174061513041186
 30
0.0
  0
VERTEX
  5
99A
  8
DARTH
 10
11.63666256766591
 20
8.161622932388992
 30
0.0
  0
VERTEX
  5
99B
  8
DARTH
 10
11.62717726494478
 20
8.139887177410866
 30
0.0
  0
VERTEX
  5
99C
  8
DARTH
 10
11.61855450184909
 20
8.117445482999711
 30
0.0
  0
VERTEX
  5
99D
  8
DARTH
 10
11.61075264794317
 20
8.094340576233904
 30
0.0
  0
VERTEX
  5
99E
  8
DARTH
 10
11.60373007279137
 20
8.070615184191826
 30
0.0
  0
VERTEX
  5
99F
  8
DARTH
 10
11.59744514595802
 20
8.046312033951855
 30
0.0
  0
VERTEX
  5
9A0
  8
DARTH
 10
11.59185623700747
 20
8.021473852592369
 30
0.0
  0
VERTEX
  5
9A1
  8
DARTH
 10
11.58692171550405
 20
7.996143367191745
 30
0.0
  0
VERTEX
  5
9A2
  8
DARTH
 10
11.5825999510121
 20
7.970363304828368
 30
0.0
  0
VERTEX
  5
9A3
  8
DARTH
 10
11.57884931309597
 20
7.944176392580611
 30
0.0
  0
VERTEX
  5
9A4
  8
DARTH
 10
11.57562817131998
 20
7.917625357526856
 30
0.0
  0
VERTEX
  5
9A5
  8
DARTH
 10
11.5728948952485
 20
7.890752926745481
 30
0.0
  0
VERTEX
  5
9A6
  8
DARTH
 10
11.57060785444584
 20
7.863601827314867
 30
0.0
  0
VERTEX
  5
9A7
  8
DARTH
 10
11.56872541847635
 20
7.836214786313391
 30
0.0
  0
VERTEX
  5
9A8
  8
DARTH
 10
11.56720595690437
 20
7.808634530819431
 30
0.0
  0
VERTEX
  5
9A9
  8
DARTH
 10
11.5650894352103
 20
7.753065284667579
 30
0.0
  0
VERTEX
  5
9AA
  8
DARTH
 10
11.56392524587834
 20
7.697235905486343
 30
0.0
  0
VERTEX
  5
9AB
  8
DARTH
 10
11.56338034542322
 20
7.641488209902755
 30
0.0
  0
VERTEX
  5
9AC
  8
DARTH
 10
11.56281623720232
 20
7.531605136036649
 30
0.0
  0
VERTEX
  5
9AD
  8
DARTH
 10
11.56213094246598
 20
7.478153391008195
 30
0.0
  0
VERTEX
  5
9AE
  8
DARTH
 10
11.56073276266534
 20
7.426150596085515
 30
0.0
  0
VERTEX
  5
9AF
  8
DARTH
 10
11.55966226477675
 20
7.400799372609788
 30
0.0
  0
VERTEX
  5
9B0
  8
DARTH
 10
11.5582886543151
 20
7.37593856789564
 30
0.0
  0
VERTEX
  5
9B1
  8
DARTH
 10
11.55657030084473
 20
7.351610909021454
 30
0.0
  0
VERTEX
  5
9B2
  8
DARTH
 10
11.55446557392998
 20
7.327859123065604
 30
0.0
  0
VERTEX
  5
9B3
  8
DARTH
 10
11.57649596122843
 20
7.320515660632784
 30
0.0
  0
VERTEX
  5
9B4
  8
DARTH
 10
11.58283348202294
 20
7.318041631051763
 30
0.0
  0
VERTEX
  5
9B5
  8
DARTH
 10
11.59244210638543
 20
7.313802621972102
 30
0.0
  0
VERTEX
  5
9B6
  8
DARTH
 10
11.61957424625178
 20
7.300953073776084
 30
0.0
  0
VERTEX
  5
9B7
  8
DARTH
 10
11.65409554170241
 20
7.28381383296317
 30
0.0
  0
VERTEX
  5
9B8
  8
DARTH
 10
11.69220915361222
 20
7.2642317164518
 30
0.0
  0
VERTEX
  5
9B9
  8
DARTH
 10
11.70338181297464
 20
7.258830744660711
 30
0.0
  0
VERTEX
  5
9BA
  8
DARTH
 10
11.71554289454204
 20
7.253535836590318
 30
0.0
  0
VERTEX
  5
9BB
  8
DARTH
 10
11.74116073203797
 20
7.24264260506884
 30
0.0
  0
VERTEX
  5
9BC
  8
DARTH
 10
11.75378269183959
 20
7.236733478346362
 30
0.0
  0
VERTEX
  5
9BD
  8
DARTH
 10
11.76572348159237
 20
7.230308808801798
 30
0.0
  0
VERTEX
  5
9BE
  8
DARTH
 10
11.77130800080561
 20
7.226854582460079
 30
0.0
  0
VERTEX
  5
9BF
  8
DARTH
 10
11.77656570323284
 20
7.223213194799452
 30
0.0
  0
VERTEX
  5
9C0
  8
DARTH
 10
11.78144441411613
 20
7.219365220615456
 30
0.0
  0
VERTEX
  5
9C1
  8
DARTH
 10
11.78589195869755
 20
7.21529123470363
 30
0.0
  0
VERTEX
  5
9C2
  8
DARTH
 10
11.7931739338351
 20
7.207623428830418
 30
0.0
  0
VERTEX
  5
9C3
  8
DARTH
 10
11.8003052448022
 20
7.199293131195784
 30
0.0
  0
VERTEX
  5
9C4
  8
DARTH
 10
11.80726399335946
 20
7.190370406213157
 30
0.0
  0
VERTEX
  5
9C5
  8
DARTH
 10
11.81402828126753
 20
7.180925318295968
 30
0.0
  0
VERTEX
  5
9C6
  8
DARTH
 10
11.82057621028701
 20
7.171027931857648
 30
0.0
  0
VERTEX
  5
9C7
  8
DARTH
 10
11.82688588217854
 20
7.160748311311625
 30
0.0
  0
VERTEX
  5
9C8
  8
DARTH
 10
11.83293539870274
 20
7.150156521071332
 30
0.0
  0
VERTEX
  5
9C9
  8
DARTH
 10
11.83870286162023
 20
7.139322625550197
 30
0.0
  0
VERTEX
  5
9CA
  8
DARTH
 10
11.84416637269163
 20
7.128316689161653
 30
0.0
  0
VERTEX
  5
9CB
  8
DARTH
 10
11.84930403367757
 20
7.117208776319129
 30
0.0
  0
VERTEX
  5
9CC
  8
DARTH
 10
11.85409394633868
 20
7.106068951436055
 30
0.0
  0
VERTEX
  5
9CD
  8
DARTH
 10
11.85851421243558
 20
7.094967278925862
 30
0.0
  0
VERTEX
  5
9CE
  8
DARTH
 10
11.86254293372888
 20
7.083973823201981
 30
0.0
  0
VERTEX
  5
9CF
  8
DARTH
 10
11.86615821197923
 20
7.073158648677841
 30
0.0
  0
VERTEX
  5
9D0
  8
DARTH
 10
11.86933814894723
 20
7.062591819766872
 30
0.0
  0
VERTEX
  5
9D1
  8
DARTH
 10
11.87206084639351
 20
7.052343400882508
 30
0.0
  0
VERTEX
  5
9D2
  8
DARTH
 10
11.87509347378237
 20
7.038654885845285
 30
0.0
  0
VERTEX
  5
9D3
  8
DARTH
 10
11.87760900715708
 20
7.024353092361782
 30
0.0
  0
VERTEX
  5
9D4
  8
DARTH
 10
11.87963071980908
 20
7.009523880712638
 30
0.0
  0
VERTEX
  5
9D5
  8
DARTH
 10
11.88118188502979
 20
6.994253111178491
 30
0.0
  0
VERTEX
  5
9D6
  8
DARTH
 10
11.88228577611068
 20
6.978626644039982
 30
0.0
  0
VERTEX
  5
9D7
  8
DARTH
 10
11.88296566634316
 20
6.962730339577748
 30
0.0
  0
VERTEX
  5
9D8
  8
DARTH
 10
11.88324482901869
 20
6.94665005807243
 30
0.0
  0
VERTEX
  5
9D9
  8
DARTH
 10
11.88314653742869
 20
6.930471659804666
 30
0.0
  0
VERTEX
  5
9DA
  8
DARTH
 10
11.88269406486462
 20
6.914281005055097
 30
0.0
  0
VERTEX
  5
9DB
  8
DARTH
 10
11.8819106846179
 20
6.89816395410436
 30
0.0
  0
VERTEX
  5
9DC
  8
DARTH
 10
11.8794442942423
 20
6.866494104721943
 30
0.0
  0
VERTEX
  5
9DD
  8
DARTH
 10
11.8759335526334
 20
6.836148993902528
 30
0.0
  0
VERTEX
  5
9DE
  8
DARTH
 10
11.87156464612272
 20
6.807815503891231
 30
0.0
  0
VERTEX
  5
9DF
  8
DARTH
 10
11.86765874499853
 20
6.789048602371773
 30
0.0
  0
VERTEX
  5
9E0
  8
DARTH
 10
11.86254024654155
 20
6.769897666236384
 30
0.0
  0
VERTEX
  5
9E1
  8
DARTH
 10
11.85637890047928
 20
6.750418203262116
 30
0.0
  0
VERTEX
  5
9E2
  8
DARTH
 10
11.84934445653924
 20
6.730665721226018
 30
0.0
  0
VERTEX
  5
9E3
  8
DARTH
 10
11.84160666444895
 20
6.71069572790514
 30
0.0
  0
VERTEX
  5
9E4
  8
DARTH
 10
11.83333527393591
 20
6.690563731076534
 30
0.0
  0
VERTEX
  5
9E5
  8
DARTH
 10
11.81587069655167
 20
6.650035758004331
 30
0.0
  0
VERTEX
  5
9E6
  8
DARTH
 10
11.79830872220664
 20
6.609525864225816
 30
0.0
  0
VERTEX
  5
9E7
  8
DARTH
 10
11.7899155854926
 20
6.589416466514317
 30
0.0
  0
VERTEX
  5
9E8
  8
DARTH
 10
11.78200734872091
 20
6.569478111957389
 30
0.0
  0
VERTEX
  5
9E9
  8
DARTH
 10
11.77475376161908
 20
6.549766308332084
 30
0.0
  0
VERTEX
  5
9EA
  8
DARTH
 10
11.76832457391462
 20
6.530336563415453
 30
0.0
  0
VERTEX
  5
9EB
  8
DARTH
 10
11.76288953533504
 20
6.511244384984545
 30
0.0
  0
VERTEX
  5
9EC
  8
DARTH
 10
11.75861839560786
 20
6.49254528081641
 30
0.0
  0
VERTEX
  5
9ED
  8
DARTH
 10
11.75371540405155
 20
6.465274741658789
 30
0.0
  0
VERTEX
  5
9EE
  8
DARTH
 10
11.74946420371383
 20
6.436905526778684
 30
0.0
  0
VERTEX
  5
9EF
  8
DARTH
 10
11.74582717076208
 20
6.407590190509738
 30
0.0
  0
VERTEX
  5
9F0
  8
DARTH
 10
11.74276668136368
 20
6.377481287185594
 30
0.0
  0
VERTEX
  5
9F1
  8
DARTH
 10
11.740245111686
 20
6.346731371139894
 30
0.0
  0
VERTEX
  5
9F2
  8
DARTH
 10
11.73822483789643
 20
6.315492996706282
 30
0.0
  0
VERTEX
  5
9F3
  8
DARTH
 10
11.73666823616234
 20
6.2839187182184
 30
0.0
  0
VERTEX
  5
9F4
  8
DARTH
 10
11.73553768265112
 20
6.252161090009892
 30
0.0
  0
VERTEX
  5
9F5
  8
DARTH
 10
11.73479555353014
 20
6.2203726664144
 30
0.0
  0
VERTEX
  5
9F6
  8
DARTH
 10
11.73440422496679
 20
6.188706001765569
 30
0.0
  0
VERTEX
  5
9F7
  8
DARTH
 10
11.73452347418246
 20
6.126348166642456
 30
0.0
  0
VERTEX
  5
9F8
  8
DARTH
 10
11.73559443963717
 20
6.066308019309698
 30
0.0
  0
VERTEX
  5
9F9
  8
DARTH
 10
11.73731613066994
 20
6.009805994436437
 30
0.0
  0
VERTEX
  5
9FA
  8
DARTH
 10
11.7385698335754
 20
5.987754645551377
 30
0.0
  0
VERTEX
  5
9FB
  8
DARTH
 10
11.74066614654019
 20
5.964434034030782
 30
0.0
  0
VERTEX
  5
9FC
  8
DARTH
 10
11.74339486305514
 20
5.940272612408092
 30
0.0
  0
VERTEX
  5
9FD
  8
DARTH
 10
11.74654577661109
 20
5.915698833216751
 30
0.0
  0
VERTEX
  5
9FE
  8
DARTH
 10
11.75327336880932
 20
5.867028012261891
 30
0.0
  0
VERTEX
  5
9FF
  8
DARTH
 10
11.75916727106155
 20
5.821849191433747
 30
0.0
  0
VERTEX
  5
A00
  8
DARTH
 10
11.76206430463572
 20
5.799817998809
 30
0.0
  0
VERTEX
  5
A01
  8
DARTH
 10
11.7661559710652
 20
5.772973467460177
 30
0.0
  0
VERTEX
  5
A02
  8
DARTH
 10
11.7713033154691
 20
5.74204003124645
 30
0.0
  0
VERTEX
  5
A03
  8
DARTH
 10
11.77736738296654
 20
5.707742124026991
 30
0.0
  0
VERTEX
  5
A04
  8
DARTH
 10
11.79168986771845
 20
5.631950632007567
 30
0.0
  0
VERTEX
  5
A05
  8
DARTH
 10
11.80801178627381
 20
5.551394462275282
 30
0.0
  0
VERTEX
  5
A06
  8
DARTH
 10
11.82522149958552
 20
5.471869085703515
 30
0.0
  0
VERTEX
  5
A07
  8
DARTH
 10
11.83381189207278
 20
5.434304029500757
 30
0.0
  0
VERTEX
  5
A08
  8
DARTH
 10
11.84220736860645
 20
5.399169973165643
 30
0.0
  0
VERTEX
  5
A09
  8
DARTH
 10
11.85026897430566
 20
5.367191350557349
 30
0.0
  0
VERTEX
  5
A0A
  8
DARTH
 10
11.8578577542895
 20
5.339092595535043
 30
0.0
  0
VERTEX
  5
A0B
  8
DARTH
 10
11.86483475367709
 20
5.315598141957901
 30
0.0
  0
VERTEX
  5
A0C
  8
DARTH
 10
11.87106101758754
 20
5.297432423685093
 30
0.0
  0
VERTEX
  5
A0D
  8
DARTH
 10
11.87730148401515
 20
5.282358408832187
 30
0.0
  0
VERTEX
  5
A0E
  8
DARTH
 10
11.88574791872734
 20
5.263955899992316
 30
0.0
  0
VERTEX
  5
A0F
  8
DARTH
 10
11.89609215052935
 20
5.242746003496747
 30
0.0
  0
VERTEX
  5
A10
  8
DARTH
 10
11.90802600822642
 20
5.219249825676744
 30
0.0
  0
VERTEX
  5
A11
  8
DARTH
 10
11.93542991652663
 20
5.167483051388504
 30
0.0
  0
VERTEX
  5
A12
  8
DARTH
 10
11.9654942740698
 20
5.112824427777724
 30
0.0
  0
VERTEX
  5
A13
  8
DARTH
 10
11.99575371129778
 20
5.059442805494532
 30
0.0
  0
VERTEX
  5
A14
  8
DARTH
 10
12.02374285865241
 20
5.011507035189057
 30
0.0
  0
VERTEX
  5
A15
  8
DARTH
 10
12.04699634657553
 20
4.973185967511426
 30
0.0
  0
VERTEX
  5
A16
  8
DARTH
 10
12.05607679026334
 20
4.958933712986216
 30
0.0
  0
SEQEND
  5
FCC
  8
DARTH
  0
POLYLINE
  5
9A
  8
DARTH
 66
     1
 10
0.0
 20
0.0
 30
0.0
 70
     1
  0
VERTEX
  5
A17
  8
DARTH
 10
14.61386307675973
 20
6.040611704406067
 30
0.0
 42
0.0197925980648092
  0
VERTEX
  5
A18
  8
DARTH
 10
13.52569861617729
 20
9.008120044402972
 30
0.0
 42
0.0080031872392151
  0
VERTEX
  5
A19
  8
DARTH
 10
12.70593390107653
 20
10.90953864769394
 30
0.0
 42
0.0695082936108024
  0
VERTEX
  5
A1A
  8
DARTH
 10
12.14166854803844
 20
11.80586023228332
 30
0.0
 42
0.0671059128454514
  0
VERTEX
  5
A1B
  8
DARTH
 10
11.44305408692375
 20
12.43882845588791
 30
0.0
 42
0.103746228757112
  0
VERTEX
  5
A1C
  8
DARTH
 10
10.37407189203445
 20
12.88497031861855
 30
0.0
  0
VERTEX
  5
A1D
  8
DARTH
 10
10.23310283502641
 20
12.91040267075711
 30
0.0
  0
VERTEX
  5
A1E
  8
DARTH
 10
10.19770844243519
 20
12.91489581668133
 30
0.0
  0
VERTEX
  5
A1F
  8
DARTH
 10
10.1964472357732
 20
12.91494893213117
 30
0.0
  0
VERTEX
  5
A20
  8
DARTH
 10
9.71924152814627
 20
12.91494893213117
 30
0.0
  0
VERTEX
  5
A21
  8
DARTH
 10
9.717716484723182
 20
12.91487120550213
 30
0.0
 42
0.0604489395994821
  0
VERTEX
  5
A22
  8
DARTH
 10
9.409888747027377
 20
12.84519521873879
 30
0.0
 42
0.0383434768366585
  0
VERTEX
  5
A23
  8
DARTH
 10
8.334189037380145
 20
12.36482135082237
 30
0.0
 42
0.2800048988780384
  0
VERTEX
  5
A24
  8
DARTH
 10
8.326338635789167
 20
12.35136503924155
 30
0.0
  0
VERTEX
  5
A25
  8
DARTH
 10
8.336685919201908
 20
11.77345959682261
 30
0.0
  0
VERTEX
  5
A26
  8
DARTH
 10
8.349800691566795
 20
11.75748953477379
 30
0.0
  0
VERTEX
  5
A27
  8
DARTH
 10
8.355621841508125
 20
11.75266620567916
 30
0.0
 42
0.358960314041101
  0
VERTEX
  5
A28
  8
DARTH
 10
8.374608905976242
 20
11.75079329366693
 30
0.0
 42
-0.0423115373905015
  0
VERTEX
  5
A29
  8
DARTH
 10
9.099454050892481
 20
12.15279781557355
 30
0.0
 42
-0.0692620509948
  0
VERTEX
  5
A2A
  8
DARTH
 10
9.58314892753236
 20
12.29372048335755
 30
0.0
  0
VERTEX
  5
A2B
  8
DARTH
 10
10.02667633627247
 20
12.31431712031898
 30
0.0
 42
-0.0497234524344603
  0
VERTEX
  5
A2C
  8
DARTH
 10
10.32822571148652
 20
12.26468121059263
 30
0.0
 42
-0.0641122273359444
  0
VERTEX
  5
A2D
  8
DARTH
 10
10.98111573180488
 20
11.99588385536077
 30
0.0
 42
-0.0715484637977261
  0
VERTEX
  5
A2E
  8
DARTH
 10
11.67275177176004
 20
11.45748438406191
 30
0.0
 42
-0.063866105120942
  0
VERTEX
  5
A2F
  8
DARTH
 10
12.64803699525417
 20
10.14463374386289
 30
0.0
 42
-0.0169108997810364
  0
VERTEX
  5
A30
  8
DARTH
 10
12.93614427024514
 20
9.587903612883276
 30
0.0
 42
-0.0193079814388355
  0
VERTEX
  5
A31
  8
DARTH
 10
13.15244728061047
 20
9.083512935604308
 30
0.0
  0
VERTEX
  5
A32
  8
DARTH
 10
13.27075879360793
 20
8.766917103564303
 30
0.0
  0
VERTEX
  5
A33
  8
DARTH
 10
13.55017387007497
 20
7.989691930924262
 30
0.0
  0
VERTEX
  5
A34
  8
DARTH
 10
14.04356487235778
 20
6.585276274178801
 30
0.0
  0
VERTEX
  5
A35
  8
DARTH
 10
14.1186499376811
 20
6.352585220865516
 30
0.0
  0
VERTEX
  5
A36
  8
DARTH
 10
14.12632507645568
 20
6.306158713902036
 30
0.0
 42
0.1462074692494338
  0
VERTEX
  5
A37
  8
DARTH
 10
14.1454663957787
 20
6.249903996899581
 30
0.0
 42
0.1092474634475256
  0
VERTEX
  5
A38
  8
DARTH
 10
14.18729515649527
 20
6.212104993732712
 30
0.0
 42
-0.0798182707042835
  0
VERTEX
  5
A39
  8
DARTH
 10
14.25583413452928
 20
6.157075714604639
 30
0.0
 42
-0.0336101479549139
  0
VERTEX
  5
A3A
  8
DARTH
 10
14.3654455916906
 20
6.018095211998123
 30
0.0
 42
-0.0102196980055846
  0
VERTEX
  5
A3B
  8
DARTH
 10
14.68750921746332
 20
5.526701547411641
 30
0.0
 42
0.7866402073293965
  0
VERTEX
  5
A3C
  8
DARTH
 10
14.71516693010172
 20
5.535928940989462
 30
0.0
 42
0.0569578247137795
  0
SEQEND
  5
FCD
  8
DARTH
  0
POLYLINE
  5
9B
  8
DARTH
 66
     1
 10
0.0
 20
0.0
 30
0.0
 70
     1
  0
VERTEX
  5
A3D
  8
DARTH
 10
2.415368643056373
 20
11.04373822275944
 30
0.0
 42
0.0228059297546995
  0
VERTEX
  5
A3E
  8
DARTH
 10
2.290619958567976
 20
10.80709785166562
 30
0.0
 42
0.0035460116245486
  0
VERTEX
  5
A3F
  8
DARTH
 10
1.573544878623125
 20
9.253596509050709
 30
0.0
 42
0.0136834038582306
  0
VERTEX
  5
A40
  8
DARTH
 10
0.6673048677370736
 20
7.098069343992305
 30
0.0
 42
0.02933672724978
  0
VERTEX
  5
A41
  8
DARTH
 10
0.3319056334913483
 20
6.058069541886885
 30
0.0
  0
VERTEX
  5
A42
  8
DARTH
 10
0.2922082654683759
 20
5.876091075951042
 30
0.0
  0
VERTEX
  5
A43
  8
DARTH
 10
0.284789132398101
 20
5.792447467642085
 30
0.0
 42
0.7182809800142982
  0
VERTEX
  5
A44
  8
DARTH
 10
0.3117238194220635
 20
5.783350684929583
 30
0.0
  0
VERTEX
  5
A45
  8
DARTH
 10
0.4576133111800499
 20
5.983751257285128
 30
0.0
 42
-0.0321983214642009
  0
VERTEX
  5
A46
  8
DARTH
 10
0.610363717100649
 20
6.175694450183395
 30
0.0
 42
-0.0555515010627073
  0
VERTEX
  5
A47
  8
DARTH
 10
0.7612259050291801
 20
6.308881281254449
 30
0.0
 42
0.0916878034360246
  0
VERTEX
  5
A48
  8
DARTH
 10
0.8421920434462475
 20
6.39143840353843
 30
0.0
  0
VERTEX
  5
A49
  8
DARTH
 10
0.843772746246215
 20
6.394489435038774
 30
0.0
  0
VERTEX
  5
A4A
  8
DARTH
 10
1.097513560995519
 20
7.062078840790308
 30
0.0
 42
-0.0051132857810344
  0
VERTEX
  5
A4B
  8
DARTH
 10
1.967173007589726
 20
9.243286628586535
 30
0.0
 42
-0.0354902913153984
  0
VERTEX
  5
A4C
  8
DARTH
 10
2.538374336330134
 20
10.39454157901638
 30
0.0
 42
-0.0743133945140483
  0
VERTEX
  5
A4D
  8
DARTH
 10
3.479791253631919
 20
11.55901324950706
 30
0.0
 42
-0.1444154903030041
  0
VERTEX
  5
A4E
  8
DARTH
 10
4.890618235125994
 20
12.25050515396837
 30
0.0
 42
-0.1222674275213228
  0
VERTEX
  5
A4F
  8
DARTH
 10
6.128079890873043
 20
12.15820233089598
 30
0.0
 42
-0.0414995095912077
  0
VERTEX
  5
A50
  8
DARTH
 10
6.899669978994817
 20
11.83131409980126
 30
0.0
  0
VERTEX
  5
A51
  8
DARTH
 10
6.999291477151081
 20
11.77734193816057
 30
0.0
  0
VERTEX
  5
A52
  8
DARTH
 10
7.098896824546709
 20
11.72227205581179
 30
0.0
 42
0.4099669488701161
  0
VERTEX
  5
A53
  8
DARTH
 10
7.119150632946888
 20
11.72803826882895
 30
0.0
 42
0.1276207297152574
  0
VERTEX
  5
A54
  8
DARTH
 10
7.149048888734939
 20
11.83978528169085
 30
0.0
 42
-0.0203264410216884
  0
VERTEX
  5
A55
  8
DARTH
 10
7.169740813034721
 20
12.26867533312091
 30
0.0
  0
VERTEX
  5
A56
  8
DARTH
 10
7.174839084494385
 20
12.3196709624026
 30
0.0
  0
VERTEX
  5
A57
  8
DARTH
 10
7.180350009669667
 20
12.3710576734712
 30
0.0
 42
0.3159432476584859
  0
VERTEX
  5
A58
  8
DARTH
 10
7.17195383663659
 20
12.38611047892455
 30
0.0
 42
0.0165025141823368
  0
VERTEX
  5
A59
  8
DARTH
 10
5.938443914227491
 20
12.93246938393875
 30
0.0
 42
0.0354518877022336
  0
VERTEX
  5
A5A
  8
DARTH
 10
5.542436140019124
 20
13.06066911008746
 30
0.0
 42
0.0442723368538733
  0
VERTEX
  5
A5B
  8
DARTH
 10
5.22157784317544
 20
13.11038434135233
 30
0.0
 42
0.0724530877907257
  0
VERTEX
  5
A5C
  8
DARTH
 10
4.838567821881028
 20
13.07990226468872
 30
0.0
 42
0.0740319034171973
  0
VERTEX
  5
A5D
  8
DARTH
 10
4.268076685137769
 20
12.85740432955529
 30
0.0
 42
0.0801588402475286
  0
VERTEX
  5
A5E
  8
DARTH
 10
3.056227919918189
 20
11.87815915771823
 30
0.0
 42
0.024762413246828
  0
VERTEX
  5
A5F
  8
DARTH
 10
2.569736256819304
 20
11.27860900036626
 30
0.0
 42
0.0253575511351034
  0
SEQEND
  5
FCE
  8
DARTH
  0
POLYLINE
  5
9C
  8
DARTH
 66
     1
 10
0.0
 20
0.0
 30
0.0
 70
     1
  0
VERTEX
  5
A60
  8
DARTH
 10
7.334213221415443
 20
8.13958534937662
 30
0.0
  0
VERTEX
  5
A61
  8
DARTH
 10
8.330843957626536
 20
8.140297130930561
 30
0.0
  0
VERTEX
  5
A62
  8
DARTH
 10
8.333778313245686
 20
8.291234565825517
 30
0.0
  0
VERTEX
  5
A63
  8
DARTH
 10
8.31855289650418
 20
8.66234622786077
 30
0.0
 42
0.9109039330944881
  0
VERTEX
  5
A64
  8
DARTH
 10
7.341506737229761
 20
8.616004637434413
 30
0.0
  0
SEQEND
  5
FCF
  8
DARTH
  0
POLYLINE
  5
9D
  8
DARTH
 66
     1
 10
0.0
 20
0.0
 30
0.0
 70
     1
  0
VERTEX
  5
A65
  8
DARTH
 10
8.427222638082881
 20
9.005434411795134
 30
0.0
  0
VERTEX
  5
A66
  8
DARTH
 10
8.445815333859787
 20
9.005434411795134
 30
0.0
  0
VERTEX
  5
A67
  8
DARTH
 10
8.433634879380492
 20
9.065706660324144
 30
0.0
  0
VERTEX
  5
A68
  8
DARTH
 10
8.426625087089068
 20
9.103010980492428
 30
0.0
  0
VERTEX
  5
A69
  8
DARTH
 10
8.416543208895188
 20
9.160026933863533
 30
0.0
  0
VERTEX
  5
A6A
  8
DARTH
 10
8.404737180401327
 20
9.228995917291469
 30
0.0
  0
VERTEX
  5
A6B
  8
DARTH
 10
8.392554937209958
 20
9.302159327630262
 30
0.0
  0
VERTEX
  5
A6C
  8
DARTH
 10
8.36365544951872
 20
9.478339746407366
 30
0.0
  0
VERTEX
  5
A6D
  8
DARTH
 10
8.360690286994977
 20
9.682338126044014
 30
0.0
  0
VERTEX
  5
A6E
  8
DARTH
 10
8.360373165479043
 20
9.725020404205297
 30
0.0
  0
VERTEX
  5
A6F
  8
DARTH
 10
8.360615725044385
 20
9.768131904809527
 30
0.0
  0
VERTEX
  5
A70
  8
DARTH
 10
8.361374157549145
 20
9.810493624437465
 30
0.0
  0
VERTEX
  5
A71
  8
DARTH
 10
8.362604654851474
 20
9.85092655966987
 30
0.0
  0
VERTEX
  5
A72
  8
DARTH
 10
8.364263408809512
 20
9.888251707087498
 30
0.0
  0
VERTEX
  5
A73
  8
DARTH
 10
8.36630661128141
 20
9.921290063271107
 30
0.0
  0
VERTEX
  5
A74
  8
DARTH
 10
8.36869045412531
 20
9.948862624801452
 30
0.0
  0
VERTEX
  5
A75
  8
DARTH
 10
8.369996425642436
 20
9.960230794003138
 30
0.0
  0
VERTEX
  5
A76
  8
DARTH
 10
8.371371129199364
 20
9.969790388259293
 30
0.0
  0
VERTEX
  5
A77
  8
DARTH
 10
8.385017133927494
 20
10.05324427083792
 30
0.0
 42
0.4148200656647266
  0
VERTEX
  5
A78
  8
DARTH
 10
7.246076266345018
 20
10.03469896359823
 30
0.0
  0
VERTEX
  5
A79
  8
DARTH
 10
7.256902156080073
 20
9.459794439167672
 30
0.0
  0
VERTEX
  5
A7A
  8
DARTH
 10
7.229199605595944
 20
9.327398943989405
 30
0.0
  0
VERTEX
  5
A7B
  8
DARTH
 10
7.222840907928966
 20
9.299247427511204
 30
0.0
  0
VERTEX
  5
A7C
  8
DARTH
 10
7.215374217884364
 20
9.26997650536308
 30
0.0
  0
VERTEX
  5
A7D
  8
DARTH
 10
7.207072686784578
 20
9.240441905833187
 30
0.0
  0
VERTEX
  5
A7E
  8
DARTH
 10
7.198209465952051
 20
9.21149935720969
 30
0.0
  0
VERTEX
  5
A7F
  8
DARTH
 10
7.189057706709225
 20
9.184004587780745
 30
0.0
  0
VERTEX
  5
A80
  8
DARTH
 10
7.179890560378544
 20
9.158813325834515
 30
0.0
  0
VERTEX
  5
A81
  8
DARTH
 10
7.170981178282448
 20
9.136781299659157
 30
0.0
  0
VERTEX
  5
A82
  8
DARTH
 10
7.166708508610633
 20
9.127217415075606
 30
0.0
  0
VERTEX
  5
A83
  8
DARTH
 10
7.16260271174338
 20
9.118764237542832
 30
0.0
  0
VERTEX
  5
A84
  8
DARTH
 10
7.154967632140951
 20
9.103449388169892
 30
0.0
  0
VERTEX
  5
A85
  8
DARTH
 10
7.148188818346517
 20
9.089161981292559
 30
0.0
  0
VERTEX
  5
A86
  8
DARTH
 10
7.14239003292013
 20
9.076214716800802
 30
0.0
  0
VERTEX
  5
A87
  8
DARTH
 10
7.137695038421848
 20
9.064920294584589
 30
0.0
  0
VERTEX
  5
A88
  8
DARTH
 10
7.134227597411724
 20
9.055591414533886
 30
0.0
  0
VERTEX
  5
A89
  8
DARTH
 10
7.132111472449814
 20
9.048540776538664
 30
0.0
  0
VERTEX
  5
A8A
  8
DARTH
 10
7.131470426096174
 20
9.044081080488887
 30
0.0
  0
VERTEX
  5
A8B
  8
DARTH
 10
7.131741733197472
 20
9.042920554409154
 30
0.0
  0
VERTEX
  5
A8C
  8
DARTH
 10
7.132428220910858
 20
9.042525026274523
 30
0.0
 42
-0.331960715184027
  0
SEQEND
  5
FD0
  8
DARTH
  0
POLYLINE
  5
9E
  8
DARTH
 66
     1
 10
0.0
 20
0.0
 30
0.0
 70
     1
  0
VERTEX
  5
A8D
  8
DARTH
 10
9.071719453199508
 20
8.481633877432309
 30
0.0
  0
VERTEX
  5
A8E
  8
DARTH
 10
9.375023579781983
 20
8.170895586008841
 30
0.0
  0
VERTEX
  5
A8F
  8
DARTH
 10
9.389029556593353
 20
8.170895586008841
 30
0.0
  0
VERTEX
  5
A90
  8
DARTH
 10
9.39050583941286
 20
8.171063958472946
 30
0.0
  0
VERTEX
  5
A91
  8
DARTH
 10
9.392037905031607
 20
8.171557983091157
 30
0.0
  0
VERTEX
  5
A92
  8
DARTH
 10
9.395221083932263
 20
8.173456432145262
 30
0.0
  0
VERTEX
  5
A93
  8
DARTH
 10
9.398482491826211
 20
8.176457819881879
 30
0.0
  0
VERTEX
  5
A94
  8
DARTH
 10
9.401725527244345
 20
8.180429033011748
 30
0.0
  0
VERTEX
  5
A95
  8
DARTH
 10
9.404853588717549
 20
8.185236958245593
 30
0.0
  0
VERTEX
  5
A96
  8
DARTH
 10
9.407770074776716
 20
8.190748482294147
 30
0.0
  0
VERTEX
  5
A97
  8
DARTH
 10
9.410378383952734
 20
8.196830491868143
 30
0.0
  0
VERTEX
  5
A98
  8
DARTH
 10
9.412581914776492
 20
8.203349873678308
 30
0.0
  0
VERTEX
  5
A99
  8
DARTH
 10
9.422128296148259
 20
8.235804161347776
 30
0.0
  0
VERTEX
  5
A9A
  8
DARTH
 10
9.481038820153309
 20
8.680891535100464
 30
0.0
  0
VERTEX
  5
A9B
  8
DARTH
 10
9.502789500393714
 20
8.803568923575494
 30
0.0
  0
VERTEX
  5
A9C
  8
DARTH
 10
9.837038107485377
 20
8.796222100267464
 30
0.0
  0
VERTEX
  5
A9D
  8
DARTH
 10
9.880176062827402
 20
8.896191929221375
 30
0.0
  0
VERTEX
  5
A9E
  8
DARTH
 10
9.896984490164758
 20
8.936688998669826
 30
0.0
  0
VERTEX
  5
A9F
  8
DARTH
 10
9.90437923770522
 20
8.955636079390597
 30
0.0
  0
VERTEX
  5
AA0
  8
DARTH
 10
9.910861024095942
 20
8.973052332769353
 30
0.0
  0
VERTEX
  5
AA1
  8
DARTH
 10
9.916249861538724
 20
8.988440365301312
 30
0.0
  0
VERTEX
  5
AA2
  8
DARTH
 10
9.92036576223537
 20
9.001302783481687
 30
0.0
  0
VERTEX
  5
AA3
  8
DARTH
 10
9.923028738387682
 20
9.011142193805702
 30
0.0
  0
VERTEX
  5
AA4
  8
DARTH
 10
9.924058802197463
 20
9.017461202768567
 30
0.0
  0
VERTEX
  5
AA5
  8
DARTH
 10
9.924803586225496
 20
9.038760647361844
 30
0.0
 42
0.216565144406191
  0
VERTEX
  5
AA6
  8
DARTH
 10
8.570996157727734
 20
8.949173666296655
 30
0.0
  0
VERTEX
  5
AA7
  8
DARTH
 10
8.570996157727734
 20
8.923986280731771
 30
0.0
  0
VERTEX
  5
AA8
  8
DARTH
 10
8.571240558453809
 20
8.917704662637824
 30
0.0
  0
VERTEX
  5
AA9
  8
DARTH
 10
8.57194101795103
 20
8.909482190063926
 30
0.0
  0
VERTEX
  5
AAA
  8
DARTH
 10
8.574513657172872
 20
8.888610192450868
 30
0.0
  0
VERTEX
  5
AAB
  8
DARTH
 10
8.5783211632212
 20
8.86416130984176
 30
0.0
  0
VERTEX
  5
AAC
  8
DARTH
 10
8.582970623923954
 20
8.838926564185773
 30
0.0
  0
VERTEX
  5
AAD
  8
DARTH
 10
8.594945090120177
 20
8.779054233204663
 30
0.0
  0
VERTEX
  5
AAE
  8
DARTH
 10
9.071719453199508
 20
8.805573080957547
 30
0.0
  0
SEQEND
  5
FD1
  8
DARTH
  0
POLYLINE
  5
9F
  8
DARTH
 66
     1
 10
0.0
 20
0.0
 30
0.0
 70
     1
  0
VERTEX
  5
AAF
  8
DARTH
 10
5.470660013719183
 20
6.425241881921347
 30
0.0
 42
0.4142135623730951
  0
VERTEX
  5
AB0
  8
DARTH
 10
5.1523351678315
 20
6.106917036033664
 30
0.0
 42
0.4142135623730951
  0
VERTEX
  5
AB1
  8
DARTH
 10
5.470660013719183
 20
5.788592190145981
 30
0.0
 42
0.4142135623730951
  0
VERTEX
  5
AB2
  8
DARTH
 10
5.788984859606866
 20
6.106917036033664
 30
0.0
 42
0.4142135623730951
  0
SEQEND
  5
FD2
  8
DARTH
  0
POLYLINE
  5
A0
  8
DARTH
 66
     1
 10
0.0
 20
0.0
 30
0.0
 70
     1
  0
VERTEX
  5
AB3
  8
DARTH
 10
10.21663641927041
 20
6.227107299477114
 30
0.0
 42
0.4142135623730951
  0
VERTEX
  5
AB4
  8
DARTH
 10
9.903936864905454
 20
5.914407745112163
 30
0.0
 42
0.4142135623730951
  0
VERTEX
  5
AB5
  8
DARTH
 10
10.21663641927041
 20
5.601708190747212
 30
0.0
 42
0.4142135623730951
  0
VERTEX
  5
AB6
  8
DARTH
 10
10.52933597363536
 20
5.914407745112163
 30
0.0
 42
0.4142135623730951
  0
SEQEND
  5
FD3
  8
DARTH
  0
POLYLINE
  5
A1
  8
DARTH
 66
     1
 10
0.0
 20
0.0
 30
0.0
 70
     1
  0
VERTEX
  5
AB7
  8
DARTH
 10
9.339053423551263
 20
11.63657286802274
 30
0.0
  0
VERTEX
  5
AB8
  8
DARTH
 10
9.31297046276876
 20
11.63254464356999
 30
0.0
  0
VERTEX
  5
AB9
  8
DARTH
 10
9.287780180847335
 20
11.62801482285961
 30
0.0
  0
VERTEX
  5
ABA
  8
DARTH
 10
9.264147923384485
 20
11.62314338866123
 30
0.0
  0
VERTEX
  5
ABB
  8
DARTH
 10
9.242627718257523
 20
11.61806858157624
 30
0.0
  0
VERTEX
  5
ABC
  8
DARTH
 10
9.2237383227301
 20
11.61291220437861
 30
0.0
  0
VERTEX
  5
ABD
  8
DARTH
 10
9.207896435159412
 20
11.60774368038223
 30
0.0
  0
VERTEX
  5
ABE
  8
DARTH
 10
9.195134095825573
 20
11.60239280840713
 30
0.0
  0
VERTEX
  5
ABF
  8
DARTH
 10
9.18630976327178
 20
11.59663660383844
 30
0.0
  0
VERTEX
  5
AC0
  8
DARTH
 10
9.161611424582572
 20
11.57193826514905
 30
0.0
  0
VERTEX
  5
AC1
  8
DARTH
 10
9.227635149807295
 20
10.25599388554312
 30
0.0
  0
VERTEX
  5
AC2
  8
DARTH
 10
9.251561310110665
 20
10.05150112454248
 30
0.0
 42
0.3379057790974622
  0
VERTEX
  5
AC3
  8
DARTH
 10
9.264205012734982
 20
10.0384146898203
 30
0.0
  0
VERTEX
  5
AC4
  8
DARTH
 10
9.338587651863634
 20
10.02710566225197
 30
0.0
  0
VERTEX
  5
AC5
  8
DARTH
 10
9.376224542687225
 20
10.02246262936659
 30
0.0
  0
VERTEX
  5
AC6
  8
DARTH
 10
9.423047573871202
 20
10.01827313521159
 30
0.0
  0
VERTEX
  5
AC7
  8
DARTH
 10
9.47310686007313
 20
10.01498960167394
 30
0.0
  0
VERTEX
  5
AC8
  8
DARTH
 10
9.520489341943517
 20
10.01306553013299
 30
0.0
  0
VERTEX
  5
AC9
  8
DARTH
 10
9.626779714918886
 20
10.01043091580342
 30
0.0
 42
0.4707889452501103
  0
VERTEX
  5
ACA
  8
DARTH
 10
9.641949034776495
 20
10.02788194713356
 30
0.0
  0
VERTEX
  5
ACB
  8
DARTH
 10
9.625128730061927
 20
10.12924083107609
 30
0.0
  0
VERTEX
  5
ACC
  8
DARTH
 10
9.508872104512598
 20
11.61742153600583
 30
0.0
  0
VERTEX
  5
ACD
  8
DARTH
 10
9.473466017356163
 20
11.65560803979242
 30
0.0
  0
SEQEND
  5
FD4
  8
DARTH
  0
POLYLINE
  5
A2
  8
DARTH
 66
     1
 10
0.0
 20
0.0
 30
0.0
 70
     1
  0
VERTEX
  5
ACE
  8
DARTH
 10
6.610936493057086
 20
11.50976148537005
 30
0.0
  0
VERTEX
  5
ACF
  8
DARTH
 10
6.599811837701967
 20
11.50142081872098
 30
0.0
  0
VERTEX
  5
AD0
  8
DARTH
 10
6.593738897558612
 20
11.48748611814871
 30
0.0
  0
VERTEX
  5
AD1
  8
DARTH
 10
6.593738897559414
 20
11.47122107233565
 30
0.0
  0
VERTEX
  5
AD2
  8
DARTH
 10
6.604069152764552
 20
11.26172532134558
 30
0.0
  0
VERTEX
  5
AD3
  8
DARTH
 10
6.610133538710215
 20
11.15630545898262
 30
0.0
  0
VERTEX
  5
AD4
  8
DARTH
 10
6.619015056572309
 20
11.02398187315021
 30
0.0
  0
VERTEX
  5
AD5
  8
DARTH
 10
6.629519451928061
 20
10.88165775337757
 30
0.0
  0
VERTEX
  5
AD6
  8
DARTH
 10
6.640450104485126
 20
10.7462714258927
 30
0.0
  0
VERTEX
  5
AD7
  8
DARTH
 10
6.651523780560733
 20
10.60997958309041
 30
0.0
  0
VERTEX
  5
AD8
  8
DARTH
 10
6.662431951170848
 20
10.46504267637908
 30
0.0
  0
VERTEX
  5
AD9
  8
DARTH
 10
6.671922172350226
 20
10.32873995708629
 30
0.0
  0
VERTEX
  5
ADA
  8
DARTH
 10
6.678738301673572
 20
10.21839956639811
 30
0.0
  0
VERTEX
  5
ADB
  8
DARTH
 10
6.691428804089206
 20
9.98874095933041
 30
0.0
  0
VERTEX
  5
ADC
  8
DARTH
 10
6.704649887218359
 20
9.966059469525973
 30
0.0
  0
VERTEX
  5
ADD
  8
DARTH
 10
6.711655790304302
 20
9.958112198518585
 30
0.0
  0
VERTEX
  5
ADE
  8
DARTH
 10
6.720838243601072
 20
9.952008273039667
 30
0.0
  0
VERTEX
  5
ADF
  8
DARTH
 10
6.729659575799147
 20
9.947995271824226
 30
0.0
  0
VERTEX
  5
AE0
  8
DARTH
 10
6.739139950424814
 20
9.944884107860329
 30
0.0
  0
VERTEX
  5
AE1
  8
DARTH
 10
6.757589204217879
 20
9.941237520372201
 30
0.0
  0
VERTEX
  5
AE2
  8
DARTH
 10
6.778059133062612
 20
9.940006521747833
 30
0.0
  0
VERTEX
  5
AE3
  8
DARTH
 10
6.799450766799978
 20
9.94161737265825
 30
0.0
  0
VERTEX
  5
AE4
  8
DARTH
 10
6.820845675934166
 20
9.945644393745637
 30
0.0
  0
VERTEX
  5
AE5
  8
DARTH
 10
6.840386777573947
 20
9.951552669013878
 30
0.0
  0
VERTEX
  5
AE6
  8
DARTH
 10
6.85017124194232
 20
9.955660807057257
 30
0.0
  0
VERTEX
  5
AE7
  8
DARTH
 10
6.858121090475194
 20
9.95998138444763
 30
0.0
  0
VERTEX
  5
AE8
  8
DARTH
 10
6.88341771526616
 20
9.976021699326498
 30
0.0
 42
0.2943939912799162
  0
VERTEX
  5
AE9
  8
DARTH
 10
6.897060909997656
 20
10.00553010269565
 30
0.0
  0
VERTEX
  5
AEA
  8
DARTH
 10
6.876493289457883
 20
10.15197298735531
 30
0.0
  0
VERTEX
  5
AEB
  8
DARTH
 10
6.860850886862947
 20
10.26584840554669
 30
0.0
  0
VERTEX
  5
AEC
  8
DARTH
 10
6.859994256340978
 20
10.2725353526053
 30
0.0
  0
VERTEX
  5
AED
  8
DARTH
 10
7.073943040234663
 20
10.02489449892282
 30
0.0
 42
0.6821079362576252
  0
VERTEX
  5
AEE
  8
DARTH
 10
7.126626286944862
 20
10.04346965202432
 30
0.0
  0
VERTEX
  5
AEF
  8
DARTH
 10
7.137517360746802
 20
10.35820603206375
 30
0.0
  0
VERTEX
  5
AF0
  8
DARTH
 10
6.936256117307396
 20
10.67540521341552
 30
0.0
  0
VERTEX
  5
AF1
  8
DARTH
 10
7.141359078779709
 20
11.37025298133817
 30
0.0
 42
0.2747201786494895
  0
VERTEX
  5
AF2
  8
DARTH
 10
7.13379958058807
 20
11.39995921963094
 30
0.0
  0
VERTEX
  5
AF3
  8
DARTH
 10
7.122381830026747
 20
11.41137697019142
 30
0.0
  0
VERTEX
  5
AF4
  8
DARTH
 10
7.113785730055753
 20
11.41669197241941
 30
0.0
  0
VERTEX
  5
AF5
  8
DARTH
 10
7.10398286383311
 20
11.42032260633681
 30
0.0
  0
VERTEX
  5
AF6
  8
DARTH
 10
7.08483485441721
 20
11.42496837348591
 30
0.0
  0
VERTEX
  5
AF7
  8
DARTH
 10
7.06102403244617
 20
11.42885965303118
 30
0.0
  0
VERTEX
  5
AF8
  8
DARTH
 10
7.034753481196333
 20
11.43171462969064
 30
0.0
  0
VERTEX
  5
AF9
  8
DARTH
 10
6.971578286788473
 20
11.43694924317587
 30
0.0
 42
0.3489087299443904
  0
VERTEX
  5
AFA
  8
DARTH
 10
6.940537026706115
 20
11.4162222247279
 30
0.0
  0
VERTEX
  5
AFB
  8
DARTH
 10
6.868559727087491
 20
11.19203018532475
 30
0.0
  0
VERTEX
  5
AFC
  8
DARTH
 10
6.868352651059262
 20
11.19383531449706
 30
0.0
  0
VERTEX
  5
AFD
  8
DARTH
 10
6.864095873815796
 20
11.24272897819213
 30
0.0
  0
VERTEX
  5
AFE
  8
DARTH
 10
6.860943054348755
 20
11.29173495618942
 30
0.0
  0
VERTEX
  5
AFF
  8
DARTH
 10
6.859352359350073
 20
11.33477602375694
 30
0.0
  0
VERTEX
  5
B00
  8
DARTH
 10
6.857561139298139
 20
11.4382115133494
 30
0.0
  0
VERTEX
  5
B01
  8
DARTH
 10
6.796323160240094
 20
11.51783779492229
 30
0.0
  0
VERTEX
  5
B02
  8
DARTH
 10
6.702662183907421
 20
11.51928754540446
 30
0.0
  0
VERTEX
  5
B03
  8
DARTH
 10
6.670867574328042
 20
11.51901953429112
 30
0.0
  0
VERTEX
  5
B04
  8
DARTH
 10
6.644041382875315
 20
11.51730232130376
 30
0.0
  0
VERTEX
  5
B05
  8
DARTH
 10
6.632402134006554
 20
11.51582464970915
 30
0.0
  0
VERTEX
  5
B06
  8
DARTH
 10
6.621865105280982
 20
11.51371134786659
 30
0.0
  0
SEQEND
  5
FD5
  8
DARTH
  0
POLYLINE
  5
A3
  8
DARTH
 66
     1
 10
0.0
 20
0.0
 30
0.0
 70
     1
  0
VERTEX
  5
B07
  8
DARTH
 10
6.16849861174995
 20
9.935592901365709
 30
0.0
  0
VERTEX
  5
B08
  8
DARTH
 10
6.186315741510729
 20
9.885547274359801
 30
0.0
 42
0.3172348682485462
  0
VERTEX
  5
B09
  8
DARTH
 10
6.21457805690493
 20
9.86560915930051
 30
0.0
  0
VERTEX
  5
B0A
  8
DARTH
 10
6.362807051733046
 20
9.86560915930051
 30
0.0
 42
0.4060922993022163
  0
VERTEX
  5
B0B
  8
DARTH
 10
6.392795453939527
 20
9.894775053130374
 30
0.0
  0
VERTEX
  5
B0C
  8
DARTH
 10
6.399564255121361
 20
10.13813200164236
 30
0.0
  0
VERTEX
  5
B0D
  8
DARTH
 10
6.492482286478847
 20
9.920901583721374
 30
0.0
 42
0.3095994555884542
  0
VERTEX
  5
B0E
  8
DARTH
 10
6.521095332823744
 20
9.902717474197637
 30
0.0
  0
VERTEX
  5
B0F
  8
DARTH
 10
6.559819926061039
 20
9.904048312338713
 30
0.0
  0
VERTEX
  5
B10
  8
DARTH
 10
6.578910902561503
 20
9.905722632800007
 30
0.0
  0
VERTEX
  5
B11
  8
DARTH
 10
6.599676909592304
 20
9.909217484054977
 30
0.0
  0
VERTEX
  5
B12
  8
DARTH
 10
6.619776774176515
 20
9.914070459128531
 30
0.0
  0
VERTEX
  5
B13
  8
DARTH
 10
6.636755019651389
 20
9.91983038635609
 30
0.0
  0
VERTEX
  5
B14
  8
DARTH
 10
6.667926529654633
 20
9.932828612138021
 30
0.0
 42
0.3787854933545882
  0
VERTEX
  5
B15
  8
DARTH
 10
6.68527255353235
 20
9.96859517253425
 30
0.0
  0
VERTEX
  5
B16
  8
DARTH
 10
6.505385068716878
 20
10.61203336512379
 30
0.0
  0
VERTEX
  5
B17
  8
DARTH
 10
6.488854666368933
 20
10.7001479850868
 30
0.0
  0
VERTEX
  5
B18
  8
DARTH
 10
6.535750102500983
 20
10.7001479850868
 30
0.0
 42
0.4211141732694072
  0
VERTEX
  5
B19
  8
DARTH
 10
6.565741817335759
 20
10.73085299662449
 30
0.0
  0
VERTEX
  5
B1A
  8
DARTH
 10
6.547537464401873
 20
11.50527970140229
 30
0.0
  0
VERTEX
  5
B1B
  8
DARTH
 10
6.517254919145799
 20
11.53556224665612
 30
0.0
  0
VERTEX
  5
B1C
  8
DARTH
 10
6.506095438885311
 20
11.54303041730228
 30
0.0
  0
VERTEX
  5
B1D
  8
DARTH
 10
6.491231936152587
 20
11.54987955949255
 30
0.0
  0
VERTEX
  5
B1E
  8
DARTH
 10
6.473572270706029
 20
11.55663248947707
 30
0.0
  0
VERTEX
  5
B1F
  8
DARTH
 10
6.452605285945481
 20
11.56376461904247
 30
0.0
  0
VERTEX
  5
B20
  8
DARTH
 10
6.403168327850835
 20
11.57871301860881
 30
0.0
  0
VERTEX
  5
B21
  8
DARTH
 10
6.346756669077422
 20
11.59393516002734
 30
0.0
  0
VERTEX
  5
B22
  8
DARTH
 10
6.288534764312772
 20
11.60811789770491
 30
0.0
  0
VERTEX
  5
B23
  8
DARTH
 10
6.233498461738066
 20
11.61996995028549
 30
0.0
  0
VERTEX
  5
B24
  8
DARTH
 10
6.18673133150017
 20
11.62814677516047
 30
0.0
  0
VERTEX
  5
B25
  8
DARTH
 10
6.167125590320381
 20
11.6305234839698
 30
0.0
  0
VERTEX
  5
B26
  8
DARTH
 10
6.150424726910089
 20
11.63141304092723
 30
0.0
  0
VERTEX
  5
B27
  8
DARTH
 10
6.130230336024752
 20
11.62978570908435
 30
0.0
  0
VERTEX
  5
B28
  8
DARTH
 10
6.109606971499545
 20
11.62560418958782
 30
0.0
  0
VERTEX
  5
B29
  8
DARTH
 10
6.090554702815481
 20
11.61949794573086
 30
0.0
  0
VERTEX
  5
B2A
  8
DARTH
 10
6.080959589996084
 20
11.61531329332152
 30
0.0
  0
VERTEX
  5
B2B
  8
DARTH
 10
6.073092122616032
 20
11.61097018274088
 30
0.0
  0
VERTEX
  5
B2C
  8
DARTH
 10
6.046967640871088
 20
11.59442008825114
 30
0.0
 42
0.2791022252436034
  0
VERTEX
  5
B2D
  8
DARTH
 10
6.033124669964614
 20
11.56660227217753
 30
0.0
  0
VERTEX
  5
B2E
  8
DARTH
 10
6.074176159470881
 20
11.07075644863289
 30
0.0
  0
SEQEND
  5
FD6
  8
DARTH
  0
POLYLINE
  5
A4
  8
DARTH
 66
     1
 10
0.0
 20
0.0
 30
0.0
 70
     1
  0
VERTEX
  5
B2F
  8
DARTH
 10
10.64065823475767
 20
10.07786180686767
 30
0.0
  0
VERTEX
  5
B30
  8
DARTH
 10
10.69580525885056
 20
10.0799199948754
 30
0.0
  0
VERTEX
  5
B31
  8
DARTH
 10
10.83005580208169
 20
10.08719707913229
 30
0.0
  0
VERTEX
  5
B32
  8
DARTH
 10
10.94160058822496
 20
10.12559170651646
 30
0.0
  0
VERTEX
  5
B33
  8
DARTH
 10
10.96501467329782
 20
10.13408338804591
 30
0.0
  0
VERTEX
  5
B34
  8
DARTH
 10
10.98936330092204
 20
10.14370815585139
 30
0.0
  0
VERTEX
  5
B35
  8
DARTH
 10
11.01377686547994
 20
10.15407174283969
 30
0.0
  0
VERTEX
  5
B36
  8
DARTH
 10
11.0376335889911
 20
10.16487776328999
 30
0.0
  0
VERTEX
  5
B37
  8
DARTH
 10
11.06031232825731
 20
10.17583739357719
 30
0.0
  0
VERTEX
  5
B38
  8
DARTH
 10
11.08121488159914
 20
10.18668266740121
 30
0.0
  0
VERTEX
  5
B39
  8
DARTH
 10
11.09980920216031
 20
10.19720095521012
 30
0.0
  0
VERTEX
  5
B3A
  8
DARTH
 10
11.11506760435928
 20
10.20691612538847
 30
0.0
  0
VERTEX
  5
B3B
  8
DARTH
 10
11.19219808676496
 20
10.25991417328932
 30
0.0
  0
VERTEX
  5
B3C
  8
DARTH
 10
11.1932639190333
 20
10.28148985221427
 30
0.0
  0
VERTEX
  5
B3D
  8
DARTH
 10
11.1907978739186
 20
10.29357912893093
 30
0.0
  0
VERTEX
  5
B3E
  8
DARTH
 10
11.18307341636866
 20
10.32073001956593
 30
0.0
  0
VERTEX
  5
B3F
  8
DARTH
 10
11.17080084152221
 20
10.35853019426486
 30
0.0
  0
VERTEX
  5
B40
  8
DARTH
 10
11.15509190982038
 20
10.40352863857311
 30
0.0
  0
VERTEX
  5
B41
  8
DARTH
 10
11.11399049547511
 20
10.5177610164687
 30
0.0
 42
0.3163112709989158
  0
VERTEX
  5
B42
  8
DARTH
 10
11.08576212190839
 20
10.53760429821046
 30
0.0
  0
VERTEX
  5
B43
  8
DARTH
 10
10.91658142770689
 20
10.53760429821046
 30
0.0
  0
VERTEX
  5
B44
  8
DARTH
 10
10.91053730164192
 20
10.56168601459641
 30
0.0
  0
VERTEX
  5
B45
  8
DARTH
 10
10.90645273044374
 20
10.58031531990502
 30
0.0
  0
VERTEX
  5
B46
  8
DARTH
 10
10.90550973432389
 20
10.58681340188366
 30
0.0
  0
VERTEX
  5
B47
  8
DARTH
 10
10.90514245885674
 20
10.59206283510837
 30
0.0
  0
VERTEX
  5
B48
  8
DARTH
 10
10.9052545176208
 20
10.59578648209398
 30
0.0
  0
VERTEX
  5
B49
  8
DARTH
 10
10.90563018223458
 20
10.59814773076438
 30
0.0
  0
VERTEX
  5
B4A
  8
DARTH
 10
10.90608784261346
 20
10.59957678137836
 30
0.0
  0
VERTEX
  5
B4B
  8
DARTH
 10
10.90667860790214
 20
10.60072397759334
 30
0.0
  0
VERTEX
  5
B4C
  8
DARTH
 10
10.90777049214194
 20
10.60219629031858
 30
0.0
  0
VERTEX
  5
B4D
  8
DARTH
 10
10.90987254325962
 20
10.60430993305197
 30
0.0
  0
VERTEX
  5
B4E
  8
DARTH
 10
10.91338806710659
 20
10.60709229974854
 30
0.0
  0
VERTEX
  5
B4F
  8
DARTH
 10
10.91819672213789
 20
10.6102257615217
 30
0.0
  0
VERTEX
  5
B50
  8
DARTH
 10
10.93402874685122
 20
10.61852335897833
 30
0.0
  0
VERTEX
  5
B51
  8
DARTH
 10
10.95614956744974
 20
10.62819800530315
 30
0.0
  0
VERTEX
  5
B52
  8
DARTH
 10
11.01191190909877
 20
10.65129552348386
 30
0.0
 42
0.3033466836073077
  0
VERTEX
  5
B53
  8
DARTH
 10
11.03043140612783
 20
10.67901190945921
 30
0.0
  0
VERTEX
  5
B54
  8
DARTH
 10
11.03043140612823
 20
10.70557766285027
 30
0.0
  0
VERTEX
  5
B55
  8
DARTH
 10
11.02957031187623
 20
10.71496535143766
 30
0.0
  0
VERTEX
  5
B56
  8
DARTH
 10
11.02737023174978
 20
10.72648148358789
 30
0.0
  0
VERTEX
  5
B57
  8
DARTH
 10
11.02054679421927
 20
10.75215679191678
 30
0.0
  0
VERTEX
  5
B58
  8
DARTH
 10
11.01070837455197
 20
10.78242086429952
 30
0.0
  0
VERTEX
  5
B59
  8
DARTH
 10
10.99890243579145
 20
10.81397514735738
 30
0.0
  0
VERTEX
  5
B5A
  8
DARTH
 10
10.96926858056767
 20
10.88803744253249
 30
0.0
 42
0.2946379525970912
  0
VERTEX
  5
B5B
  8
DARTH
 10
10.94273695853493
 20
10.90686370380388
 30
0.0
  0
VERTEX
  5
B5C
  8
DARTH
 10
10.72180605659678
 20
10.91660531024701
 30
0.0
  0
VERTEX
  5
B5D
  8
DARTH
 10
10.71348491394681
 20
11.00332666890271
 30
0.0
  0
VERTEX
  5
B5E
  8
DARTH
 10
10.76668846873983
 20
11.0845255568694
 30
0.0
 42
0.2691784386395256
  0
VERTEX
  5
B5F
  8
DARTH
 10
10.76831855371447
 20
11.11460048725744
 30
0.0
  0
VERTEX
  5
B60
  8
DARTH
 10
10.73055526038388
 20
11.18862265729751
 30
0.0
  0
VERTEX
  5
B61
  8
DARTH
 10
10.72142102730649
 20
11.20553605913659
 30
0.0
  0
VERTEX
  5
B62
  8
DARTH
 10
10.71047909702821
 20
11.22412042671317
 30
0.0
  0
VERTEX
  5
B63
  8
DARTH
 10
10.68568240864442
 20
11.26248094567575
 30
0.0
  0
VERTEX
  5
B64
  8
DARTH
 10
10.65890691917028
 20
11.29981010188078
 30
0.0
  0
VERTEX
  5
B65
  8
DARTH
 10
10.64544408143041
 20
11.31704942535242
 30
0.0
  0
VERTEX
  5
B66
  8
DARTH
 10
10.63280255888242
 20
11.33210654397499
 30
0.0
  0
VERTEX
  5
B67
  8
DARTH
 10
10.57234694159381
 20
11.40096168813241
 30
0.0
  0
VERTEX
  5
B68
  8
DARTH
 10
10.47133835154557
 20
11.45129639214292
 30
0.0
  0
VERTEX
  5
B69
  8
DARTH
 10
10.45087723856022
 20
11.46112973561171
 30
0.0
  0
VERTEX
  5
B6A
  8
DARTH
 10
10.4300201732824
 20
11.47046496638058
 30
0.0
  0
VERTEX
  5
B6B
  8
DARTH
 10
10.39096559164892
 20
11.48609192810225
 30
0.0
  0
VERTEX
  5
B6C
  8
DARTH
 10
10.37285653062287
 20
11.49235997431802
 30
0.0
  0
VERTEX
  5
B6D
  8
DARTH
 10
10.35659218280708
 20
11.49722215101395
 30
0.0
  0
VERTEX
  5
B6E
  8
DARTH
 10
10.34183826194199
 20
11.50062040699914
 30
0.0
  0
VERTEX
  5
B6F
  8
DARTH
 10
10.32953856008487
 20
11.50196027467444
 30
0.0
  0
VERTEX
  5
B70
  8
DARTH
 10
10.29321028091011
 20
11.50196027467462
 30
0.0
 42
0.5032276164253283
  0
VERTEX
  5
B71
  8
DARTH
 10
10.2644984577913
 20
11.46326365388293
 30
0.0
  0
VERTEX
  5
B72
  8
DARTH
 10
10.27436523944522
 20
11.43068855415277
 30
0.0
  0
VERTEX
  5
B73
  8
DARTH
 10
10.33373833873202
 20
11.24045392410426
 30
0.0
  0
VERTEX
  5
B74
  8
DARTH
 10
10.38301831047424
 20
11.08351184171898
 30
0.0
  0
VERTEX
  5
B75
  8
DARTH
 10
10.5575742738406
 20
10.41142790974621
 30
0.0
  0
VERTEX
  5
B76
  8
DARTH
 10
10.49916465323753
 20
10.29544189453742
 30
0.0
  0
VERTEX
  5
B77
  8
DARTH
 10
10.47430613302402
 20
10.24466342117262
 30
0.0
  0
VERTEX
  5
B78
  8
DARTH
 10
10.45376198482957
 20
10.19997717327257
 30
0.0
  0
VERTEX
  5
B79
  8
DARTH
 10
10.43957677356776
 20
10.16592426980839
 30
0.0
  0
VERTEX
  5
B7A
  8
DARTH
 10
10.43494730253492
 20
10.15257402025354
 30
0.0
  0
VERTEX
  5
B7B
  8
DARTH
 10
10.43261749617742
 20
10.14152010435784
 30
0.0
  0
VERTEX
  5
B7C
  8
DARTH
 10
10.43261749617666
 20
10.12061649179413
 30
0.0
 42
0.3645672338890465
  0
VERTEX
  5
B7D
  8
DARTH
 10
10.45747034903638
 20
10.09106134205118
 30
0.0
  0
VERTEX
  5
B7E
  8
DARTH
 10
10.50914798323049
 20
10.0820614760594
 30
0.0
  0
VERTEX
  5
B7F
  8
DARTH
 10
10.52352330011834
 20
10.08023250956284
 30
0.0
  0
VERTEX
  5
B80
  8
DARTH
 10
10.5421230509491
 20
10.07887385718059
 30
0.0
  0
VERTEX
  5
B81
  8
DARTH
 10
10.58741768064823
 20
10.07752618861663
 30
0.0
  0
SEQEND
  5
FD7
  8
DARTH
  0
POLYLINE
  5
A5
  8
DARTH
 66
     1
 10
0.0
 20
0.0
 30
0.0
 70
     1
  0
VERTEX
  5
B82
  8
DARTH
 10
6.971345628158709
 20
8.568773939771635
 30
0.0
  0
VERTEX
  5
B83
  8
DARTH
 10
6.83149495334542
 20
8.774713190065592
 30
0.0
  0
VERTEX
  5
B84
  8
DARTH
 10
7.022779981580938
 20
8.88266777642594
 30
0.0
  0
VERTEX
  5
B85
  8
DARTH
 10
7.050578313005539
 20
8.970252563118526
 30
0.0
 42
0.3221908310102636
  0
VERTEX
  5
B86
  8
DARTH
 10
7.045134938991647
 20
8.986898585175158
 30
0.0
  0
VERTEX
  5
B87
  8
DARTH
 10
7.010669523801397
 20
9.012100312065996
 30
0.0
  0
VERTEX
  5
B88
  8
DARTH
 10
7.001696408749126
 20
9.017978556089403
 30
0.0
  0
VERTEX
  5
B89
  8
DARTH
 10
6.990531440209253
 20
9.024190905975956
 30
0.0
  0
VERTEX
  5
B8A
  8
DARTH
 10
6.964655901481876
 20
9.036293510541512
 30
0.0
  0
VERTEX
  5
B8B
  8
DARTH
 10
6.935532895735378
 20
9.047534636355095
 30
0.0
  0
VERTEX
  5
B8C
  8
DARTH
 10
6.906408967096581
 20
9.056535904294634
 30
0.0
  0
VERTEX
  5
B8D
  8
DARTH
 10
6.885580849145072
 20
9.061376537647568
 30
0.0
  0
VERTEX
  5
B8E
  8
DARTH
 10
6.860071440875913
 20
9.066234522317153
 30
0.0
  0
VERTEX
  5
B8F
  8
DARTH
 10
6.830308500651199
 20
9.071110584995253
 30
0.0
  0
VERTEX
  5
B90
  8
DARTH
 10
6.796772367733865
 20
9.075974367978837
 30
0.0
  0
VERTEX
  5
B91
  8
DARTH
 10
6.720918397309674
 20
9.085427471147355
 30
0.0
  0
VERTEX
  5
B92
  8
DARTH
 10
6.637000070970089
 20
9.094185850213677
 30
0.0
  0
VERTEX
  5
B93
  8
DARTH
 10
6.549798313793644
 20
9.101793936103071
 30
0.0
  0
VERTEX
  5
B94
  8
DARTH
 10
6.464048393392318
 20
9.10779833374805
 30
0.0
  0
VERTEX
  5
B95
  8
DARTH
 10
6.384534790221096
 20
9.11173967143627
 30
0.0
  0
VERTEX
  5
B96
  8
DARTH
 10
6.348484450561386
 20
9.112796365247576
 30
0.0
  0
VERTEX
  5
B97
  8
DARTH
 10
6.315860180118989
 20
9.113160947993611
 30
0.0
  0
VERTEX
  5
B98
  8
DARTH
 10
6.178651523807027
 20
9.113160947993613
 30
0.0
 42
0.4142135623730906
  0
VERTEX
  5
B99
  8
DARTH
 10
6.163651523807027
 20
9.098160947993613
 30
0.0
  0
VERTEX
  5
B9A
  8
DARTH
 10
6.163651523807199
 20
9.085898290468641
 30
0.0
  0
VERTEX
  5
B9B
  8
DARTH
 10
6.165481182666532
 20
9.077906230957872
 30
0.0
  0
VERTEX
  5
B9C
  8
DARTH
 10
6.169811709579044
 20
9.068174170285744
 30
0.0
  0
VERTEX
  5
B9D
  8
DARTH
 10
6.176278479339928
 20
9.056354977648084
 30
0.0
  0
VERTEX
  5
B9E
  8
DARTH
 10
6.185292437232334
 20
9.04146493189586
 30
0.0
  0
VERTEX
  5
B9F
  8
DARTH
 10
6.211674990370994
 20
9.001237295376484
 30
0.0
  0
VERTEX
  5
BA0
  8
DARTH
 10
6.250694717519991
 20
8.944814506358512
 30
0.0
  0
VERTEX
  5
BA1
  8
DARTH
 10
6.303681239513026
 20
8.870287634890929
 30
0.0
  0
VERTEX
  5
BA2
  8
DARTH
 10
6.371987751121083
 20
8.775726443784606
 30
0.0
  0
VERTEX
  5
BA3
  8
DARTH
 10
6.559871192777337
 20
8.51894129364996
 30
0.0
  0
VERTEX
  5
BA4
  8
DARTH
 10
6.58864921990957
 20
8.480865537614818
 30
0.0
  0
VERTEX
  5
BA5
  8
DARTH
 10
6.613898168809612
 20
8.449453811898877
 30
0.0
  0
VERTEX
  5
BA6
  8
DARTH
 10
6.633106526839413
 20
8.427762140097187
 30
0.0
  0
VERTEX
  5
BA7
  8
DARTH
 10
6.640916883269696
 20
8.42039822282284
 30
0.0
  0
VERTEX
  5
BA8
  8
DARTH
 10
6.650974018872031
 20
8.414601677397306
 30
0.0
  0
VERTEX
  5
BA9
  8
DARTH
 10
6.664398724603778
 20
8.41765180344639
 30
0.0
  0
VERTEX
  5
BAA
  8
DARTH
 10
6.676664888141602
 20
8.422315199890036
 30
0.0
  0
VERTEX
  5
BAB
  8
DARTH
 10
6.69093020269051
 20
8.42875173679424
 30
0.0
  0
VERTEX
  5
BAC
  8
DARTH
 10
6.706104218699323
 20
8.436442108364886
 30
0.0
  0
VERTEX
  5
BAD
  8
DARTH
 10
6.742157791146733
 20
8.455737394774346
 30
0.0
 42
0.4084690367113598
  0
VERTEX
  5
BAE
  8
DARTH
 10
6.748441578290958
 20
8.475779122018825
 30
0.0
  0
VERTEX
  5
BAF
  8
DARTH
 10
6.71011859928447
 20
8.550898366615133
 30
0.0
  0
VERTEX
  5
BB0
  8
DARTH
 10
6.696189215346031
 20
8.580212820723773
 30
0.0
  0
VERTEX
  5
BB1
  8
DARTH
 10
6.686226490941221
 20
8.605134011742779
 30
0.0
  0
VERTEX
  5
BB2
  8
DARTH
 10
6.683649000744211
 20
8.613109409261437
 30
0.0
  0
VERTEX
  5
BB3
  8
DARTH
 10
6.691437378030679
 20
8.611914356176738
 30
0.0
  0
VERTEX
  5
BB4
  8
DARTH
 10
6.707901658286894
 20
8.60863996994762
 30
0.0
  0
VERTEX
  5
BB5
  8
DARTH
 10
6.750234487377666
 20
8.598451575740057
 30
0.0
  0
VERTEX
  5
BB6
  8
DARTH
 10
6.800653350986801
 20
8.584330182129415
 30
0.0
  0
VERTEX
  5
BB7
  8
DARTH
 10
6.851723867429769
 20
8.569416855788376
 30
0.0
  0
VERTEX
  5
BB8
  8
DARTH
 10
6.895648855873446
 20
8.557145593187386
 30
0.0
  0
VERTEX
  5
BB9
  8
DARTH
 10
6.927897913573105
 20
8.548754823916227
 30
0.0
  0
VERTEX
  5
BBA
  8
DARTH
 10
6.944842487873473
 20
8.545347038042587
 30
0.0
  0
VERTEX
  5
BBB
  8
DARTH
 10
6.95893646512301
 20
8.545347038042443
 30
0.0
 42
0.601929587470362
  0
SEQEND
  5
FD8
  8
DARTH
  0
POLYLINE
  5
A6
  8
DARTH
 66
     1
 10
0.0
 20
0.0
 30
0.0
 70
     1
  0
VERTEX
  5
BBC
  8
DARTH
 10
7.364101285627542
 20
11.12887209074026
 30
0.0
 42
0.4142135623730949
  0
VERTEX
  5
BBD
  8
DARTH
 10
7.379101285627542
 20
11.11387209074026
 30
0.0
  0
VERTEX
  5
BBE
  8
DARTH
 10
8.042454901396413
 20
11.11387209074026
 30
0.0
 42
0.4142135623730919
  0
VERTEX
  5
BBF
  8
DARTH
 10
8.057454901396413
 20
11.12887209074026
 30
0.0
  0
VERTEX
  5
BC0
  8
DARTH
 10
8.057454901396413
 20
11.30592869048755
 30
0.0
 42
0.4142135623730913
  0
VERTEX
  5
BC1
  8
DARTH
 10
8.042454901396413
 20
11.32092869048755
 30
0.0
  0
VERTEX
  5
BC2
  8
DARTH
 10
7.379101285627542
 20
11.32092869048755
 30
0.0
 42
0.4142135623730942
  0
VERTEX
  5
BC3
  8
DARTH
 10
7.364101285627542
 20
11.30592869048755
 30
0.0
  0
SEQEND
  5
FD9
  8
DARTH
  0
POLYLINE
  5
A7
  8
DARTH
 66
     1
 10
0.0
 20
0.0
 30
0.0
 70
     1
  0
VERTEX
  5
BC4
  8
DARTH
 10
7.364101285627542
 20
10.77490033677305
 30
0.0
 42
0.4142135623730949
  0
VERTEX
  5
BC5
  8
DARTH
 10
7.379101285627542
 20
10.75990033677305
 30
0.0
  0
VERTEX
  5
BC6
  8
DARTH
 10
8.042454901396413
 20
10.75990033677305
 30
0.0
 42
0.4142135623730919
  0
VERTEX
  5
BC7
  8
DARTH
 10
8.057454901396413
 20
10.77490033677305
 30
0.0
  0
VERTEX
  5
BC8
  8
DARTH
 10
8.057454901396413
 20
10.95195693652034
 30
0.0
 42
0.4142135623730913
  0
VERTEX
  5
BC9
  8
DARTH
 10
8.042454901396413
 20
10.96695693652034
 30
0.0
  0
VERTEX
  5
BCA
  8
DARTH
 10
7.379101285627542
 20
10.96695693652034
 30
0.0
 42
0.4142135623730942
  0
VERTEX
  5
BCB
  8
DARTH
 10
7.364101285627542
 20
10.95195693652034
 30
0.0
  0
SEQEND
  5
FDA
  8
DARTH
  0
POLYLINE
  5
A8
  8
DARTH
 66
     1
 10
0.0
 20
0.0
 30
0.0
 70
     1
  0
VERTEX
  5
BCC
  8
DARTH
 10
7.364101285627542
 20
10.42092858280584
 30
0.0
 42
0.4142135623730949
  0
VERTEX
  5
BCD
  8
DARTH
 10
7.379101285627542
 20
10.40592858280584
 30
0.0
  0
VERTEX
  5
BCE
  8
DARTH
 10
8.042454901396413
 20
10.40592858280584
 30
0.0
 42
0.4142135623730919
  0
VERTEX
  5
BCF
  8
DARTH
 10
8.057454901396413
 20
10.42092858280584
 30
0.0
  0
VERTEX
  5
BD0
  8
DARTH
 10
8.057454901396413
 20
10.59798518255313
 30
0.0
 42
0.4142135623730913
  0
VERTEX
  5
BD1
  8
DARTH
 10
8.042454901396413
 20
10.61298518255313
 30
0.0
  0
VERTEX
  5
BD2
  8
DARTH
 10
7.379101285627542
 20
10.61298518255313
 30
0.0
 42
0.4142135623730942
  0
VERTEX
  5
BD3
  8
DARTH
 10
7.364101285627542
 20
10.59798518255313
 30
0.0
  0
SEQEND
  5
FDB
  8
DARTH
  0
POLYLINE
  5
A9
  8
DARTH
 66
     1
 10
0.0
 20
0.0
 30
0.0
 70
     1
  0
VERTEX
  5
BD4
  8
DARTH
 10
11.74398504167278
 20
9.635016471393554
 30
0.0
  0
VERTEX
  5
BD5
  8
DARTH
 10
11.74398929735045
 20
9.635031262313825
 30
0.0
  0
VERTEX
  5
BD6
  8
DARTH
 10
11.74399990739994
 20
9.63506806755504
 30
0.0
  0
VERTEX
  5
BD7
  8
DARTH
 10
11.74402777081241
 20
9.635164351429466
 30
0.0
  0
VERTEX
  5
BD8
  8
DARTH
 10
11.74409670577575
 20
9.635400741573449
 30
0.0
  0
VERTEX
  5
BD9
  8
DARTH
 10
11.94019433387803
 20
10.29772823711937
 30
0.0
  0
VERTEX
  5
BDA
  8
DARTH
 10
11.94026523516868
 20
10.29796414770954
 30
0.0
  0
VERTEX
  5
BDB
  8
DARTH
 10
11.94029423414031
 20
10.29805992214187
 30
0.0
  0
VERTEX
  5
BDC
  8
DARTH
 10
11.94030539264832
 20
10.29809663945515
 30
0.0
  0
VERTEX
  5
BDD
  8
DARTH
 10
11.94030987545961
 20
10.29811136312698
 30
0.0
 42
0.0390416593607733
  0
VERTEX
  5
BDE
  8
DARTH
 10
11.9751261801006
 20
10.4552696322412
 30
0.0
 42
0.0318559724437081
  0
VERTEX
  5
BDF
  8
DARTH
 10
11.98489428413993
 20
10.58308446765769
 30
0.0
  0
VERTEX
  5
BE0
  8
DARTH
 10
11.97817613622626
 20
10.64720953584559
 30
0.0
  0
VERTEX
  5
BE1
  8
DARTH
 10
11.95598499232307
 20
10.70888090662294
 30
0.0
 42
0.0357994973445703
  0
VERTEX
  5
BE2
  8
DARTH
 10
11.78544851429188
 20
10.99568097200022
 30
0.0
 42
0.0824760337652172
  0
VERTEX
  5
BE3
  8
DARTH
 10
11.41005094445346
 20
11.38081180913427
 30
0.0
  0
VERTEX
  5
BE4
  8
DARTH
 10
11.22627388820289
 20
11.50852810265398
 30
0.0
 42
-0.0493428448581842
  0
VERTEX
  5
BE5
  8
DARTH
 10
11.43592479998957
 20
11.11916866457656
 30
0.0
 42
-0.0543099470944487
  0
VERTEX
  5
BE6
  8
DARTH
 10
11.56363785233986
 20
10.68621460448117
 30
0.0
 42
-0.062511212340481
  0
VERTEX
  5
BE7
  8
DARTH
 10
11.58486178555487
 20
10.28967817550374
 30
0.0
  0
VERTEX
  5
BE8
  8
DARTH
 10
11.58486112556832
 20
10.28966898578154
 30
0.0
  0
VERTEX
  5
BE9
  8
DARTH
 10
11.584859388631
 20
10.2896449103464
 30
0.0
  0
VERTEX
  5
BEA
  8
DARTH
 10
11.58485513084247
 20
10.28958638072254
 30
0.0
  0
VERTEX
  5
BEB
  8
DARTH
 10
11.58484424021339
 20
10.28943917173274
 30
0.0
  0
VERTEX
  5
BEC
  8
DARTH
 10
11.56862943698809
 20
10.07734211603656
 30
0.0
  0
VERTEX
  5
BED
  8
DARTH
 10
11.56861783437091
 20
10.07719509969138
 30
0.0
  0
VERTEX
  5
BEE
  8
DARTH
 10
11.56861301961044
 20
10.0771350345567
 30
0.0
  0
VERTEX
  5
BEF
  8
DARTH
 10
11.56861119501773
 20
10.07711244886809
 30
0.0
  0
VERTEX
  5
BF0
  8
DARTH
 10
11.56861044988624
 20
10.07710325941655
 30
0.0
 42
-0.166269107671272
  0
VERTEX
  5
BF1
  8
DARTH
 10
11.52778225006032
 20
9.98335547836096
 30
0.0
 42
-0.1350652484535063
  0
VERTEX
  5
BF2
  8
DARTH
 10
11.45724675377478
 20
9.938935463425207
 30
0.0
  0
VERTEX
  5
BF3
  8
DARTH
 10
11.29395261136085
 20
9.883646620111202
 30
0.0
 42
-0.0782009188517803
  0
VERTEX
  5
BF4
  8
DARTH
 10
9.852655757960157
 20
9.573722645825567
 30
0.0
 42
-0.0940777902603168
  0
VERTEX
  5
BF5
  8
DARTH
 10
8.6240694334472
 20
9.736696289678948
 30
0.0
  0
VERTEX
  5
BF6
  8
DARTH
 10
8.62406078411287
 20
9.736699153946896
 30
0.0
  0
VERTEX
  5
BF7
  8
DARTH
 10
8.62403815347352
 20
9.736706656496608
 30
0.0
  0
VERTEX
  5
BF8
  8
DARTH
 10
8.62398297936852
 20
9.736724983542445
 30
0.0
  0
VERTEX
  5
BF9
  8
DARTH
 10
8.623844704048679
 20
9.73677110030053
 30
0.0
  0
VERTEX
  5
BFA
  8
DARTH
 10
8.566505042867764
 20
9.75604970446087
 30
0.0
  0
VERTEX
  5
BFB
  8
DARTH
 10
8.584754068066156
 20
9.209881964616223
 30
0.0
 42
-0.0996796887003273
  0
VERTEX
  5
BFC
  8
DARTH
 10
10.01966513074371
 20
9.185846496943036
 30
0.0
  0
VERTEX
  5
BFD
  8
DARTH
 10
10.50817046809563
 20
9.167344723553247
 30
0.0
 42
0.043297469889695
  0
VERTEX
  5
BFE
  8
DARTH
 10
10.75326126238992
 20
9.199502857018075
 30
0.0
 42
-0.1268225291092021
  0
VERTEX
  5
BFF
  8
DARTH
 10
11.05377802098309
 20
9.188889961283316
 30
0.0
  0
VERTEX
  5
C00
  8
DARTH
 10
11.05379825639321
 20
9.18888396016633
 30
0.0
  0
VERTEX
  5
C01
  8
DARTH
 10
11.05384879594658
 20
9.188868933144022
 30
0.0
  0
VERTEX
  5
C02
  8
DARTH
 10
11.05398023086718
 20
9.188829652445293
 30
0.0
  0
VERTEX
  5
C03
  8
DARTH
 10
11.05430357052228
 20
9.188732026083017
 30
0.0
  0
VERTEX
  5
C04
  8
DARTH
 10
11.15471672804574
 20
9.157796464014268
 30
0.0
  0
VERTEX
  5
C05
  8
DARTH
 10
11.15503890622858
 20
9.157695217510991
 30
0.0
  0
VERTEX
  5
C06
  8
DARTH
 10
11.15516966794712
 20
9.157653720168128
 30
0.0
  0
VERTEX
  5
C07
  8
DARTH
 10
11.15521991427378
 20
9.157637696539249
 30
0.0
  0
VERTEX
  5
C08
  8
DARTH
 10
11.15524001797318
 20
9.1576312698795
 30
0.0
 42
-0.4111535276177796
  0
VERTEX
  5
C09
  8
DARTH
 10
11.21687625305883
 20
9.03938799233018
 30
0.0
  0
VERTEX
  5
C0A
  8
DARTH
 10
11.21682144857961
 20
9.039214350389672
 30
0.0
  0
VERTEX
  5
C0B
  8
DARTH
 10
11.21668180658898
 20
9.038781089746863
 30
0.0
  0
VERTEX
  5
C0C
  8
DARTH
 10
11.17259491687104
 20
8.907475620661565
 30
0.0
 42
-0.0541619932809687
  0
VERTEX
  5
C0D
  8
DARTH
 10
11.46782710941545
 20
9.193433605162404
 30
0.0
 42
-0.0270344945395473
  0
VERTEX
  5
C0E
  8
DARTH
 10
11.64201582058946
 20
9.314447258948736
 30
0.0
  0
VERTEX
  5
C0F
  8
DARTH
 10
11.66219303194089
 20
9.333334304775956
 30
0.0
  0
VERTEX
  5
C10
  8
DARTH
 10
11.67609155375729
 20
9.366068097378154
 30
0.0
 42
-0.0161852733683596
  0
SEQEND
  5
FDC
  8
DARTH
  0
POLYLINE
  5
AA
  8
DARTH
 66
     1
 10
0.0
 20
0.0
 30
0.0
 70
     1
  0
VERTEX
  5
C11
  8
DARTH
 10
7.049325664269603
 20
9.578221303535006
 30
0.0
 42
0.0430777286126039
  0
VERTEX
  5
C12
  8
DARTH
 10
7.05294554672785
 20
9.69635780532371
 30
0.0
  0
VERTEX
  5
C13
  8
DARTH
 10
7.052940984763794
 20
9.696444493174367
 30
0.0
  0
VERTEX
  5
C14
  8
DARTH
 10
7.052930207288746
 20
9.696661238431489
 30
0.0
  0
VERTEX
  5
C15
  8
DARTH
 10
7.052905447017061
 20
9.697224943283004
 30
0.0
  0
VERTEX
  5
C16
  8
DARTH
 10
7.0518203883183
 20
9.730784050765623
 30
0.0
 42
-0.0462363280499317
  0
VERTEX
  5
C17
  8
DARTH
 10
6.606881372442262
 20
9.560033494204228
 30
0.0
 42
-0.1070292178134938
  0
VERTEX
  5
C18
  8
DARTH
 10
5.566887502734776
 20
9.49670131834269
 30
0.0
 42
-0.0504507464906199
  0
VERTEX
  5
C19
  8
DARTH
 10
4.864298344215186
 20
9.678529624777916
 30
0.0
  0
VERTEX
  5
C1A
  8
DARTH
 10
4.793940535330933
 20
9.698437218718922
 30
0.0
  0
VERTEX
  5
C1B
  8
DARTH
 10
4.757210374023316
 20
9.70975026531147
 30
0.0
  0
VERTEX
  5
C1C
  8
DARTH
 10
4.72092650573984
 20
9.721615500874066
 30
0.0
  0
VERTEX
  5
C1D
  8
DARTH
 10
4.684915483597592
 20
9.734143165861326
 30
0.0
  0
VERTEX
  5
C1E
  8
DARTH
 10
4.649211254115926
 20
9.747380170156447
 30
0.0
  0
VERTEX
  5
C1F
  8
DARTH
 10
4.613848300652649
 20
9.761373811117494
 30
0.0
  0
VERTEX
  5
C20
  8
DARTH
 10
4.578861773937774
 20
9.776171721257384
 30
0.0
  0
VERTEX
  5
C21
  8
DARTH
 10
4.544287630551082
 20
9.791821790361269
 30
0.0
  0
VERTEX
  5
C22
  8
DARTH
 10
4.510162774174603
 20
9.808372057620602
 30
0.0
  0
VERTEX
  5
C23
  8
DARTH
 10
4.476525193776638
 20
9.825870569385415
 30
0.0
  0
VERTEX
  5
C24
  8
DARTH
 10
4.443414088677514
 20
9.844365200327047
 30
0.0
  0
VERTEX
  5
C25
  8
DARTH
 10
4.410869970253941
 20
9.8639034370878
 30
0.0
  0
VERTEX
  5
C26
  8
DARTH
 10
4.378934726778681
 20
9.884532127306073
 30
0.0
  0
VERTEX
  5
C27
  8
DARTH
 10
4.347651637418522
 20
9.90629720080301
 30
0.0
  0
VERTEX
  5
C28
  8
DARTH
 10
4.317065321994477
 20
9.92924337436429
 30
0.0
  0
VERTEX
  5
C29
  8
DARTH
 10
4.287221614690623
 20
9.953413856995326
 30
0.0
  0
VERTEX
  5
C2A
  8
DARTH
 10
4.25816735485293
 20
9.978850076726928
 30
0.0
  0
VERTEX
  5
C2B
  8
DARTH
 10
4.229950094042266
 20
10.0055914535792
 30
0.0
  0
VERTEX
  5
C2C
  8
DARTH
 10
4.202617727265704
 20
10.03367524372675
 30
0.0
  0
VERTEX
  5
C2D
  8
DARTH
 10
4.176218065120196
 20
10.06313647774843
 30
0.0
  0
VERTEX
  5
C2E
  8
DARTH
 10
4.150798372479358
 20
10.09400800962868
 30
0.0
  0
VERTEX
  5
C2F
  8
DARTH
 10
4.126404905861037
 20
10.12632068389266
 30
0.0
  0
VERTEX
  5
C30
  8
DARTH
 10
4.103082484475436
 20
10.16010361691963
 30
0.0
  0
VERTEX
  5
C31
  8
DARTH
 10
4.080874128798612
 20
10.19538457604855
 30
0.0
  0
VERTEX
  5
C32
  8
DARTH
 10
4.059820794082924
 20
10.23219043002612
 30
0.0
  0
VERTEX
  5
C33
  8
DARTH
 10
4.039961216741602
 20
10.27054763677879
 30
0.0
  0
VERTEX
  5
C34
  8
DARTH
 10
4.021331879591827
 20
10.31048273189549
 30
0.0
  0
VERTEX
  5
C35
  8
DARTH
 10
4.003967090051432
 20
10.35202278314202
 30
0.0
  0
VERTEX
  5
C36
  8
DARTH
 10
3.987899155132247
 20
10.39519578268448
 30
0.0
  0
VERTEX
  5
C37
  8
DARTH
 10
3.9731586301831
 20
10.4400309573262
 30
0.0
  0
VERTEX
  5
C38
  8
DARTH
 10
3.960038322040958
 20
10.48564223893777
 30
0.0
  0
VERTEX
  5
C39
  8
DARTH
 10
3.934054052277022
 20
10.57211004612357
 30
0.0
 42
-0.0463391914502496
  0
VERTEX
  5
C3A
  8
DARTH
 10
3.911038186975016
 20
10.67220086123235
 30
0.0
  0
VERTEX
  5
C3B
  8
DARTH
 10
3.911008644548574
 20
10.67243493671954
 30
0.0
  0
VERTEX
  5
C3C
  8
DARTH
 10
3.910939389066861
 20
10.67302072086665
 30
0.0
  0
VERTEX
  5
C3D
  8
DARTH
 10
3.910783305011318
 20
10.67454639118512
 30
0.0
  0
VERTEX
  5
C3E
  8
DARTH
 10
3.91051745405765
 20
10.67831166971209
 30
0.0
  0
VERTEX
  5
C3F
  8
DARTH
 10
3.907375474859838
 20
11.09359350037796
 30
0.0
  0
VERTEX
  5
C40
  8
DARTH
 10
3.907681183452576
 20
11.0980999108875
 30
0.0
  0
VERTEX
  5
C41
  8
DARTH
 10
3.907874234253258
 20
11.0999249845942
 30
0.0
  0
VERTEX
  5
C42
  8
DARTH
 10
3.907961690754991
 20
11.10062546031846
 30
0.0
  0
VERTEX
  5
C43
  8
DARTH
 10
3.907999310230846
 20
11.10090531740499
 30
0.0
 42
-0.0817322710199154
  0
VERTEX
  5
C44
  8
DARTH
 10
3.984298816156653
 20
11.3423029872063
 30
0.0
  0
VERTEX
  5
C45
  8
DARTH
 10
3.984495304606838
 20
11.34267735438849
 30
0.0
  0
VERTEX
  5
C46
  8
DARTH
 10
4.004805950020433
 20
11.38008418211594
 30
0.0
 42
0.0209135970281899
  0
VERTEX
  5
C47
  8
DARTH
 10
3.63083214841077
 20
11.03736889954624
 30
0.0
 42
0.0641486057238947
  0
VERTEX
  5
C48
  8
DARTH
 10
3.340654191711991
 20
10.66276161919451
 30
0.0
  0
VERTEX
  5
C49
  8
DARTH
 10
3.340506555394436
 20
10.66251561142096
 30
0.0
  0
VERTEX
  5
C4A
  8
DARTH
 10
3.340131609230511
 20
10.66190416553118
 30
0.0
  0
VERTEX
  5
C4B
  8
DARTH
 10
3.339126588629519
 20
10.66033344795285
 30
0.0
  0
VERTEX
  5
C4C
  8
DARTH
 10
3.315060037941234
 20
10.62571256707319
 30
0.0
  0
VERTEX
  5
C4D
  8
DARTH
 10
3.30743407244287
 20
10.60955170127295
 30
0.0
  0
VERTEX
  5
C4E
  8
DARTH
 10
3.307630081252396
 20
10.57976526960068
 30
0.0
  0
VERTEX
  5
C4F
  8
DARTH
 10
3.342196890295554
 20
10.3674301378332
 30
0.0
  0
VERTEX
  5
C50
  8
DARTH
 10
3.425803245364064
 20
9.780853420933411
 30
0.0
  0
VERTEX
  5
C51
  8
DARTH
 10
3.463813055365323
 20
9.568530151591917
 30
0.0
 42
-0.0286164365249481
  0
VERTEX
  5
C52
  8
DARTH
 10
3.716242322467405
 20
9.468025337881016
 30
0.0
 42
-0.0551497284176496
  0
VERTEX
  5
C53
  8
DARTH
 10
3.878521067667022
 20
9.369352426054565
 30
0.0
  0
VERTEX
  5
C54
  8
DARTH
 10
3.878714047178136
 20
9.369201202870928
 30
0.0
  0
VERTEX
  5
C55
  8
DARTH
 10
3.879193380154049
 20
9.36881922277928
 30
0.0
  0
VERTEX
  5
C56
  8
DARTH
 10
3.880423188236989
 20
9.367805886362646
 30
0.0
  0
VERTEX
  5
C57
  8
DARTH
 10
3.883366877718117
 20
9.365214250618067
 30
0.0
  0
VERTEX
  5
C58
  8
DARTH
 10
4.258268158093756
 20
8.988912470757526
 30
0.0
  0
VERTEX
  5
C59
  8
DARTH
 10
4.259971740805327
 20
8.987052311970444
 30
0.0
  0
VERTEX
  5
C5A
  8
DARTH
 10
4.260647819432052
 20
8.986282201132553
 30
0.0
  0
VERTEX
  5
C5B
  8
DARTH
 10
4.26090472861923
 20
8.98598328037108
 30
0.0
  0
VERTEX
  5
C5C
  8
DARTH
 10
4.261006862973543
 20
8.985863173085507
 30
0.0
 42
-0.0319951886865188
  0
VERTEX
  5
C5D
  8
DARTH
 10
4.404564853994415
 20
8.791218739761106
 30
0.0
  0
VERTEX
  5
C5E
  8
DARTH
 10
4.404625262841507
 20
8.791124028421505
 30
0.0
  0
VERTEX
  5
C5F
  8
DARTH
 10
4.404775397003391
 20
8.790886686639737
 30
0.0
  0
VERTEX
  5
C60
  8
DARTH
 10
4.413491741930192
 20
8.776876169768732
 30
0.0
  0
VERTEX
  5
C61
  8
DARTH
 10
4.390361792526955
 20
8.88425660262848
 30
0.0
 42
-0.3252474975832667
  0
VERTEX
  5
C62
  8
DARTH
 10
4.43650876994287
 20
8.971150090348097
 30
0.0
  0
VERTEX
  5
C63
  8
DARTH
 10
4.436603928161284
 20
8.971196076294323
 30
0.0
  0
VERTEX
  5
C64
  8
DARTH
 10
4.436842224969382
 20
8.971310201302117
 30
0.0
  0
VERTEX
  5
C65
  8
DARTH
 10
4.437463872479441
 20
8.971602553743594
 30
0.0
  0
VERTEX
  5
C66
  8
DARTH
 10
4.535565163809508
 20
9.016061117623565
 30
0.0
  0
VERTEX
  5
C67
  8
DARTH
 10
4.536194798878341
 20
9.016335834490917
 30
0.0
  0
VERTEX
  5
C68
  8
DARTH
 10
4.536437710199706
 20
9.016439788338895
 30
0.0
  0
VERTEX
  5
C69
  8
DARTH
 10
4.536535019917607
 20
9.016481027012256
 30
0.0
 42
-0.0484537185027497
  0
VERTEX
  5
C6A
  8
DARTH
 10
5.106174690448364
 20
9.192996387489114
 30
0.0
 42
-0.0382018147731821
  0
VERTEX
  5
C6B
  8
DARTH
 10
5.850289995537498
 20
9.288230220333446
 30
0.0
  0
VERTEX
  5
C6C
  8
DARTH
 10
5.850385337197451
 20
9.288234775641325
 30
0.0
  0
VERTEX
  5
C6D
  8
DARTH
 10
5.850623724522166
 20
9.288245405409576
 30
0.0
  0
VERTEX
  5
C6E
  8
DARTH
 10
5.85124369302423
 20
9.288269098134485
 30
0.0
  0
VERTEX
  5
C6F
  8
DARTH
 10
5.852770358997077
 20
9.288307991764118
 30
0.0
  0
VERTEX
  5
C70
  8
DARTH
 10
6.839262802430198
 20
9.288324938233796
 30
0.0
  0
VERTEX
  5
C71
  8
DARTH
 10
6.843923060893488
 20
9.288125095056632
 30
0.0
  0
VERTEX
  5
C72
  8
DARTH
 10
6.92240642295539
 20
9.276260321945124
 30
0.0
  0
VERTEX
  5
C73
  8
DARTH
 10
6.950484498958345
 20
9.270679234521058
 30
0.0
 42
0.0289330691504768
  0
VERTEX
  5
C74
  8
DARTH
 10
7.017049549365657
 20
9.435113074168306
 30
0.0
 42
0.0525932864257449
  0
SEQEND
  5
FDD
  8
DARTH
  0
POLYLINE
  5
AB
  8
DARTH
 66
     1
 10
0.0
 20
0.0
 30
0.0
 70
     1
  0
VERTEX
  5
C75
  8
DARTH
 10
11.32698471609007
 20
10.03109918607834
 30
0.0
  0
VERTEX
  5
C76
  8
DARTH
 10
11.37755694572388
 20
10.05545826229502
 30
0.0
 42
0.2487422035067491
  0
VERTEX
  5
C77
  8
DARTH
 10
11.42604561116582
 20
10.14522792179247
 30
0.0
 42
0.0402927312131551
  0
VERTEX
  5
C78
  8
DARTH
 10
11.38856549257115
 20
10.65855268294152
 30
0.0
 42
0.0547068435497616
  0
VERTEX
  5
C79
  8
DARTH
 10
11.2439455746889
 20
11.19627570321276
 30
0.0
  0
VERTEX
  5
C7A
  8
DARTH
 10
11.24369427294533
 20
11.19688040224773
 30
0.0
 42
0.5833682174800342
  0
VERTEX
  5
C7B
  8
DARTH
 10
8.45501804249762
 20
11.47358196676269
 30
0.0
 42
0.7535668238648865
  0
VERTEX
  5
C7C
  8
DARTH
 10
8.473107743373166
 20
11.45112329056316
 30
0.0
 42
-0.0384840826036704
  0
VERTEX
  5
C7D
  8
DARTH
 10
9.10489244600289
 20
11.66182200109294
 30
0.0
 42
-0.0722150706865411
  0
VERTEX
  5
C7E
  8
DARTH
 10
9.81505616272795
 20
11.73364159794783
 30
0.0
 42
-0.1591381880285045
  0
VERTEX
  5
C7F
  8
DARTH
 10
10.58485797252478
 20
11.44474593435011
 30
0.0
 42
-0.1309074744601925
  0
VERTEX
  5
C80
  8
DARTH
 10
11.17575940203823
 20
10.64412361593478
 30
0.0
 42
-0.0435385776364596
  0
VERTEX
  5
C81
  8
DARTH
 10
11.26352503721719
 20
10.34834751186328
 30
0.0
 42
-0.0959506956695039
  0
VERTEX
  5
C82
  8
DARTH
 10
11.26490591215705
 20
10.21185043838671
 30
0.0
 42
-0.3183383745085369
  0
VERTEX
  5
C83
  8
DARTH
 10
11.24033326858233
 20
10.18786974990174
 30
0.0
  0
VERTEX
  5
C84
  8
DARTH
 10
11.1460429268335
 20
10.16506908105719
 30
0.0
 42
-0.062104349349455
  0
VERTEX
  5
C85
  8
DARTH
 10
10.12844616447034
 20
9.96550920804296
 30
0.0
 42
-0.0588779762221235
  0
VERTEX
  5
C86
  8
DARTH
 10
9.035934921015386
 20
10.01800990324568
 30
0.0
 42
-0.0215514284014586
  0
VERTEX
  5
C87
  8
DARTH
 10
8.644104459084389
 20
10.10100734482477
 30
0.0
 42
0.0648110475516279
  0
VERTEX
  5
C88
  8
DARTH
 10
8.54048389187913
 20
10.11375312843723
 30
0.0
 42
0.1977425797908152
  0
VERTEX
  5
C89
  8
DARTH
 10
8.498198154601315
 20
10.09599950963476
 30
0.0
 42
0.1799711516996784
  0
VERTEX
  5
C8A
  8
DARTH
 10
8.47830697683927
 20
10.05224952025228
 30
0.0
 42
0.292438820764091
  0
VERTEX
  5
C8B
  8
DARTH
 10
8.486034012202744
 20
10.03805208669304
 30
0.0
 42
0.2558297175699536
  0
SEQEND
  5
FDE
  8
DARTH
  0
POLYLINE
  5
AC
  8
DARTH
 66
     1
 10
0.0
 20
0.0
 30
0.0
 70
     1
  0
VERTEX
  5
C8C
  8
DARTH
 10
4.070953028592892
 20
11.11435354377379
 30
0.0
 42
0.1115445475230321
  0
VERTEX
  5
C8D
  8
DARTH
 10
4.193114777526047
 20
10.2795951706911
 30
0.0
  0
VERTEX
  5
C8E
  8
DARTH
 10
4.196810196296676
 20
10.27408252806236
 30
0.0
 42
0.3242992944726968
  0
VERTEX
  5
C8F
  8
DARTH
 10
7.079838868003748
 20
9.897215524467255
 30
0.0
  0
VERTEX
  5
C90
  8
DARTH
 10
7.081439883334037
 20
9.89821984685675
 30
0.0
  0
VERTEX
  5
C91
  8
DARTH
 10
7.097319469132913
 20
9.915247022893508
 30
0.0
 42
0.3052174360563176
  0
VERTEX
  5
C92
  8
DARTH
 10
7.096667985640194
 20
9.9319867790779
 30
0.0
  0
VERTEX
  5
C93
  8
DARTH
 10
7.064301126147431
 20
9.97625109698203
 30
0.0
 42
0.306376678643109
  0
VERTEX
  5
C94
  8
DARTH
 10
7.048485247006145
 20
9.981931876563781
 30
0.0
  0
VERTEX
  5
C95
  8
DARTH
 10
6.610154102112274
 20
9.875627727689801
 30
0.0
 42
-0.0512037624291315
  0
VERTEX
  5
C96
  8
DARTH
 10
6.133055991718473
 20
9.816272501427143
 30
0.0
 42
-0.0773254877365561
  0
VERTEX
  5
C97
  8
DARTH
 10
5.319860515693567
 20
9.924977980727895
 30
0.0
  0
VERTEX
  5
C98
  8
DARTH
 10
5.316035144694343
 20
9.92558651180439
 30
0.0
 42
-0.3453576359728008
  0
VERTEX
  5
C99
  8
DARTH
 10
4.523955787862424
 20
10.58377205088452
 30
0.0
 42
-0.1185043722755648
  0
VERTEX
  5
C9A
  8
DARTH
 10
4.759797462581965
 20
11.2100100616033
 30
0.0
 42
-0.1333031628773242
  0
VERTEX
  5
C9B
  8
DARTH
 10
5.242078599243256
 20
11.58121989570316
 30
0.0
 42
-0.0275669151902665
  0
VERTEX
  5
C9C
  8
DARTH
 10
5.40672165519143
 20
11.63868777922299
 30
0.0
 42
-0.0351180535364075
  0
VERTEX
  5
C9D
  8
DARTH
 10
5.53776459497367
 20
11.66668848705912
 30
0.0
  0
VERTEX
  5
C9E
  8
DARTH
 10
6.281473585671664
 20
11.66496648671059
 30
0.0
 42
-0.035347128949084
  0
VERTEX
  5
C9F
  8
DARTH
 10
6.508786027452949
 20
11.62302912961714
 30
0.0
 42
-0.0195670895111319
  0
VERTEX
  5
CA0
  8
DARTH
 10
6.913695429180994
 20
11.50121251594329
 30
0.0
 42
0.7705598490468072
  0
VERTEX
  5
CA1
  8
DARTH
 10
6.929813274201959
 20
11.52533184578763
 30
0.0
 42
0.0632174101156894
  0
VERTEX
  5
CA2
  8
DARTH
 10
6.760494893913728
 20
11.67400647863729
 30
0.0
 42
0.0657357610996774
  0
VERTEX
  5
CA3
  8
DARTH
 10
6.235622628316317
 20
11.93603151523891
 30
0.0
 42
0.0160722200341988
  0
VERTEX
  5
CA4
  8
DARTH
 10
5.986825290944838
 20
12.0128835723291
 30
0.0
 42
0.036555666024956
  0
VERTEX
  5
CA5
  8
DARTH
 10
5.872640331733415
 20
12.03536220564978
 30
0.0
  0
VERTEX
  5
CA6
  8
DARTH
 10
5.870812710096295
 20
12.03547241279862
 30
0.0
  0
VERTEX
  5
CA7
  8
DARTH
 10
5.262242218980356
 20
12.03496035758699
 30
0.0
  0
VERTEX
  5
CA8
  8
DARTH
 10
5.260667634039456
 20
12.03487615241663
 30
0.0
 42
0.0363283625293156
  0
VERTEX
  5
CA9
  8
DARTH
 10
5.051565472835264
 20
11.99712030514942
 30
0.0
 42
0.0227491821822029
  0
VERTEX
  5
CAA
  8
DARTH
 10
4.729356902232592
 20
11.89859494098132
 30
0.0
  0
VERTEX
  5
CAB
  8
DARTH
 10
4.655848804676911
 20
11.87530683747674
 30
0.0
 42
0.060921662046587
  0
VERTEX
  5
CAC
  8
DARTH
 10
4.580274391374092
 20
11.84397063212773
 30
0.0
  0
VERTEX
  5
CAD
  8
DARTH
 10
4.578232264817936
 20
11.84258201513709
 30
0.0
  0
VERTEX
  5
CAE
  8
DARTH
 10
4.330513665157206
 20
11.64243456671043
 30
0.0
  0
VERTEX
  5
CAF
  8
DARTH
 10
4.329091085309535
 20
11.64112495206174
 30
0.0
 42
0.0766357257908764
  0
VERTEX
  5
CB0
  8
DARTH
 10
4.179817446624233
 20
11.42720550423805
 30
0.0
 42
0.0601838947031823
  0
VERTEX
  5
CB1
  8
DARTH
 10
4.071256767958715
 20
11.11641420551196
 30
0.0
  0
SEQEND
  5
FDF
  8
DARTH
  0
POLYLINE
  5
AE
  8
STAR_WARS
 66
     1
 10
0.0
 20
0.0
 30
0.0
 70
     1
  0
VERTEX
  5
CB2
  8
STAR_WARS
 10
8.064413296398893
 20
24.21654177437964
 30
0.0
  0
VERTEX
  5
CB3
  8
STAR_WARS
 10
7.749498060941828
 20
23.34634122036301
 30
0.0
  0
VERTEX
  5
CB4
  8
STAR_WARS
 10
8.35498725761773
 20
23.34634122036301
 30
0.0
  0
SEQEND
  5
FE0
  8
STAR_WARS
  0
POLYLINE
  5
AF
  8
STAR_WARS
 66
     1
 10
0.0
 20
0.0
 30
0.0
 70
     1
  0
VERTEX
  5
CB5
  8
STAR_WARS
 10
10.10603767313019
 20
24.15568858878407
 30
0.0
  0
VERTEX
  5
CB6
  8
STAR_WARS
 10
10.10603767313019
 20
23.75101490457354
 30
0.0
  0
VERTEX
  5
CB7
  8
STAR_WARS
 10
10.65980166204986
 20
23.75101490457354
 30
0.0
  0
VERTEX
  5
CB8
  8
STAR_WARS
 10
10.67095015581717
 20
23.75152597624944
 30
0.0
  0
VERTEX
  5
CB9
  8
STAR_WARS
 10
10.68233635734072
 20
23.75305919127714
 30
0.0
  0
VERTEX
  5
CBA
  8
STAR_WARS
 10
10.6939602666205
 20
23.75561454965665
 30
0.0
  0
VERTEX
  5
CBB
  8
STAR_WARS
 10
10.70582188365651
 20
23.75919205138795
 30
0.0
  0
VERTEX
  5
CBC
  8
STAR_WARS
 10
10.71792120844875
 20
23.76379169647105
 30
0.0
  0
VERTEX
  5
CBD
  8
STAR_WARS
 10
10.73025824099723
 20
23.76941348490595
 30
0.0
  0
VERTEX
  5
CBE
  8
STAR_WARS
 10
10.74283298130194
 20
23.77605741669265
 30
0.0
  0
VERTEX
  5
CBF
  8
STAR_WARS
 10
10.75564542936288
 20
23.78372349183116
 30
0.0
  0
VERTEX
  5
CC0
  8
STAR_WARS
 10
10.76192091412742
 20
23.78820131168919
 30
0.0
  0
VERTEX
  5
CC1
  8
STAR_WARS
 10
10.76781606648199
 20
23.79345762444889
 30
0.0
  0
VERTEX
  5
CC2
  8
STAR_WARS
 10
10.77333088642659
 20
23.79949243011025
 30
0.0
  0
VERTEX
  5
CC3
  8
STAR_WARS
 10
10.77846537396122
 20
23.80630572867326
 30
0.0
  0
VERTEX
  5
CC4
  8
STAR_WARS
 10
10.78321952908587
 20
23.81389752013795
 30
0.0
  0
VERTEX
  5
CC5
  8
STAR_WARS
 10
10.78759335180055
 20
23.82226780450429
 30
0.0
  0
VERTEX
  5
CC6
  8
STAR_WARS
 10
10.79158684210526
 20
23.83141658177229
 30
0.0
  0
VERTEX
  5
CC7
  8
STAR_WARS
 10
10.7952
 20
23.84134385194196
 30
0.0
  0
VERTEX
  5
CC8
  8
STAR_WARS
 10
10.79843282548476
 20
23.85204961501329
 30
0.0
  0
VERTEX
  5
CC9
  8
STAR_WARS
 10
10.80128531855955
 20
23.86353387098628
 30
0.0
  0
VERTEX
  5
CCA
  8
STAR_WARS
 10
10.80375747922437
 20
23.87579661986094
 30
0.0
  0
VERTEX
  5
CCB
  8
STAR_WARS
 10
10.80584930747922
 20
23.88883786163725
 30
0.0
  0
VERTEX
  5
CCC
  8
STAR_WARS
 10
10.8075608033241
 20
23.90265759631523
 30
0.0
  0
VERTEX
  5
CCD
  8
STAR_WARS
 10
10.808891966759
 20
23.91725582389487
 30
0.0
  0
VERTEX
  5
CCE
  8
STAR_WARS
 10
10.80984279778393
 20
23.93263254437618
 30
0.0
  0
VERTEX
  5
CCF
  8
STAR_WARS
 10
10.81041329639889
 20
23.94878775775913
 30
0.0
  0
VERTEX
  5
CD0
  8
STAR_WARS
 10
10.80928121320983
 20
23.9642357905673
 30
0.0
  0
VERTEX
  5
CD1
  8
STAR_WARS
 10
10.80778662569252
 20
23.97901229896412
 30
0.0
  0
VERTEX
  5
CD2
  8
STAR_WARS
 10
10.80592953384695
 20
23.99311728294958
 30
0.0
  0
VERTEX
  5
CD3
  8
STAR_WARS
 10
10.80370993767313
 20
24.00655074252368
 30
0.0
  0
VERTEX
  5
CD4
  8
STAR_WARS
 10
10.80112783717105
 20
24.01931267768642
 30
0.0
  0
VERTEX
  5
CD5
  8
STAR_WARS
 10
10.79818323234072
 20
24.03140308843781
 30
0.0
  0
VERTEX
  5
CD6
  8
STAR_WARS
 10
10.79487612318213
 20
24.04282197477783
 30
0.0
  0
VERTEX
  5
CD7
  8
STAR_WARS
 10
10.79120650969529
 20
24.0535693367065
 30
0.0
  0
VERTEX
  5
CD8
  8
STAR_WARS
 10
10.78717439188019
 20
24.06364517422382
 30
0.0
  0
VERTEX
  5
CD9
  8
STAR_WARS
 10
10.78277976973684
 20
24.07304948732977
 30
0.0
  0
VERTEX
  5
CDA
  8
STAR_WARS
 10
10.77802264326523
 20
24.08178227602437
 30
0.0
  0
VERTEX
  5
CDB
  8
STAR_WARS
 10
10.77290301246537
 20
24.08984354030761
 30
0.0
  0
VERTEX
  5
CDC
  8
STAR_WARS
 10
10.76742087733726
 20
24.09723328017949
 30
0.0
  0
VERTEX
  5
CDD
  8
STAR_WARS
 10
10.76157623788088
 20
24.10395149564002
 30
0.0
  0
VERTEX
  5
CDE
  8
STAR_WARS
 10
10.75536909409626
 20
24.10999818668919
 30
0.0
  0
VERTEX
  5
CDF
  8
STAR_WARS
 10
10.74879944598338
 20
24.115373353327
 30
0.0
  0
VERTEX
  5
CE0
  8
STAR_WARS
 10
10.73557100934903
 20
24.12482223663725
 30
0.0
  0
VERTEX
  5
CE1
  8
STAR_WARS
 10
10.72288930055402
 20
24.13301126883947
 30
0.0
  0
VERTEX
  5
CE2
  8
STAR_WARS
 10
10.71075431959834
 20
24.13994044993365
 30
0.0
  0
VERTEX
  5
CE3
  8
STAR_WARS
 10
10.69916606648199
 20
24.1456097799198
 30
0.0
  0
VERTEX
  5
CE4
  8
STAR_WARS
 10
10.68812454120499
 20
24.15001925879791
 30
0.0
  0
VERTEX
  5
CE5
  8
STAR_WARS
 10
10.67762974376731
 20
24.153168886568
 30
0.0
  0
VERTEX
  5
CE6
  8
STAR_WARS
 10
10.66768167416897
 20
24.15505866323005
 30
0.0
  0
VERTEX
  5
CE7
  8
STAR_WARS
 10
10.66291266230956
 20
24.15553110739556
 30
0.0
  0
VERTEX
  5
CE8
  8
STAR_WARS
 10
10.65828033240997
 20
24.15568858878407
 30
0.0
  0
SEQEND
  5
FE1
  8
STAR_WARS
  0
POLYLINE
  5
B0
  8
STAR_WARS
 66
     1
 10
0.0
 20
0.0
 30
0.0
 70
     1
  0
VERTEX
  5
CE9
  8
STAR_WARS
 10
6.959927977839335
 20
24.70336725914417
 30
0.0
  0
VERTEX
  5
CEA
  8
STAR_WARS
 10
7.156179501385041
 20
24.70336725914418
 30
0.0
  0
VERTEX
  5
CEB
  8
STAR_WARS
 10
5.291790027700831
 20
24.70336725914418
 30
0.0
  0
VERTEX
  5
CEC
  8
STAR_WARS
 10
4.181980055401662
 20
24.70336725914418
 30
0.0
  0
VERTEX
  5
CED
  8
STAR_WARS
 10
4.156069909972301
 20
24.70296909865249
 30
0.0
  0
VERTEX
  5
CEE
  8
STAR_WARS
 10
4.130825346260389
 20
24.70177461717742
 30
0.0
  0
VERTEX
  5
CEF
  8
STAR_WARS
 10
4.106246364265929
 20
24.69978381471897
 30
0.0
  0
VERTEX
  5
CF0
  8
STAR_WARS
 10
4.082332963988921
 20
24.69699669127714
 30
0.0
  0
VERTEX
  5
CF1
  8
STAR_WARS
 10
4.059085145429364
 20
24.69341324685193
 30
0.0
  0
VERTEX
  5
CF2
  8
STAR_WARS
 10
4.036502908587259
 20
24.68903348144334
 30
0.0
  0
VERTEX
  5
CF3
  8
STAR_WARS
 10
4.014586253462605
 20
24.68385739505138
 30
0.0
  0
VERTEX
  5
CF4
  8
STAR_WARS
 10
3.993335180055403
 20
24.67788498767603
 30
0.0
  0
VERTEX
  5
CF5
  8
STAR_WARS
 10
3.972749688365652
 20
24.67111625931731
 30
0.0
  0
VERTEX
  5
CF6
  8
STAR_WARS
 10
3.952829778393352
 20
24.6635512099752
 30
0.0
  0
VERTEX
  5
CF7
  8
STAR_WARS
 10
3.933575450138505
 20
24.65518983964972
 30
0.0
  0
VERTEX
  5
CF8
  8
STAR_WARS
 10
3.914986703601109
 20
24.64603214834085
 30
0.0
  0
VERTEX
  5
CF9
  8
STAR_WARS
 10
3.897063538781164
 20
24.6360781360486
 30
0.0
  0
VERTEX
  5
CFA
  8
STAR_WARS
 10
3.879805955678671
 20
24.62532780277298
 30
0.0
  0
VERTEX
  5
CFB
  8
STAR_WARS
 10
3.863213954293629
 20
24.61378114851398
 30
0.0
  0
VERTEX
  5
CFC
  8
STAR_WARS
 10
3.847287534626039
 20
24.6014381732716
 30
0.0
  0
VERTEX
  5
CFD
  8
STAR_WARS
 10
3.832026696675901
 20
24.58829887704584
 30
0.0
  0
VERTEX
  5
CFE
  8
STAR_WARS
 10
3.817431440443213
 20
24.5743632598367
 30
0.0
  0
VERTEX
  5
CFF
  8
STAR_WARS
 10
3.803501765927979
 20
24.55963132164418
 30
0.0
  0
VERTEX
  5
D00
  8
STAR_WARS
 10
3.790237673130195
 20
24.54410306246828
 30
0.0
  0
VERTEX
  5
D01
  8
STAR_WARS
 10
3.777639162049862
 20
24.527778482309
 30
0.0
  0
VERTEX
  5
D02
  8
STAR_WARS
 10
3.765706232686981
 20
24.51065758116634
 30
0.0
  0
VERTEX
  5
D03
  8
STAR_WARS
 10
3.754438885041552
 20
24.4927403590403
 30
0.0
  0
VERTEX
  5
D04
  8
STAR_WARS
 10
3.743837119113574
 20
24.47402681593088
 30
0.0
  0
VERTEX
  5
D05
  8
STAR_WARS
 10
3.733900934903048
 20
24.45451695183808
 30
0.0
  0
VERTEX
  5
D06
  8
STAR_WARS
 10
3.724630332409973
 20
24.4342107667619
 30
0.0
  0
VERTEX
  5
D07
  8
STAR_WARS
 10
3.71602531163435
 20
24.41310826070234
 30
0.0
  0
VERTEX
  5
D08
  8
STAR_WARS
 10
3.708085872576178
 20
24.39120943365941
 30
0.0
  0
VERTEX
  5
D09
  8
STAR_WARS
 10
3.700812015235458
 20
24.3685142856331
 30
0.0
  0
VERTEX
  5
D0A
  8
STAR_WARS
 10
3.694203739612189
 20
24.3450228166234
 30
0.0
  0
VERTEX
  5
D0B
  8
STAR_WARS
 10
3.688261045706372
 20
24.32073502663033
 30
0.0
  0
VERTEX
  5
D0C
  8
STAR_WARS
 10
3.682983933518006
 20
24.29565091565387
 30
0.0
  0
VERTEX
  5
D0D
  8
STAR_WARS
 10
3.678633881578947
 20
24.27009138916495
 30
0.0
  0
VERTEX
  5
D0E
  8
STAR_WARS
 10
3.675472368421052
 20
24.24437735263449
 30
0.0
  0
VERTEX
  5
D0F
  8
STAR_WARS
 10
3.673499394044322
 20
24.21850880606247
 30
0.0
  0
VERTEX
  5
D10
  8
STAR_WARS
 10
3.672714958448754
 20
24.19248574944889
 30
0.0
  0
VERTEX
  5
D11
  8
STAR_WARS
 10
3.673119061634349
 20
24.16630818279377
 30
0.0
  0
VERTEX
  5
D12
  8
STAR_WARS
 10
3.674711703601108
 20
24.13997610609709
 30
0.0
  0
VERTEX
  5
D13
  8
STAR_WARS
 10
3.677492884349031
 20
24.11348951935886
 30
0.0
  0
VERTEX
  5
D14
  8
STAR_WARS
 10
3.681462603878117
 20
24.08684842257908
 30
0.0
  0
VERTEX
  5
D15
  8
STAR_WARS
 10
3.686620862188366
 20
24.06005281575776
 30
0.0
  0
VERTEX
  5
D16
  8
STAR_WARS
 10
3.692967659279779
 20
24.03310269889487
 30
0.0
  0
VERTEX
  5
D17
  8
STAR_WARS
 10
3.700502995152355
 20
24.00599807199045
 30
0.0
  0
VERTEX
  5
D18
  8
STAR_WARS
 10
3.709226869806094
 20
23.97873893504446
 30
0.0
  0
VERTEX
  5
D19
  8
STAR_WARS
 10
3.719139283240998
 20
23.95132528805693
 30
0.0
  0
VERTEX
  5
D1A
  8
STAR_WARS
 10
3.730240235457064
 20
23.92375713102784
 30
0.0
  0
VERTEX
  5
D1B
  8
STAR_WARS
 10
3.742529726454294
 20
23.8960344639572
 30
0.0
  0
VERTEX
  5
D1C
  8
STAR_WARS
 10
3.756007756232687
 20
23.86815728684501
 30
0.0
  0
VERTEX
  5
D1D
  8
STAR_WARS
 10
3.770674324792244
 20
23.84012559969127
 30
0.0
  0
VERTEX
  5
D1E
  8
STAR_WARS
 10
3.786529432132964
 20
23.81193940249598
 30
0.0
  0
VERTEX
  5
D1F
  8
STAR_WARS
 10
3.803573078254848
 20
23.78359869525914
 30
0.0
  0
VERTEX
  5
D20
  8
STAR_WARS
 10
3.821805263157895
 20
23.75510347798075
 30
0.0
  0
VERTEX
  5
D21
  8
STAR_WARS
 10
3.841225986842105
 20
23.7264537506608
 30
0.0
  0
VERTEX
  5
D22
  8
STAR_WARS
 10
3.861835249307479
 20
23.6976495132993
 30
0.0
  0
VERTEX
  5
D23
  8
STAR_WARS
 10
3.883633050554017
 20
23.66869076589626
 30
0.0
  0
VERTEX
  5
D24
  8
STAR_WARS
 10
3.906619390581718
 20
23.63957750845166
 30
0.0
  0
VERTEX
  5
D25
  8
STAR_WARS
 10
3.930794269390582
 20
23.61030974096551
 30
0.0
  0
VERTEX
  5
D26
  8
STAR_WARS
 10
3.956157686980609
 20
23.58088746343781
 30
0.0
  0
VERTEX
  5
D27
  8
STAR_WARS
 10
3.982709643351801
 20
23.55131067586856
 30
0.0
  0
VERTEX
  5
D28
  8
STAR_WARS
 10
4.010450138504155
 20
23.52157937825775
 30
0.0
  0
VERTEX
  5
D29
  8
STAR_WARS
 10
4.039379172437673
 20
23.4916935706054
 30
0.0
  0
VERTEX
  5
D2A
  8
STAR_WARS
 10
4.069496745152355
 20
23.46165325291149
 30
0.0
  0
VERTEX
  5
D2B
  8
STAR_WARS
 10
4.1008028566482
 20
23.43145842517603
 30
0.0
  0
VERTEX
  5
D2C
  8
STAR_WARS
 10
4.133297506925208
 20
23.40110908739902
 30
0.0
  0
VERTEX
  5
D2D
  8
STAR_WARS
 10
4.152626118853878
 20
23.38558379957007
 30
0.0
  0
VERTEX
  5
D2E
  8
STAR_WARS
 10
4.170486885387811
 20
23.37057552611093
 30
0.0
  0
VERTEX
  5
D2F
  8
STAR_WARS
 10
4.186879806527008
 20
23.3560842670216
 30
0.0
  0
VERTEX
  5
D30
  8
STAR_WARS
 10
4.201804882271468
 20
23.34211002230207
 30
0.0
  0
VERTEX
  5
D31
  8
STAR_WARS
 10
4.215262112621192
 20
23.32865279195235
 30
0.0
  0
VERTEX
  5
D32
  8
STAR_WARS
 10
4.227251497576177
 20
23.31571257597243
 30
0.0
  0
VERTEX
  5
D33
  8
STAR_WARS
 10
4.237773037136426
 20
23.30328937436232
 30
0.0
  0
VERTEX
  5
D34
  8
STAR_WARS
 10
4.246826731301939
 20
23.29138318712202
 30
0.0
  0
VERTEX
  5
D35
  8
STAR_WARS
 10
4.254412580072715
 20
23.27999401425152
 30
0.0
  0
VERTEX
  5
D36
  8
STAR_WARS
 10
4.260530583448754
 20
23.26912185575083
 30
0.0
  0
VERTEX
  5
D37
  8
STAR_WARS
 10
4.265180741430056
 20
23.25876671161994
 30
0.0
  0
VERTEX
  5
D38
  8
STAR_WARS
 10
4.266955378397681
 20
23.25378301994318
 30
0.0
  0
VERTEX
  5
D39
  8
STAR_WARS
 10
4.268363054016621
 20
23.24892858185886
 30
0.0
  0
VERTEX
  5
D3A
  8
STAR_WARS
 10
4.269403768286877
 20
23.244203397367
 30
0.0
  0
VERTEX
  5
D3B
  8
STAR_WARS
 10
4.270077521208449
 20
23.23960746646759
 30
0.0
  0
VERTEX
  5
D3C
  8
STAR_WARS
 10
4.270384312781337
 20
23.23514078916062
 30
0.0
  0
VERTEX
  5
D3D
  8
STAR_WARS
 10
4.27032414300554
 20
23.23080336544612
 30
0.0
  0
VERTEX
  5
D3E
  8
STAR_WARS
 10
4.269897011881059
 20
23.22659519532406
 30
0.0
  0
VERTEX
  5
D3F
  8
STAR_WARS
 10
4.269102919407894
 20
23.22251627879445
 30
0.0
  0
VERTEX
  5
D40
  8
STAR_WARS
 10
4.267941865586045
 20
23.2185666158573
 30
0.0
  0
VERTEX
  5
D41
  8
STAR_WARS
 10
4.266413850415512
 20
23.2147462065126
 30
0.0
  0
VERTEX
  5
D42
  8
STAR_WARS
 10
4.264518873896295
 20
23.21105505076035
 30
0.0
  0
VERTEX
  5
D43
  8
STAR_WARS
 10
4.262256936028393
 20
23.20749314860055
 30
0.0
  0
VERTEX
  5
D44
  8
STAR_WARS
 10
4.259628036811807
 20
23.2040605000332
 30
0.0
  0
VERTEX
  5
D45
  8
STAR_WARS
 10
4.256632176246537
 20
23.20075710505831
 30
0.0
  0
VERTEX
  5
D46
  8
STAR_WARS
 10
4.253269354332583
 20
23.19758296367586
 30
0.0
  0
VERTEX
  5
D47
  8
STAR_WARS
 10
4.249539571069945
 20
23.19453807588587
 30
0.0
  0
VERTEX
  5
D48
  8
STAR_WARS
 10
4.245442826458621
 20
23.19162244168832
 30
0.0
  0
VERTEX
  5
D49
  8
STAR_WARS
 10
4.240979120498615
 20
23.18883606108324
 30
0.0
  0
VERTEX
  5
D4A
  8
STAR_WARS
 10
4.230950824532549
 20
23.18365106065041
 30
0.0
  0
VERTEX
  5
D4B
  8
STAR_WARS
 10
4.219454683171745
 20
23.17898307458739
 30
0.0
  0
VERTEX
  5
D4C
  8
STAR_WARS
 10
4.206490696416205
 20
23.17483210289418
 30
0.0
  0
VERTEX
  5
D4D
  8
STAR_WARS
 10
4.192058864265928
 20
23.17119814557077
 30
0.0
  0
VERTEX
  5
D4E
  8
STAR_WARS
 10
4.176159186720914
 20
23.16808120261717
 30
0.0
  0
VERTEX
  5
D4F
  8
STAR_WARS
 10
4.158791663781163
 20
23.16548127403338
 30
0.0
  0
VERTEX
  5
D50
  8
STAR_WARS
 10
4.139956295446677
 20
23.16339835981939
 30
0.0
  0
VERTEX
  5
D51
  8
STAR_WARS
 10
4.119653081717452
 20
23.1618324599752
 30
0.0
  0
VERTEX
  5
D52
  8
STAR_WARS
 10
4.09788202259349
 20
23.16078357450083
 30
0.0
  0
VERTEX
  5
D53
  8
STAR_WARS
 10
4.074643118074793
 20
23.16025170339626
 30
0.0
  0
VERTEX
  5
D54
  8
STAR_WARS
 10
4.049936368161357
 20
23.16023684666149
 30
0.0
  0
VERTEX
  5
D55
  8
STAR_WARS
 10
4.023761772853185
 20
23.16073900429653
 30
0.0
  0
VERTEX
  5
D56
  8
STAR_WARS
 10
2.812783379501385
 20
23.16073900429653
 30
0.0
  0
VERTEX
  5
D57
  8
STAR_WARS
 10
2.812783379501385
 20
22.50656725914418
 30
0.0
  0
VERTEX
  5
D58
  8
STAR_WARS
 10
4.729658725761773
 20
22.50656725914418
 30
0.0
  0
VERTEX
  5
D59
  8
STAR_WARS
 10
4.758870037655816
 20
22.51183248594473
 30
0.0
  0
VERTEX
  5
D5A
  8
STAR_WARS
 10
4.787172117382271
 20
22.51773952368711
 30
0.0
  0
VERTEX
  5
D5B
  8
STAR_WARS
 10
4.814564964941136
 20
22.52428837237132
 30
0.0
  0
VERTEX
  5
D5C
  8
STAR_WARS
 10
4.84104858033241
 20
22.53147903199736
 30
0.0
  0
VERTEX
  5
D5D
  8
STAR_WARS
 10
4.866622963556095
 20
22.53931150256523
 30
0.0
  0
VERTEX
  5
D5E
  8
STAR_WARS
 10
4.891288114612189
 20
22.54778578407492
 30
0.0
  0
VERTEX
  5
D5F
  8
STAR_WARS
 10
4.915044033500694
 20
22.55690187652645
 30
0.0
  0
VERTEX
  5
D60
  8
STAR_WARS
 10
4.937890720221608
 20
22.5666597799198
 30
0.0
  0
VERTEX
  5
D61
  8
STAR_WARS
 10
4.959828174774931
 20
22.57705949425498
 30
0.0
  0
VERTEX
  5
D62
  8
STAR_WARS
 10
4.980856397160665
 20
22.58810101953199
 30
0.0
  0
VERTEX
  5
D63
  8
STAR_WARS
 10
5.000975387378809
 20
22.59978435575082
 30
0.0
  0
VERTEX
  5
D64
  8
STAR_WARS
 10
5.020185145429363
 20
22.61210950291149
 30
0.0
  0
VERTEX
  5
D65
  8
STAR_WARS
 10
5.038485671312327
 20
22.62507646101398
 30
0.0
  0
VERTEX
  5
D66
  8
STAR_WARS
 10
5.055876965027701
 20
22.6386852300583
 30
0.0
  0
VERTEX
  5
D67
  8
STAR_WARS
 10
5.072359026575485
 20
22.65293581004445
 30
0.0
  0
VERTEX
  5
D68
  8
STAR_WARS
 10
5.087931855955679
 20
22.66782820097243
 30
0.0
  0
VERTEX
  5
D69
  8
STAR_WARS
 10
5.102595453168282
 20
22.68336240284223
 30
0.0
  0
VERTEX
  5
D6A
  8
STAR_WARS
 10
5.116349818213297
 20
22.69953841565387
 30
0.0
  0
VERTEX
  5
D6B
  8
STAR_WARS
 10
5.12919495109072
 20
22.71635623940733
 30
0.0
  0
VERTEX
  5
D6C
  8
STAR_WARS
 10
5.141130851800554
 20
22.73381587410262
 30
0.0
  0
VERTEX
  5
D6D
  8
STAR_WARS
 10
5.152157520342797
 20
22.75191731973975
 30
0.0
  0
VERTEX
  5
D6E
  8
STAR_WARS
 10
5.162274956717452
 20
22.77066057631869
 30
0.0
  0
VERTEX
  5
D6F
  8
STAR_WARS
 10
5.171483160924515
 20
22.79004564383947
 30
0.0
  0
VERTEX
  5
D70
  8
STAR_WARS
 10
5.179782132963989
 20
22.81007252230207
 30
0.0
  0
VERTEX
  5
D71
  8
STAR_WARS
 10
5.187171872835873
 20
22.8307412117065
 30
0.0
  0
VERTEX
  5
D72
  8
STAR_WARS
 10
5.193652380540167
 20
22.85205171205276
 30
0.0
  0
VERTEX
  5
D73
  8
STAR_WARS
 10
5.199223656076869
 20
22.87400402334085
 30
0.0
  0
VERTEX
  5
D74
  8
STAR_WARS
 10
5.203885699445983
 20
22.89659814557077
 30
0.0
  0
VERTEX
  5
D75
  8
STAR_WARS
 10
5.207638510647506
 20
22.91983407874251
 30
0.0
  0
VERTEX
  5
D76
  8
STAR_WARS
 10
5.21048208968144
 20
22.94371182285609
 30
0.0
  0
VERTEX
  5
D77
  8
STAR_WARS
 10
5.212416436547784
 20
22.96823137791149
 30
0.0
  0
VERTEX
  5
D78
  8
STAR_WARS
 10
5.213441551246538
 20
22.99339274390872
 30
0.0
  0
VERTEX
  5
D79
  8
STAR_WARS
 10
5.213521777614266
 20
23.01889878615249
 30
0.0
  0
VERTEX
  5
D7A
  8
STAR_WARS
 10
5.212621459487535
 20
23.0444523699475
 30
0.0
  0
VERTEX
  5
D7B
  8
STAR_WARS
 10
5.210740596866343
 20
23.07005349529376
 30
0.0
  0
VERTEX
  5
D7C
  8
STAR_WARS
 10
5.207879189750693
 20
23.09570216219127
 30
0.0
  0
VERTEX
  5
D7D
  8
STAR_WARS
 10
5.204037238140582
 20
23.12139837064002
 30
0.0
  0
VERTEX
  5
D7E
  8
STAR_WARS
 10
5.199214742036012
 20
23.14714212064002
 30
0.0
  0
VERTEX
  5
D7F
  8
STAR_WARS
 10
5.193411701436982
 20
23.17293341219127
 30
0.0
  0
VERTEX
  5
D80
  8
STAR_WARS
 10
5.186628116343491
 20
23.19877224529376
 30
0.0
  0
VERTEX
  5
D81
  8
STAR_WARS
 10
5.178863986755541
 20
23.2246586199475
 30
0.0
  0
VERTEX
  5
D82
  8
STAR_WARS
 10
5.170119312673131
 20
23.25059253615249
 30
0.0
  0
VERTEX
  5
D83
  8
STAR_WARS
 10
5.160394094096261
 20
23.27657399390872
 30
0.0
  0
VERTEX
  5
D84
  8
STAR_WARS
 10
5.149688331024931
 20
23.3026029932162
 30
0.0
  0
VERTEX
  5
D85
  8
STAR_WARS
 10
5.138002023459141
 20
23.32867953407493
 30
0.0
  0
VERTEX
  5
D86
  8
STAR_WARS
 10
5.125335171398892
 20
23.3548036164849
 30
0.0
  0
VERTEX
  5
D87
  8
STAR_WARS
 10
5.111687774844183
 20
23.38097524044612
 30
0.0
  0
VERTEX
  5
D88
  8
STAR_WARS
 10
5.097059833795014
 20
23.40719440595858
 30
0.0
  0
VERTEX
  5
D89
  8
STAR_WARS
 10
5.081451348251385
 20
23.4334611130223
 30
0.0
  0
VERTEX
  5
D8A
  8
STAR_WARS
 10
5.064862318213297
 20
23.45977536163726
 30
0.0
  0
VERTEX
  5
D8B
  8
STAR_WARS
 10
5.047292743680748
 20
23.48613715180346
 30
0.0
  0
VERTEX
  5
D8C
  8
STAR_WARS
 10
5.02874262465374
 20
23.51254648352091
 30
0.0
  0
VERTEX
  5
D8D
  8
STAR_WARS
 10
5.009211961132272
 20
23.53900335678961
 30
0.0
  0
VERTEX
  5
D8E
  8
STAR_WARS
 10
4.988700753116344
 20
23.56550777160955
 30
0.0
  0
VERTEX
  5
D8F
  8
STAR_WARS
 10
4.967209000605957
 20
23.59205972798074
 30
0.0
  0
VERTEX
  5
D90
  8
STAR_WARS
 10
4.944736703601109
 20
23.61865922590318
 30
0.0
  0
VERTEX
  5
D91
  8
STAR_WARS
 10
4.921283862101801
 20
23.64530626537686
 30
0.0
  0
VERTEX
  5
D92
  8
STAR_WARS
 10
4.896850476108034
 20
23.67200084640179
 30
0.0
  0
VERTEX
  5
D93
  8
STAR_WARS
 10
4.871436545619806
 20
23.69874296897797
 30
0.0
  0
VERTEX
  5
D94
  8
STAR_WARS
 10
4.845042070637119
 20
23.7255326331054
 30
0.0
  0
VERTEX
  5
D95
  8
STAR_WARS
 10
4.817667051159972
 20
23.75236983878407
 30
0.0
  0
VERTEX
  5
D96
  8
STAR_WARS
 10
4.789311487188366
 20
23.77925458601398
 30
0.0
  0
VERTEX
  5
D97
  8
STAR_WARS
 10
4.759975378722299
 20
23.80618687479515
 30
0.0
  0
VERTEX
  5
D98
  8
STAR_WARS
 10
4.729658725761773
 20
23.83316670512756
 30
0.0
  0
VERTEX
  5
D99
  8
STAR_WARS
 10
4.713099409193213
 20
23.84719443409224
 30
0.0
  0
VERTEX
  5
D9A
  8
STAR_WARS
 10
4.697841542590028
 20
23.86075269023836
 30
0.0
  0
VERTEX
  5
D9B
  8
STAR_WARS
 10
4.683885125952216
 20
23.87384147356592
 30
0.0
  0
VERTEX
  5
D9C
  8
STAR_WARS
 10
4.671230159279778
 20
23.88646078407493
 30
0.0
  0
VERTEX
  5
D9D
  8
STAR_WARS
 10
4.659876642572715
 20
23.89861062176537
 30
0.0
  0
VERTEX
  5
D9E
  8
STAR_WARS
 10
4.649824575831024
 20
23.91029098663725
 30
0.0
  0
VERTEX
  5
D9F
  8
STAR_WARS
 10
4.641073959054709
 20
23.92150187869058
 30
0.0
  0
VERTEX
  5
DA0
  8
STAR_WARS
 10
4.633624792243767
 20
23.93224329792534
 30
0.0
  0
VERTEX
  5
DA1
  8
STAR_WARS
 10
4.627477075398199
 20
23.94251524434154
 30
0.0
  0
VERTEX
  5
DA2
  8
STAR_WARS
 10
4.622630808518005
 20
23.95231771793919
 30
0.0
  0
VERTEX
  5
DA3
  8
STAR_WARS
 10
4.619085991603186
 20
23.96165071871827
 30
0.0
  0
VERTEX
  5
DA4
  8
STAR_WARS
 10
4.61684262465374
 20
23.9705142466788
 30
0.0
  0
VERTEX
  5
DA5
  8
STAR_WARS
 10
4.616208984916032
 20
23.97476995835211
 30
0.0
  0
VERTEX
  5
DA6
  8
STAR_WARS
 10
4.615900707669667
 20
23.97890830182077
 30
0.0
  0
VERTEX
  5
DA7
  8
STAR_WARS
 10
4.615917792914646
 20
23.9829292770848
 30
0.0
  0
VERTEX
  5
DA8
  8
STAR_WARS
 10
4.61626024065097
 20
23.98683288414418
 30
0.0
  0
VERTEX
  5
DA9
  8
STAR_WARS
 10
4.616928050878636
 20
23.99061912299893
 30
0.0
  0
VERTEX
  5
DAA
  8
STAR_WARS
 10
4.617921223597646
 20
23.99428799364903
 30
0.0
  0
VERTEX
  5
DAB
  8
STAR_WARS
 10
4.619239758807999
 20
23.99783949609449
 30
0.0
  0
VERTEX
  5
DAC
  8
STAR_WARS
 10
4.620883656509696
 20
24.00127363033531
 30
0.0
  0
VERTEX
  5
DAD
  8
STAR_WARS
 10
4.622852916702735
 20
24.0045903963715
 30
0.0
  0
VERTEX
  5
DAE
  8
STAR_WARS
 10
4.625147539387119
 20
24.00778979420304
 30
0.0
  0
VERTEX
  5
DAF
  8
STAR_WARS
 10
4.627767524562847
 20
24.01087182382994
 30
0.0
  0
VERTEX
  5
DB0
  8
STAR_WARS
 10
4.630712872229918
 20
24.01383648525221
 30
0.0
  0
VERTEX
  5
DB1
  8
STAR_WARS
 10
4.63757965503809
 20
24.01941370348282
 30
0.0
  0
VERTEX
  5
DB2
  8
STAR_WARS
 10
4.645747887811635
 20
24.02452144889487
 30
0.0
  0
VERTEX
  5
DB3
  8
STAR_WARS
 10
4.655217570550555
 20
24.02915972148836
 30
0.0
  0
VERTEX
  5
DB4
  8
STAR_WARS
 10
4.665988703254849
 20
24.03332852126329
 30
0.0
  0
VERTEX
  5
DB5
  8
STAR_WARS
 10
4.678061285924516
 20
24.03702784821966
 30
0.0
  0
VERTEX
  5
DB6
  8
STAR_WARS
 10
4.691435318559558
 20
24.04025770235747
 30
0.0
  0
VERTEX
  5
DB7
  8
STAR_WARS
 10
4.706110801159973
 20
24.04301808367672
 30
0.0
  0
VERTEX
  5
DB8
  8
STAR_WARS
 10
4.722087733725762
 20
24.04530899217741
 30
0.0
  0
VERTEX
  5
DB9
  8
STAR_WARS
 10
4.739366116256925
 20
24.04713042785955
 30
0.0
  0
VERTEX
  5
DBA
  8
STAR_WARS
 10
4.757945948753463
 20
24.04848239072312
 30
0.0
  0
VERTEX
  5
DBB
  8
STAR_WARS
 10
4.777827231215374
 20
24.04936488076814
 30
0.0
  0
VERTEX
  5
DBC
  8
STAR_WARS
 10
4.79900996364266
 20
24.04977789799459
 30
0.0
  0
VERTEX
  5
DBD
  8
STAR_WARS
 10
4.821494146035318
 20
24.04972144240249
 30
0.0
  0
VERTEX
  5
DBE
  8
STAR_WARS
 10
4.845279778393352
 20
24.04919551399182
 30
0.0
  0
VERTEX
  5
DBF
  8
STAR_WARS
 10
5.291790027700831
 20
24.04919551399182
 30
0.0
  0
VERTEX
  5
DC0
  8
STAR_WARS
 10
5.744385595567866
 20
24.04919551399182
 30
0.0
  0
VERTEX
  5
DC1
  8
STAR_WARS
 10
5.744385595567866
 20
22.50656725914418
 30
0.0
  0
VERTEX
  5
DC2
  8
STAR_WARS
 10
6.459410526315789
 20
22.50656725914418
 30
0.0
  0
VERTEX
  5
DC3
  8
STAR_WARS
 10
6.459410526315789
 20
24.04919551399182
 30
0.0
  0
VERTEX
  5
DC4
  8
STAR_WARS
 10
6.959927977839335
 20
24.04919551399182
 30
0.0
  0
VERTEX
  5
DC5
  8
STAR_WARS
 10
7.300705817174515
 20
24.04919551399182
 30
0.0
  0
VERTEX
  5
DC6
  8
STAR_WARS
 10
6.794103047091413
 20
22.50656725914418
 30
0.0
  0
VERTEX
  5
DC7
  8
STAR_WARS
 10
7.582151800554017
 20
22.50656725914418
 30
0.0
  0
VERTEX
  5
DC8
  8
STAR_WARS
 10
7.720592797783934
 20
22.90211296551537
 30
0.0
  0
VERTEX
  5
DC9
  8
STAR_WARS
 10
8.3732432132964
 20
22.90211296551537
 30
0.0
  0
VERTEX
  5
DCA
  8
STAR_WARS
 10
8.511684210526317
 20
22.50656725914418
 30
0.0
  0
VERTEX
  5
DCB
  8
STAR_WARS
 10
9.342330193905818
 20
22.50656725914418
 30
0.0
  0
VERTEX
  5
DCC
  8
STAR_WARS
 10
9.327116897506913
 20
22.50656725914421
 30
0.0
  0
VERTEX
  5
DCD
  8
STAR_WARS
 10
10.10603767313019
 20
22.50656725914418
 30
0.0
  0
VERTEX
  5
DCE
  8
STAR_WARS
 10
10.10603767313019
 20
23.23224149737132
 30
0.0
  0
VERTEX
  5
DCF
  8
STAR_WARS
 10
10.80280664819944
 20
22.50656725914418
 30
0.0
  0
VERTEX
  5
DD0
  8
STAR_WARS
 10
12.18721662049861
 20
22.50656725914418
 30
0.0
  0
VERTEX
  5
DD1
  8
STAR_WARS
 10
12.18721662049861
 20
23.16073900429653
 30
0.0
  0
VERTEX
  5
DD2
  8
STAR_WARS
 10
11.01275013850415
 20
23.16073900429653
 30
0.0
  0
VERTEX
  5
DD3
  8
STAR_WARS
 10
10.84844653739612
 20
23.37068249460124
 30
0.0
  0
VERTEX
  5
DD4
  8
STAR_WARS
 10
10.87993092970914
 20
23.37846742361786
 30
0.0
  0
VERTEX
  5
DD5
  8
STAR_WARS
 10
10.91048826177285
 20
23.38660891426883
 30
0.0
  0
VERTEX
  5
DD6
  8
STAR_WARS
 10
10.94011853358726
 20
23.39510696655415
 30
0.0
  0
VERTEX
  5
DD7
  8
STAR_WARS
 10
10.96882174515235
 20
23.40396158047382
 30
0.0
  0
VERTEX
  5
DD8
  8
STAR_WARS
 10
10.99659789646814
 20
23.41317275602783
 30
0.0
  0
VERTEX
  5
DD9
  8
STAR_WARS
 10
11.02344698753462
 20
23.4227404932162
 30
0.0
  0
VERTEX
  5
DDA
  8
STAR_WARS
 10
11.0493690183518
 20
23.43266479203892
 30
0.0
  0
VERTEX
  5
DDB
  8
STAR_WARS
 10
11.07436398891966
 20
23.44294565249598
 30
0.0
  0
VERTEX
  5
DDC
  8
STAR_WARS
 10
11.09843189923822
 20
23.45358307458739
 30
0.0
  0
VERTEX
  5
DDD
  8
STAR_WARS
 10
11.12157274930748
 20
23.46457705831315
 30
0.0
  0
VERTEX
  5
DDE
  8
STAR_WARS
 10
11.14378653912742
 20
23.47592760367326
 30
0.0
  0
VERTEX
  5
DDF
  8
STAR_WARS
 10
11.16507326869806
 20
23.48763471066772
 30
0.0
  0
VERTEX
  5
DE0
  8
STAR_WARS
 10
11.18543293801939
 20
23.49969837929653
 30
0.0
  0
VERTEX
  5
DE1
  8
STAR_WARS
 10
11.20486554709141
 20
23.51211860955969
 30
0.0
  0
VERTEX
  5
DE2
  8
STAR_WARS
 10
11.22337109591413
 20
23.5248954014572
 30
0.0
  0
VERTEX
  5
DE3
  8
STAR_WARS
 10
11.24094958448753
 20
23.53802875498905
 30
0.0
  0
VERTEX
  5
DE4
  8
STAR_WARS
 10
11.25774363746537
 20
23.55154244093088
 30
0.0
  0
VERTEX
  5
DE5
  8
STAR_WARS
 10
11.27389587950138
 20
23.56546023005831
 30
0.0
  0
VERTEX
  5
DE6
  8
STAR_WARS
 10
11.28940631059557
 20
23.57978212237133
 30
0.0
  0
VERTEX
  5
DE7
  8
STAR_WARS
 10
11.30427493074792
 20
23.59450811786994
 30
0.0
  0
VERTEX
  5
DE8
  8
STAR_WARS
 10
11.31850173995845
 20
23.60963821655415
 30
0.0
  0
VERTEX
  5
DE9
  8
STAR_WARS
 10
11.33208673822714
 20
23.62517241842395
 30
0.0
  0
VERTEX
  5
DEA
  8
STAR_WARS
 10
11.34502992555402
 20
23.64111072347936
 30
0.0
  0
VERTEX
  5
DEB
  8
STAR_WARS
 10
11.35733130193906
 20
23.65745313172035
 30
0.0
  0
VERTEX
  5
DEC
  8
STAR_WARS
 10
11.36899086738227
 20
23.67419964314695
 30
0.0
  0
VERTEX
  5
DED
  8
STAR_WARS
 10
11.38000862188365
 20
23.69135025775913
 30
0.0
  0
VERTEX
  5
DEE
  8
STAR_WARS
 10
11.39038456544321
 20
23.70890497555692
 30
0.0
  0
VERTEX
  5
DEF
  8
STAR_WARS
 10
11.40011869806094
 20
23.7268637965403
 30
0.0
  0
VERTEX
  5
DF0
  8
STAR_WARS
 10
11.40921101973684
 20
23.74522672070928
 30
0.0
  0
VERTEX
  5
DF1
  8
STAR_WARS
 10
11.41766153047091
 20
23.76399374806384
 30
0.0
  0
VERTEX
  5
DF2
  8
STAR_WARS
 10
11.42547023026316
 20
23.78316487860401
 30
0.0
  0
VERTEX
  5
DF3
  8
STAR_WARS
 10
11.43263711911357
 20
23.80274011232977
 30
0.0
  0
VERTEX
  5
DF4
  8
STAR_WARS
 10
11.43903145775623
 20
23.82304035471204
 30
0.0
  0
VERTEX
  5
DF5
  8
STAR_WARS
 10
11.44452250692521
 20
23.84438651122174
 30
0.0
  0
VERTEX
  5
DF6
  8
STAR_WARS
 10
11.4491102666205
 20
23.86677858185886
 30
0.0
  0
VERTEX
  5
DF7
  8
STAR_WARS
 10
11.4527947368421
 20
23.8902165666234
 30
0.0
  0
VERTEX
  5
DF8
  8
STAR_WARS
 10
11.45557591759002
 20
23.91470046551537
 30
0.0
  0
VERTEX
  5
DF9
  8
STAR_WARS
 10
11.45745380886427
 20
23.94023027853476
 30
0.0
  0
VERTEX
  5
DFA
  8
STAR_WARS
 10
11.45842841066482
 20
23.96680600568158
 30
0.0
  0
VERTEX
  5
DFB
  8
STAR_WARS
 10
11.45849972299169
 20
23.99442764695581
 30
0.0
  0
VERTEX
  5
DFC
  8
STAR_WARS
 10
11.45766774584487
 20
24.02309520235747
 30
0.0
  0
VERTEX
  5
DFD
  8
STAR_WARS
 10
11.45593247922437
 20
24.05280867188656
 30
0.0
  0
VERTEX
  5
DFE
  8
STAR_WARS
 10
11.45329392313019
 20
24.08356805554307
 30
0.0
  0
VERTEX
  5
DFF
  8
STAR_WARS
 10
11.44975207756232
 20
24.115373353327
 30
0.0
  0
VERTEX
  5
E00
  8
STAR_WARS
 10
11.44530694252077
 20
24.14822456523836
 30
0.0
  0
VERTEX
  5
E01
  8
STAR_WARS
 10
11.43995851800554
 20
24.18212169127714
 30
0.0
  0
VERTEX
  5
E02
  8
STAR_WARS
 10
11.43370680401662
 20
24.21706473144335
 30
0.0
  0
VERTEX
  5
E03
  8
STAR_WARS
 10
11.42655180055402
 20
24.25305368573698
 30
0.0
  0
VERTEX
  5
E04
  8
STAR_WARS
 10
11.41630659626039
 20
24.2770859398921
 30
0.0
  0
VERTEX
  5
E05
  8
STAR_WARS
 10
11.40534826869806
 20
24.30050015388102
 30
0.0
  0
VERTEX
  5
E06
  8
STAR_WARS
 10
11.39367681786704
 20
24.32329632770374
 30
0.0
  0
VERTEX
  5
E07
  8
STAR_WARS
 10
11.38129224376731
 20
24.34547446136025
 30
0.0
  0
VERTEX
  5
E08
  8
STAR_WARS
 10
11.36819454639889
 20
24.36703455485056
 30
0.0
  0
VERTEX
  5
E09
  8
STAR_WARS
 10
11.35438372576177
 20
24.38797660817465
 30
0.0
  0
VERTEX
  5
E0A
  8
STAR_WARS
 10
11.33985978185595
 20
24.40830062133254
 30
0.0
  0
VERTEX
  5
E0B
  8
STAR_WARS
 10
11.32462271468144
 20
24.42800659432423
 30
0.0
  0
VERTEX
  5
E0C
  8
STAR_WARS
 10
11.30867252423823
 20
24.44709452714972
 30
0.0
  0
VERTEX
  5
E0D
  8
STAR_WARS
 10
11.29200921052632
 20
24.465564419809
 30
0.0
  0
VERTEX
  5
E0E
  8
STAR_WARS
 10
11.2746327735457
 20
24.48341627230207
 30
0.0
  0
VERTEX
  5
E0F
  8
STAR_WARS
 10
11.2565432132964
 20
24.50065008462894
 30
0.0
  0
VERTEX
  5
E10
  8
STAR_WARS
 10
11.23774052977839
 20
24.51726585678961
 30
0.0
  0
VERTEX
  5
E11
  8
STAR_WARS
 10
11.21822472299169
 20
24.53326358878407
 30
0.0
  0
VERTEX
  5
E12
  8
STAR_WARS
 10
11.19799579293629
 20
24.54864328061232
 30
0.0
  0
VERTEX
  5
E13
  8
STAR_WARS
 10
11.17705373961219
 20
24.56340493227437
 30
0.0
  0
VERTEX
  5
E14
  8
STAR_WARS
 10
11.15538667763158
 20
24.57750100221897
 30
0.0
  0
VERTEX
  5
E15
  8
STAR_WARS
 10
11.13298272160664
 20
24.59088394889487
 30
0.0
  0
VERTEX
  5
E16
  8
STAR_WARS
 10
11.10984187153739
 20
24.60355377230207
 30
0.0
  0
VERTEX
  5
E17
  8
STAR_WARS
 10
11.08596412742382
 20
24.61551047244058
 30
0.0
  0
VERTEX
  5
E18
  8
STAR_WARS
 10
11.06134948926593
 20
24.62675404931039
 30
0.0
  0
VERTEX
  5
E19
  8
STAR_WARS
 10
11.03599795706371
 20
24.63728450291149
 30
0.0
  0
VERTEX
  5
E1A
  8
STAR_WARS
 10
11.00990953081717
 20
24.6471018332439
 30
0.0
  0
VERTEX
  5
E1B
  8
STAR_WARS
 10
10.98308421052631
 20
24.65620604030761
 30
0.0
  0
VERTEX
  5
E1C
  8
STAR_WARS
 10
10.95552199619113
 20
24.66459712410263
 30
0.0
  0
VERTEX
  5
E1D
  8
STAR_WARS
 10
10.92722288781163
 20
24.67227508462894
 30
0.0
  0
VERTEX
  5
E1E
  8
STAR_WARS
 10
10.89818688538781
 20
24.67923992188656
 30
0.0
  0
VERTEX
  5
E1F
  8
STAR_WARS
 10
10.86841398891966
 20
24.68549163587548
 30
0.0
  0
VERTEX
  5
E20
  8
STAR_WARS
 10
10.8379041984072
 20
24.6910302265957
 30
0.0
  0
VERTEX
  5
E21
  8
STAR_WARS
 10
10.80665751385041
 20
24.69585569404722
 30
0.0
  0
VERTEX
  5
E22
  8
STAR_WARS
 10
10.77467393524931
 20
24.69996803823005
 30
0.0
  0
VERTEX
  5
E23
  8
STAR_WARS
 10
10.74195346260388
 20
24.70336725914418
 30
0.0
  0
VERTEX
  5
E24
  8
STAR_WARS
 10
9.311903601108032
 20
24.70336725914418
 30
0.0
  0
VERTEX
  5
E25
  8
STAR_WARS
 10
9.311903601108035
 20
22.59753206245679
 30
0.0
  0
VERTEX
  5
E26
  8
STAR_WARS
 10
8.607527977839336
 20
24.70336725914418
 30
0.0
  0
SEQEND
  5
FE2
  8
STAR_WARS
  0
POLYLINE
  5
B1
  8
STAR_WARS
 66
     1
 10
0.0
 20
0.0
 30
0.0
 70
     1
  0
VERTEX
  5
E27
  8
STAR_WARS
 10
6.887664819944598
 20
20.92134177437963
 30
0.0
  0
VERTEX
  5
E28
  8
STAR_WARS
 10
6.572749584487535
 20
20.05114122036301
 30
0.0
  0
VERTEX
  5
E29
  8
STAR_WARS
 10
7.178238781163436
 20
20.05114122036301
 30
0.0
  0
SEQEND
  5
FE3
  8
STAR_WARS
  0
POLYLINE
  5
B2
  8
STAR_WARS
 66
     1
 10
0.0
 20
0.0
 30
0.0
 70
     1
  0
VERTEX
  5
E2A
  8
STAR_WARS
 10
8.9292891966759
 20
20.86048858878407
 30
0.0
  0
VERTEX
  5
E2B
  8
STAR_WARS
 10
8.9292891966759
 20
20.45581490457354
 30
0.0
  0
VERTEX
  5
E2C
  8
STAR_WARS
 10
9.483053185595567
 20
20.45581490457354
 30
0.0
  0
VERTEX
  5
E2D
  8
STAR_WARS
 10
9.494201679362881
 20
20.45632597624944
 30
0.0
  0
VERTEX
  5
E2E
  8
STAR_WARS
 10
9.505587880886425
 20
20.45785919127714
 30
0.0
  0
VERTEX
  5
E2F
  8
STAR_WARS
 10
9.517211790166204
 20
20.46041454965664
 30
0.0
  0
VERTEX
  5
E30
  8
STAR_WARS
 10
9.529073407202215
 20
20.46399205138794
 30
0.0
  0
VERTEX
  5
E31
  8
STAR_WARS
 10
9.54117273199446
 20
20.46859169647104
 30
0.0
  0
VERTEX
  5
E32
  8
STAR_WARS
 10
9.553509764542934
 20
20.47421348490595
 30
0.0
  0
VERTEX
  5
E33
  8
STAR_WARS
 10
9.566084504847645
 20
20.48085741669265
 30
0.0
  0
VERTEX
  5
E34
  8
STAR_WARS
 10
9.578896952908586
 20
20.48852349183116
 30
0.0
  0
VERTEX
  5
E35
  8
STAR_WARS
 10
9.58517243767313
 20
20.49300131168919
 30
0.0
  0
VERTEX
  5
E36
  8
STAR_WARS
 10
9.5910675900277
 20
20.49825762444889
 30
0.0
  0
VERTEX
  5
E37
  8
STAR_WARS
 10
9.596582409972298
 20
20.50429243011024
 30
0.0
  0
VERTEX
  5
E38
  8
STAR_WARS
 10
9.601716897506924
 20
20.51110572867326
 30
0.0
  0
VERTEX
  5
E39
  8
STAR_WARS
 10
9.606471052631578
 20
20.51869752013794
 30
0.0
  0
VERTEX
  5
E3A
  8
STAR_WARS
 10
9.61084487534626
 20
20.52706780450428
 30
0.0
  0
VERTEX
  5
E3B
  8
STAR_WARS
 10
9.614838365650968
 20
20.53621658177229
 30
0.0
  0
VERTEX
  5
E3C
  8
STAR_WARS
 10
9.618451523545705
 20
20.54614385194196
 30
0.0
  0
VERTEX
  5
E3D
  8
STAR_WARS
 10
9.621684349030469
 20
20.55684961501329
 30
0.0
  0
VERTEX
  5
E3E
  8
STAR_WARS
 10
9.624536842105261
 20
20.56833387098628
 30
0.0
  0
VERTEX
  5
E3F
  8
STAR_WARS
 10
9.62700900277008
 20
20.58059661986094
 30
0.0
  0
VERTEX
  5
E40
  8
STAR_WARS
 10
9.629100831024928
 20
20.59363786163725
 30
0.0
  0
VERTEX
  5
E41
  8
STAR_WARS
 10
9.630812326869805
 20
20.60745759631523
 30
0.0
  0
VERTEX
  5
E42
  8
STAR_WARS
 10
9.632143490304708
 20
20.62205582389487
 30
0.0
  0
VERTEX
  5
E43
  8
STAR_WARS
 10
9.633094321329638
 20
20.63743254437617
 30
0.0
  0
VERTEX
  5
E44
  8
STAR_WARS
 10
9.633664819944597
 20
20.65358775775913
 30
0.0
  0
VERTEX
  5
E45
  8
STAR_WARS
 10
9.63253273675554
 20
20.6690357905673
 30
0.0
  0
VERTEX
  5
E46
  8
STAR_WARS
 10
9.631038149238226
 20
20.68381229896412
 30
0.0
  0
VERTEX
  5
E47
  8
STAR_WARS
 10
9.62918105739266
 20
20.69791728294958
 30
0.0
  0
VERTEX
  5
E48
  8
STAR_WARS
 10
9.626961461218835
 20
20.71135074252368
 30
0.0
  0
VERTEX
  5
E49
  8
STAR_WARS
 10
9.624379360716757
 20
20.72411267768642
 30
0.0
  0
VERTEX
  5
E4A
  8
STAR_WARS
 10
9.621434755886424
 20
20.7362030884378
 30
0.0
  0
VERTEX
  5
E4B
  8
STAR_WARS
 10
9.618127646727839
 20
20.74762197477783
 30
0.0
  0
VERTEX
  5
E4C
  8
STAR_WARS
 10
9.614458033240997
 20
20.7583693367065
 30
0.0
  0
VERTEX
  5
E4D
  8
STAR_WARS
 10
9.6104259154259
 20
20.76844517422381
 30
0.0
  0
VERTEX
  5
E4E
  8
STAR_WARS
 10
9.606031293282546
 20
20.77784948732977
 30
0.0
  0
VERTEX
  5
E4F
  8
STAR_WARS
 10
9.60127416681094
 20
20.78658227602437
 30
0.0
  0
VERTEX
  5
E50
  8
STAR_WARS
 10
9.59615453601108
 20
20.79464354030761
 30
0.0
  0
VERTEX
  5
E51
  8
STAR_WARS
 10
9.590672400882966
 20
20.80203328017949
 30
0.0
  0
VERTEX
  5
E52
  8
STAR_WARS
 10
9.584827761426592
 20
20.80875149564002
 30
0.0
  0
VERTEX
  5
E53
  8
STAR_WARS
 10
9.578620617641967
 20
20.81479818668919
 30
0.0
  0
VERTEX
  5
E54
  8
STAR_WARS
 10
9.572050969529085
 20
20.820173353327
 30
0.0
  0
VERTEX
  5
E55
  8
STAR_WARS
 10
9.558822532894737
 20
20.82962223663725
 30
0.0
  0
VERTEX
  5
E56
  8
STAR_WARS
 10
9.546140824099723
 20
20.83781126883947
 30
0.0
  0
VERTEX
  5
E57
  8
STAR_WARS
 10
9.534005843144044
 20
20.84474044993365
 30
0.0
  0
VERTEX
  5
E58
  8
STAR_WARS
 10
9.5224175900277
 20
20.8504097799198
 30
0.0
  0
VERTEX
  5
E59
  8
STAR_WARS
 10
9.511376064750692
 20
20.85481925879791
 30
0.0
  0
VERTEX
  5
E5A
  8
STAR_WARS
 10
9.50088126731302
 20
20.857968886568
 30
0.0
  0
VERTEX
  5
E5B
  8
STAR_WARS
 10
9.490933197714682
 20
20.85985866323005
 30
0.0
  0
VERTEX
  5
E5C
  8
STAR_WARS
 10
9.486164185855264
 20
20.86033110739556
 30
0.0
  0
VERTEX
  5
E5D
  8
STAR_WARS
 10
9.481531855955678
 20
20.86048858878407
 30
0.0
  0
SEQEND
  5
FE4
  8
STAR_WARS
  0
POLYLINE
  5
B3
  8
STAR_WARS
 66
     1
 10
0.0
 20
0.0
 30
0.0
 70
     1
  0
VERTEX
  5
E5E
  8
STAR_WARS
 10
9.626058171745152
 20
19.21136725914418
 30
0.0
  0
VERTEX
  5
E5F
  8
STAR_WARS
 10
8.9292891966759
 20
19.93704149737132
 30
0.0
  0
VERTEX
  5
E60
  8
STAR_WARS
 10
8.9292891966759
 20
19.21136725914418
 30
0.0
  0
VERTEX
  5
E61
  8
STAR_WARS
 10
8.135155124653739
 20
19.21136725914418
 30
0.0
  0
VERTEX
  5
E62
  8
STAR_WARS
 10
8.150368421052631
 20
19.21136725914418
 30
0.0
  0
VERTEX
  5
E63
  8
STAR_WARS
 10
7.334935734072022
 20
19.21136725914418
 30
0.0
  0
VERTEX
  5
E64
  8
STAR_WARS
 10
7.196494736842106
 20
19.60691296551537
 30
0.0
  0
VERTEX
  5
E65
  8
STAR_WARS
 10
6.54384432132964
 20
19.60691296551537
 30
0.0
  0
VERTEX
  5
E66
  8
STAR_WARS
 10
6.405403324099724
 20
19.21136725914418
 30
0.0
  0
VERTEX
  5
E67
  8
STAR_WARS
 10
5.61735457063712
 20
19.21136725914418
 30
0.0
  0
VERTEX
  5
E68
  8
STAR_WARS
 10
6.123957340720222
 20
20.75399551399182
 30
0.0
  0
VERTEX
  5
E69
  8
STAR_WARS
 10
5.905937317853617
 20
20.75399551399185
 30
0.0
  0
VERTEX
  5
E6A
  8
STAR_WARS
 10
5.524553462603877
 20
19.21136725914418
 30
0.0
  0
VERTEX
  5
E6B
  8
STAR_WARS
 10
4.809528531855954
 20
19.21136725914418
 30
0.0
  0
VERTEX
  5
E6C
  8
STAR_WARS
 10
4.531125207756232
 20
20.14242099875636
 30
0.0
  0
VERTEX
  5
E6D
  8
STAR_WARS
 10
4.299883102493074
 20
19.21136725914418
 30
0.0
  0
VERTEX
  5
E6E
  8
STAR_WARS
 10
3.584858171745151
 20
19.21136725914418
 30
0.0
  0
VERTEX
  5
E6F
  8
STAR_WARS
 10
3.079776731301938
 20
20.75399551399182
 30
0.0
  0
VERTEX
  5
E70
  8
STAR_WARS
 10
2.623377839335179
 20
20.75399551399182
 30
0.0
  0
VERTEX
  5
E71
  8
STAR_WARS
 10
2.623377839335179
 20
21.40816725914418
 30
0.0
  0
VERTEX
  5
E72
  8
STAR_WARS
 10
3.630498060941827
 20
21.40816725914418
 30
0.0
  0
VERTEX
  5
E73
  8
STAR_WARS
 10
3.931721329639888
 20
20.45885756385332
 30
0.0
  0
VERTEX
  5
E74
  8
STAR_WARS
 10
4.19339002770083
 20
21.40816725914418
 30
0.0
  0
VERTEX
  5
E75
  8
STAR_WARS
 10
4.850604432132963
 20
21.40816725914418
 30
0.0
  0
VERTEX
  5
E76
  8
STAR_WARS
 10
5.156391689750691
 20
20.45885756385332
 30
0.0
  0
VERTEX
  5
E77
  8
STAR_WARS
 10
5.360249861495844
 20
21.40816725914418
 30
0.0
  0
VERTEX
  5
E78
  8
STAR_WARS
 10
5.827298060941828
 20
21.40816725914418
 30
0.0
  0
VERTEX
  5
E79
  8
STAR_WARS
 10
7.430779501385042
 20
21.40816725914418
 30
0.0
  0
VERTEX
  5
E7A
  8
STAR_WARS
 10
8.135155124653743
 20
19.30233206245676
 30
0.0
  0
VERTEX
  5
E7B
  8
STAR_WARS
 10
8.135155124653739
 20
21.40816725914418
 30
0.0
  0
VERTEX
  5
E7C
  8
STAR_WARS
 10
9.565204986149585
 20
21.40816725914418
 30
0.0
  0
VERTEX
  5
E7D
  8
STAR_WARS
 10
9.597925458795013
 20
21.40476803823005
 30
0.0
  0
VERTEX
  5
E7E
  8
STAR_WARS
 10
9.62990903739612
 20
21.40065569404722
 30
0.0
  0
VERTEX
  5
E7F
  8
STAR_WARS
 10
9.661155721952905
 20
21.3958302265957
 30
0.0
  0
VERTEX
  5
E80
  8
STAR_WARS
 10
9.691665512465372
 20
21.39029163587548
 30
0.0
  0
VERTEX
  5
E81
  8
STAR_WARS
 10
9.721438408933516
 20
21.38403992188656
 30
0.0
  0
VERTEX
  5
E82
  8
STAR_WARS
 10
9.750474411357338
 20
21.37707508462894
 30
0.0
  0
VERTEX
  5
E83
  8
STAR_WARS
 10
9.778773519736841
 20
21.36939712410263
 30
0.0
  0
VERTEX
  5
E84
  8
STAR_WARS
 10
9.806335734072022
 20
21.36100604030761
 30
0.0
  0
VERTEX
  5
E85
  8
STAR_WARS
 10
9.83316105436288
 20
21.3519018332439
 30
0.0
  0
VERTEX
  5
E86
  8
STAR_WARS
 10
9.859249480609417
 20
21.34208450291149
 30
0.0
  0
VERTEX
  5
E87
  8
STAR_WARS
 10
9.884601012811633
 20
21.33155404931038
 30
0.0
  0
VERTEX
  5
E88
  8
STAR_WARS
 10
9.909215650969529
 20
21.32031047244057
 30
0.0
  0
VERTEX
  5
E89
  8
STAR_WARS
 10
9.933093395083102
 20
21.30835377230207
 30
0.0
  0
VERTEX
  5
E8A
  8
STAR_WARS
 10
9.956234245152352
 20
21.29568394889487
 30
0.0
  0
VERTEX
  5
E8B
  8
STAR_WARS
 10
9.978638201177283
 20
21.28230100221897
 30
0.0
  0
VERTEX
  5
E8C
  8
STAR_WARS
 10
10.00030526315789
 20
21.26820493227437
 30
0.0
  0
VERTEX
  5
E8D
  8
STAR_WARS
 10
10.02124731648199
 20
21.25344328061232
 30
0.0
  0
VERTEX
  5
E8E
  8
STAR_WARS
 10
10.0414762465374
 20
21.23806358878407
 30
0.0
  0
VERTEX
  5
E8F
  8
STAR_WARS
 10
10.0609920533241
 20
21.22206585678961
 30
0.0
  0
VERTEX
  5
E90
  8
STAR_WARS
 10
10.07979473684211
 20
21.20545008462894
 30
0.0
  0
VERTEX
  5
E91
  8
STAR_WARS
 10
10.09788429709141
 20
21.18821627230207
 30
0.0
  0
VERTEX
  5
E92
  8
STAR_WARS
 10
10.11526073407202
 20
21.170364419809
 30
0.0
  0
VERTEX
  5
E93
  8
STAR_WARS
 10
10.13192404778393
 20
21.15189452714972
 30
0.0
  0
VERTEX
  5
E94
  8
STAR_WARS
 10
10.14787423822715
 20
21.13280659432423
 30
0.0
  0
VERTEX
  5
E95
  8
STAR_WARS
 10
10.16311130540166
 20
21.11310062133254
 30
0.0
  0
VERTEX
  5
E96
  8
STAR_WARS
 10
10.17763524930748
 20
21.09277660817465
 30
0.0
  0
VERTEX
  5
E97
  8
STAR_WARS
 10
10.1914460699446
 20
21.07183455485055
 30
0.0
  0
VERTEX
  5
E98
  8
STAR_WARS
 10
10.20454376731302
 20
21.05027446136025
 30
0.0
  0
VERTEX
  5
E99
  8
STAR_WARS
 10
10.21692834141274
 20
21.02809632770374
 30
0.0
  0
VERTEX
  5
E9A
  8
STAR_WARS
 10
10.22859979224377
 20
21.00530015388102
 30
0.0
  0
VERTEX
  5
E9B
  8
STAR_WARS
 10
10.23955811980609
 20
20.9818859398921
 30
0.0
  0
VERTEX
  5
E9C
  8
STAR_WARS
 10
10.24980332409972
 20
20.95785368573697
 30
0.0
  0
VERTEX
  5
E9D
  8
STAR_WARS
 10
10.25695832756233
 20
20.92186473144335
 30
0.0
  0
VERTEX
  5
E9E
  8
STAR_WARS
 10
10.26321004155125
 20
20.88692169127714
 30
0.0
  0
VERTEX
  5
E9F
  8
STAR_WARS
 10
10.26855846606648
 20
20.85302456523836
 30
0.0
  0
VERTEX
  5
EA0
  8
STAR_WARS
 10
10.27300360110803
 20
20.820173353327
 30
0.0
  0
VERTEX
  5
EA1
  8
STAR_WARS
 10
10.2765454466759
 20
20.78836805554307
 30
0.0
  0
VERTEX
  5
EA2
  8
STAR_WARS
 10
10.27918400277008
 20
20.75760867188656
 30
0.0
  0
VERTEX
  5
EA3
  8
STAR_WARS
 10
10.28091926939058
 20
20.72789520235747
 30
0.0
  0
VERTEX
  5
EA4
  8
STAR_WARS
 10
10.28175124653739
 20
20.69922764695581
 30
0.0
  0
VERTEX
  5
EA5
  8
STAR_WARS
 10
10.28167993421053
 20
20.67160600568157
 30
0.0
  0
VERTEX
  5
EA6
  8
STAR_WARS
 10
10.28070533240997
 20
20.64503027853476
 30
0.0
  0
VERTEX
  5
EA7
  8
STAR_WARS
 10
10.27882744113573
 20
20.61950046551537
 30
0.0
  0
VERTEX
  5
EA8
  8
STAR_WARS
 10
10.27604626038781
 20
20.5950165666234
 30
0.0
  0
VERTEX
  5
EA9
  8
STAR_WARS
 10
10.2723617901662
 20
20.57157858185886
 30
0.0
  0
VERTEX
  5
EAA
  8
STAR_WARS
 10
10.26777403047091
 20
20.54918651122174
 30
0.0
  0
VERTEX
  5
EAB
  8
STAR_WARS
 10
10.26228298130194
 20
20.52784035471204
 30
0.0
  0
VERTEX
  5
EAC
  8
STAR_WARS
 10
10.25588864265928
 20
20.50754011232977
 30
0.0
  0
VERTEX
  5
EAD
  8
STAR_WARS
 10
10.24872175380887
 20
20.48796487860401
 30
0.0
  0
VERTEX
  5
EAE
  8
STAR_WARS
 10
10.24091305401662
 20
20.46879374806384
 30
0.0
  0
VERTEX
  5
EAF
  8
STAR_WARS
 10
10.23246254328255
 20
20.45002672070927
 30
0.0
  0
VERTEX
  5
EB0
  8
STAR_WARS
 10
10.22337022160665
 20
20.4316637965403
 30
0.0
  0
VERTEX
  5
EB1
  8
STAR_WARS
 10
10.21363608898892
 20
20.41370497555692
 30
0.0
  0
VERTEX
  5
EB2
  8
STAR_WARS
 10
10.20326014542936
 20
20.39615025775913
 30
0.0
  0
VERTEX
  5
EB3
  8
STAR_WARS
 10
10.19224239092798
 20
20.37899964314695
 30
0.0
  0
VERTEX
  5
EB4
  8
STAR_WARS
 10
10.18058282548476
 20
20.36225313172035
 30
0.0
  0
VERTEX
  5
EB5
  8
STAR_WARS
 10
10.16828144909972
 20
20.34591072347936
 30
0.0
  0
VERTEX
  5
EB6
  8
STAR_WARS
 10
10.15533826177285
 20
20.32997241842395
 30
0.0
  0
VERTEX
  5
EB7
  8
STAR_WARS
 10
10.14175326350415
 20
20.31443821655415
 30
0.0
  0
VERTEX
  5
EB8
  8
STAR_WARS
 10
10.12752645429363
 20
20.29930811786994
 30
0.0
  0
VERTEX
  5
EB9
  8
STAR_WARS
 10
10.11265783414127
 20
20.28458212237133
 30
0.0
  0
VERTEX
  5
EBA
  8
STAR_WARS
 10
10.09714740304709
 20
20.27026023005831
 30
0.0
  0
VERTEX
  5
EBB
  8
STAR_WARS
 10
10.08099516101108
 20
20.25634244093088
 30
0.0
  0
VERTEX
  5
EBC
  8
STAR_WARS
 10
10.06420110803324
 20
20.24282875498905
 30
0.0
  0
VERTEX
  5
EBD
  8
STAR_WARS
 10
10.04662261945983
 20
20.2296954014572
 30
0.0
  0
VERTEX
  5
EBE
  8
STAR_WARS
 10
10.02811707063712
 20
20.21691860955969
 30
0.0
  0
VERTEX
  5
EBF
  8
STAR_WARS
 10
10.0086844615651
 20
20.20449837929653
 30
0.0
  0
VERTEX
  5
EC0
  8
STAR_WARS
 10
9.988324792243766
 20
20.19243471066772
 30
0.0
  0
VERTEX
  5
EC1
  8
STAR_WARS
 10
9.96703806267313
 20
20.18072760367326
 30
0.0
  0
VERTEX
  5
EC2
  8
STAR_WARS
 10
9.944824272853182
 20
20.16937705831315
 30
0.0
  0
VERTEX
  5
EC3
  8
STAR_WARS
 10
9.921683422783932
 20
20.15838307458739
 30
0.0
  0
VERTEX
  5
EC4
  8
STAR_WARS
 10
9.897615512465372
 20
20.14774565249597
 30
0.0
  0
VERTEX
  5
EC5
  8
STAR_WARS
 10
9.872620541897506
 20
20.13746479203892
 30
0.0
  0
VERTEX
  5
EC6
  8
STAR_WARS
 10
9.84669851108033
 20
20.1275404932162
 30
0.0
  0
VERTEX
  5
EC7
  8
STAR_WARS
 10
9.819849420013849
 20
20.11797275602783
 30
0.0
  0
VERTEX
  5
EC8
  8
STAR_WARS
 10
9.792073268698061
 20
20.10876158047381
 30
0.0
  0
VERTEX
  5
EC9
  8
STAR_WARS
 10
9.763370057132963
 20
20.09990696655415
 30
0.0
  0
VERTEX
  5
ECA
  8
STAR_WARS
 10
9.733739785318559
 20
20.09140891426883
 30
0.0
  0
VERTEX
  5
ECB
  8
STAR_WARS
 10
9.703182453254847
 20
20.08326742361786
 30
0.0
  0
VERTEX
  5
ECC
  8
STAR_WARS
 10
9.671698060941827
 20
20.07548249460124
 30
0.0
  0
VERTEX
  5
ECD
  8
STAR_WARS
 10
9.836001662049862
 20
19.86553900429653
 30
0.0
  0
VERTEX
  5
ECE
  8
STAR_WARS
 10
10.89679879720544
 20
19.86553900429653
 30
0.0
  0
VERTEX
  5
ECF
  8
STAR_WARS
 10
10.92003179721015
 20
19.86503684666149
 30
0.0
  0
VERTEX
  5
ED0
  8
STAR_WARS
 10
10.94198073976988
 20
19.86505170339625
 30
0.0
  0
VERTEX
  5
ED1
  8
STAR_WARS
 10
10.96263969624111
 20
19.86558357450082
 30
0.0
  0
VERTEX
  5
ED2
  8
STAR_WARS
 10
10.98200273798027
 20
19.8666324599752
 30
0.0
  0
VERTEX
  5
ED3
  8
STAR_WARS
 10
11.00006393634384
 20
19.86819835981938
 30
0.0
  0
VERTEX
  5
ED4
  8
STAR_WARS
 10
11.01681736268827
 20
19.87028127403337
 30
0.0
  0
VERTEX
  5
ED5
  8
STAR_WARS
 10
11.03225708837002
 20
19.87288120261717
 30
0.0
  0
VERTEX
  5
ED6
  8
STAR_WARS
 10
11.04637718474556
 20
19.87599814557077
 30
0.0
  0
VERTEX
  5
ED7
  8
STAR_WARS
 10
11.05917172317134
 20
19.87963210289418
 30
0.0
  0
VERTEX
  5
ED8
  8
STAR_WARS
 10
11.07063477500381
 20
19.88378307458739
 30
0.0
  0
VERTEX
  5
ED9
  8
STAR_WARS
 10
11.08076041159945
 20
19.88845106065041
 30
0.0
  0
VERTEX
  5
EDA
  8
STAR_WARS
 10
11.0895427043147
 20
19.89363606108324
 30
0.0
  0
VERTEX
  5
EDB
  8
STAR_WARS
 10
11.09342824401608
 20
19.89642244168832
 30
0.0
  0
VERTEX
  5
EDC
  8
STAR_WARS
 10
11.09697572450604
 20
19.89933807588586
 30
0.0
  0
VERTEX
  5
EDD
  8
STAR_WARS
 10
11.10018440470413
 20
19.90238296367586
 30
0.0
  0
VERTEX
  5
EDE
  8
STAR_WARS
 10
11.10305354352991
 20
19.90555710505831
 30
0.0
  0
VERTEX
  5
EDF
  8
STAR_WARS
 10
11.10558239990294
 20
19.9088605000332
 30
0.0
  0
VERTEX
  5
EE0
  8
STAR_WARS
 10
11.10777023274277
 20
19.91229314860055
 30
0.0
  0
VERTEX
  5
EE1
  8
STAR_WARS
 10
11.10961630096897
 20
19.91585505076035
 30
0.0
  0
VERTEX
  5
EE2
  8
STAR_WARS
 10
11.1111198635011
 20
19.9195462065126
 30
0.0
  0
VERTEX
  5
EE3
  8
STAR_WARS
 10
11.11228017925869
 20
19.9233666158573
 30
0.0
  0
VERTEX
  5
EE4
  8
STAR_WARS
 10
11.11309650716133
 20
19.92731627879445
 30
0.0
  0
VERTEX
  5
EE5
  8
STAR_WARS
 10
11.11356810612856
 20
19.93139519532406
 30
0.0
  0
VERTEX
  5
EE6
  8
STAR_WARS
 10
11.11369423507994
 20
19.93560336544612
 30
0.0
  0
VERTEX
  5
EE7
  8
STAR_WARS
 10
11.11347415293503
 20
19.93994078916062
 30
0.0
  0
VERTEX
  5
EE8
  8
STAR_WARS
 10
11.11290711861339
 20
19.94440746646758
 30
0.0
  0
VERTEX
  5
EE9
  8
STAR_WARS
 10
11.11199239103457
 20
19.949003397367
 30
0.0
  0
VERTEX
  5
EEA
  8
STAR_WARS
 10
11.11072922911812
 20
19.95372858185886
 30
0.0
  0
VERTEX
  5
EEB
  8
STAR_WARS
 10
11.10715463795061
 20
19.96356671161994
 30
0.0
  0
VERTEX
  5
EEC
  8
STAR_WARS
 10
11.10217741646732
 20
19.97392185575083
 30
0.0
  0
VERTEX
  5
EED
  8
STAR_WARS
 10
11.09579163602469
 20
19.98479401425152
 30
0.0
  0
VERTEX
  5
EEE
  8
STAR_WARS
 10
11.08799136797919
 20
19.99618318712202
 30
0.0
  0
VERTEX
  5
EEF
  8
STAR_WARS
 10
11.07877068368728
 20
20.00808937436232
 30
0.0
  0
VERTEX
  5
EF0
  8
STAR_WARS
 10
11.06812365450542
 20
20.02051257597243
 30
0.0
  0
VERTEX
  5
EF1
  8
STAR_WARS
 10
11.05604435179006
 20
20.03345279195235
 30
0.0
  0
VERTEX
  5
EF2
  8
STAR_WARS
 10
11.04252684689768
 20
20.04691002230207
 30
0.0
  0
VERTEX
  5
EF3
  8
STAR_WARS
 10
11.02756521118471
 20
20.0608842670216
 30
0.0
  0
VERTEX
  5
EF4
  8
STAR_WARS
 10
11.01115351600764
 20
20.07537552611093
 30
0.0
  0
VERTEX
  5
EF5
  8
STAR_WARS
 10
10.99328583272291
 20
20.09038379957007
 30
0.0
  0
VERTEX
  5
EF6
  8
STAR_WARS
 10
10.97395623268698
 20
20.10590908739902
 30
0.0
  0
VERTEX
  5
EF7
  8
STAR_WARS
 10
10.94146158240997
 20
20.13625842517603
 30
0.0
  0
VERTEX
  5
EF8
  8
STAR_WARS
 10
10.91015547091413
 20
20.16645325291149
 30
0.0
  0
VERTEX
  5
EF9
  8
STAR_WARS
 10
10.88003789819945
 20
20.1964935706054
 30
0.0
  0
VERTEX
  5
EFA
  8
STAR_WARS
 10
10.85110886426593
 20
20.22637937825775
 30
0.0
  0
VERTEX
  5
EFB
  8
STAR_WARS
 10
10.82336836911357
 20
20.25611067586856
 30
0.0
  0
VERTEX
  5
EFC
  8
STAR_WARS
 10
10.79681641274238
 20
20.28568746343781
 30
0.0
  0
VERTEX
  5
EFD
  8
STAR_WARS
 10
10.77145299515236
 20
20.31510974096551
 30
0.0
  0
VERTEX
  5
EFE
  8
STAR_WARS
 10
10.74727811634349
 20
20.34437750845166
 30
0.0
  0
VERTEX
  5
EFF
  8
STAR_WARS
 10
10.72429177631579
 20
20.37349076589626
 30
0.0
  0
VERTEX
  5
F00
  8
STAR_WARS
 10
10.70249397506925
 20
20.4024495132993
 30
0.0
  0
VERTEX
  5
F01
  8
STAR_WARS
 10
10.68188471260388
 20
20.4312537506608
 30
0.0
  0
VERTEX
  5
F02
  8
STAR_WARS
 10
10.66246398891967
 20
20.45990347798075
 30
0.0
  0
VERTEX
  5
F03
  8
STAR_WARS
 10
10.64423180401662
 20
20.48839869525914
 30
0.0
  0
VERTEX
  5
F04
  8
STAR_WARS
 10
10.62718815789474
 20
20.51673940249598
 30
0.0
  0
VERTEX
  5
F05
  8
STAR_WARS
 10
10.61133305055402
 20
20.54492559969127
 30
0.0
  0
VERTEX
  5
F06
  8
STAR_WARS
 10
10.59666648199446
 20
20.57295728684501
 30
0.0
  0
VERTEX
  5
F07
  8
STAR_WARS
 10
10.58318845221607
 20
20.6008344639572
 30
0.0
  0
VERTEX
  5
F08
  8
STAR_WARS
 10
10.57089896121884
 20
20.62855713102784
 30
0.0
  0
VERTEX
  5
F09
  8
STAR_WARS
 10
10.55979800900277
 20
20.65612528805693
 30
0.0
  0
VERTEX
  5
F0A
  8
STAR_WARS
 10
10.54988559556787
 20
20.68353893504446
 30
0.0
  0
VERTEX
  5
F0B
  8
STAR_WARS
 10
10.54116172091413
 20
20.71079807199045
 30
0.0
  0
VERTEX
  5
F0C
  8
STAR_WARS
 10
10.53362638504155
 20
20.73790269889487
 30
0.0
  0
VERTEX
  5
F0D
  8
STAR_WARS
 10
10.52727958795014
 20
20.76485281575776
 30
0.0
  0
VERTEX
  5
F0E
  8
STAR_WARS
 10
10.52212132963989
 20
20.79164842257908
 30
0.0
  0
VERTEX
  5
F0F
  8
STAR_WARS
 10
10.5181516101108
 20
20.81828951935886
 30
0.0
  0
VERTEX
  5
F10
  8
STAR_WARS
 10
10.51537042936288
 20
20.84477610609709
 30
0.0
  0
VERTEX
  5
F11
  8
STAR_WARS
 10
10.51377778739612
 20
20.87110818279377
 30
0.0
  0
VERTEX
  5
F12
  8
STAR_WARS
 10
10.51337368421052
 20
20.89728574944889
 30
0.0
  0
VERTEX
  5
F13
  8
STAR_WARS
 10
10.51415811980609
 20
20.92330880606247
 30
0.0
  0
VERTEX
  5
F14
  8
STAR_WARS
 10
10.51613109418282
 20
20.94917735263449
 30
0.0
  0
VERTEX
  5
F15
  8
STAR_WARS
 10
10.51929260734072
 20
20.97489138916495
 30
0.0
  0
VERTEX
  5
F16
  8
STAR_WARS
 10
10.52364265927978
 20
21.00045091565387
 30
0.0
  0
VERTEX
  5
F17
  8
STAR_WARS
 10
10.52891977146814
 20
21.02553502663033
 30
0.0
  0
VERTEX
  5
F18
  8
STAR_WARS
 10
10.53486246537396
 20
21.0498228166234
 30
0.0
  0
VERTEX
  5
F19
  8
STAR_WARS
 10
10.54147074099723
 20
21.0733142856331
 30
0.0
  0
VERTEX
  5
F1A
  8
STAR_WARS
 10
10.54874459833795
 20
21.09600943365941
 30
0.0
  0
VERTEX
  5
F1B
  8
STAR_WARS
 10
10.55668403739612
 20
21.11790826070234
 30
0.0
  0
VERTEX
  5
F1C
  8
STAR_WARS
 10
10.56528905817174
 20
21.1390107667619
 30
0.0
  0
VERTEX
  5
F1D
  8
STAR_WARS
 10
10.57455966066482
 20
21.15931695183808
 30
0.0
  0
VERTEX
  5
F1E
  8
STAR_WARS
 10
10.58449584487535
 20
21.17882681593088
 30
0.0
  0
VERTEX
  5
F1F
  8
STAR_WARS
 10
10.59509761080332
 20
21.1975403590403
 30
0.0
  0
VERTEX
  5
F20
  8
STAR_WARS
 10
10.60636495844875
 20
21.21545758116634
 30
0.0
  0
VERTEX
  5
F21
  8
STAR_WARS
 10
10.61829788781163
 20
21.23257848230899
 30
0.0
  0
VERTEX
  5
F22
  8
STAR_WARS
 10
10.63089639889197
 20
21.24890306246828
 30
0.0
  0
VERTEX
  5
F23
  8
STAR_WARS
 10
10.64416049168975
 20
21.26443132164417
 30
0.0
  0
VERTEX
  5
F24
  8
STAR_WARS
 10
10.65809016620499
 20
21.2791632598367
 30
0.0
  0
VERTEX
  5
F25
  8
STAR_WARS
 10
10.67268542243767
 20
21.29309887704584
 30
0.0
  0
VERTEX
  5
F26
  8
STAR_WARS
 10
10.68794626038781
 20
21.3062381732716
 30
0.0
  0
VERTEX
  5
F27
  8
STAR_WARS
 10
10.7038726800554
 20
21.31858114851398
 30
0.0
  0
VERTEX
  5
F28
  8
STAR_WARS
 10
10.72046468144044
 20
21.33012780277298
 30
0.0
  0
VERTEX
  5
F29
  8
STAR_WARS
 10
10.73772226454293
 20
21.3408781360486
 30
0.0
  0
VERTEX
  5
F2A
  8
STAR_WARS
 10
10.75564542936288
 20
21.35083214834085
 30
0.0
  0
VERTEX
  5
F2B
  8
STAR_WARS
 10
10.77423417590028
 20
21.35998983964971
 30
0.0
  0
VERTEX
  5
F2C
  8
STAR_WARS
 10
10.79348850415512
 20
21.3683512099752
 30
0.0
  0
VERTEX
  5
F2D
  8
STAR_WARS
 10
10.81340841412742
 20
21.3759162593173
 30
0.0
  0
VERTEX
  5
F2E
  8
STAR_WARS
 10
10.83399390581717
 20
21.38268498767603
 30
0.0
  0
VERTEX
  5
F2F
  8
STAR_WARS
 10
10.85524497922438
 20
21.38865739505137
 30
0.0
  0
VERTEX
  5
F30
  8
STAR_WARS
 10
10.87716163434903
 20
21.39383348144334
 30
0.0
  0
VERTEX
  5
F31
  8
STAR_WARS
 10
10.89974387119113
 20
21.39821324685193
 30
0.0
  0
VERTEX
  5
F32
  8
STAR_WARS
 10
10.92299168975069
 20
21.40179669127714
 30
0.0
  0
VERTEX
  5
F33
  8
STAR_WARS
 10
10.9469050900277
 20
21.40458381471896
 30
0.0
  0
VERTEX
  5
F34
  8
STAR_WARS
 10
10.97148407202216
 20
21.40657461717742
 30
0.0
  0
VERTEX
  5
F35
  8
STAR_WARS
 10
10.99672863573407
 20
21.40776909865249
 30
0.0
  0
VERTEX
  5
F36
  8
STAR_WARS
 10
11.02263878116343
 20
21.40816725914418
 30
0.0
  0
VERTEX
  5
F37
  8
STAR_WARS
 10
12.37662216066482
 20
21.40816725914418
 30
0.0
  0
VERTEX
  5
F38
  8
STAR_WARS
 10
12.37662216066482
 20
20.75399551399182
 30
0.0
  0
VERTEX
  5
F39
  8
STAR_WARS
 10
11.68593850415512
 20
20.75399551399182
 30
0.0
  0
VERTEX
  5
F3A
  8
STAR_WARS
 10
11.66215287179709
 20
20.75452144240249
 30
0.0
  0
VERTEX
  5
F3B
  8
STAR_WARS
 10
11.63966868940443
 20
20.75457789799459
 30
0.0
  0
VERTEX
  5
F3C
  8
STAR_WARS
 10
11.61848595697715
 20
20.75416488076814
 30
0.0
  0
VERTEX
  5
F3D
  8
STAR_WARS
 10
11.59860467451523
 20
20.75328239072312
 30
0.0
  0
VERTEX
  5
F3E
  8
STAR_WARS
 10
11.5800248420187
 20
20.75193042785955
 30
0.0
  0
VERTEX
  5
F3F
  8
STAR_WARS
 10
11.56274645948753
 20
20.75010899217741
 30
0.0
  0
VERTEX
  5
F40
  8
STAR_WARS
 10
11.54676952692174
 20
20.74781808367672
 30
0.0
  0
VERTEX
  5
F41
  8
STAR_WARS
 10
11.53209404432133
 20
20.74505770235747
 30
0.0
  0
VERTEX
  5
F42
  8
STAR_WARS
 10
11.51872001168629
 20
20.74182784821966
 30
0.0
  0
VERTEX
  5
F43
  8
STAR_WARS
 10
11.50664742901662
 20
20.73812852126329
 30
0.0
  0
VERTEX
  5
F44
  8
STAR_WARS
 10
11.49587629631232
 20
20.73395972148836
 30
0.0
  0
VERTEX
  5
F45
  8
STAR_WARS
 10
11.4864066135734
 20
20.72932144889487
 30
0.0
  0
VERTEX
  5
F46
  8
STAR_WARS
 10
11.47823838079986
 20
20.72421370348282
 30
0.0
  0
VERTEX
  5
F47
  8
STAR_WARS
 10
11.47137159799169
 20
20.7186364852522
 30
0.0
  0
VERTEX
  5
F48
  8
STAR_WARS
 10
11.46842625032462
 20
20.71567182382994
 30
0.0
  0
VERTEX
  5
F49
  8
STAR_WARS
 10
11.46580626514889
 20
20.71258979420304
 30
0.0
  0
VERTEX
  5
F4A
  8
STAR_WARS
 10
11.46351164246451
 20
20.7093903963715
 30
0.0
  0
VERTEX
  5
F4B
  8
STAR_WARS
 10
11.46154238227147
 20
20.70607363033531
 30
0.0
  0
VERTEX
  5
F4C
  8
STAR_WARS
 10
11.45989848456977
 20
20.70263949609449
 30
0.0
  0
VERTEX
  5
F4D
  8
STAR_WARS
 10
11.45857994935942
 20
20.69908799364903
 30
0.0
  0
VERTEX
  5
F4E
  8
STAR_WARS
 10
11.45758677664041
 20
20.69541912299892
 30
0.0
  0
VERTEX
  5
F4F
  8
STAR_WARS
 10
11.45691896641274
 20
20.69163288414418
 30
0.0
  0
VERTEX
  5
F50
  8
STAR_WARS
 10
11.45657651867642
 20
20.6877292770848
 30
0.0
  0
VERTEX
  5
F51
  8
STAR_WARS
 10
11.45655943343144
 20
20.68370830182077
 30
0.0
  0
VERTEX
  5
F52
  8
STAR_WARS
 10
11.45686771067781
 20
20.67956995835211
 30
0.0
  0
VERTEX
  5
F53
  8
STAR_WARS
 10
11.45750135041551
 20
20.6753142466788
 30
0.0
  0
VERTEX
  5
F54
  8
STAR_WARS
 10
11.45974471736496
 20
20.66645071871827
 30
0.0
  0
VERTEX
  5
F55
  8
STAR_WARS
 10
11.46328953427978
 20
20.65711771793919
 30
0.0
  0
VERTEX
  5
F56
  8
STAR_WARS
 10
11.46813580115997
 20
20.64731524434154
 30
0.0
  0
VERTEX
  5
F57
  8
STAR_WARS
 10
11.47428351800554
 20
20.63704329792534
 30
0.0
  0
VERTEX
  5
F58
  8
STAR_WARS
 10
11.48173268481648
 20
20.62630187869058
 30
0.0
  0
VERTEX
  5
F59
  8
STAR_WARS
 10
11.4904833015928
 20
20.61509098663725
 30
0.0
  0
VERTEX
  5
F5A
  8
STAR_WARS
 10
11.50053536833449
 20
20.60341062176537
 30
0.0
  0
VERTEX
  5
F5B
  8
STAR_WARS
 10
11.51188888504155
 20
20.59126078407493
 30
0.0
  0
VERTEX
  5
F5C
  8
STAR_WARS
 10
11.52454385171399
 20
20.57864147356592
 30
0.0
  0
VERTEX
  5
F5D
  8
STAR_WARS
 10
11.5385002683518
 20
20.56555269023836
 30
0.0
  0
VERTEX
  5
F5E
  8
STAR_WARS
 10
11.55375813495499
 20
20.55199443409224
 30
0.0
  0
VERTEX
  5
F5F
  8
STAR_WARS
 10
11.57031745152354
 20
20.53796670512756
 30
0.0
  0
VERTEX
  5
F60
  8
STAR_WARS
 10
11.60063410448407
 20
20.51098687479514
 30
0.0
  0
VERTEX
  5
F61
  8
STAR_WARS
 10
11.62997021295014
 20
20.48405458601398
 30
0.0
  0
VERTEX
  5
F62
  8
STAR_WARS
 10
11.65832577692175
 20
20.45716983878406
 30
0.0
  0
VERTEX
  5
F63
  8
STAR_WARS
 10
11.68570079639889
 20
20.43033263310539
 30
0.0
  0
VERTEX
  5
F64
  8
STAR_WARS
 10
11.71209527138158
 20
20.40354296897797
 30
0.0
  0
VERTEX
  5
F65
  8
STAR_WARS
 10
11.73750920186981
 20
20.37680084640179
 30
0.0
  0
VERTEX
  5
F66
  8
STAR_WARS
 10
11.76194258786357
 20
20.35010626537686
 30
0.0
  0
VERTEX
  5
F67
  8
STAR_WARS
 10
11.78539542936288
 20
20.32345922590318
 30
0.0
  0
VERTEX
  5
F68
  8
STAR_WARS
 10
11.80786772636773
 20
20.29685972798074
 30
0.0
  0
VERTEX
  5
F69
  8
STAR_WARS
 10
11.82935947887811
 20
20.27030777160955
 30
0.0
  0
VERTEX
  5
F6A
  8
STAR_WARS
 10
11.84987068689404
 20
20.24380335678961
 30
0.0
  0
VERTEX
  5
F6B
  8
STAR_WARS
 10
11.86940135041551
 20
20.21734648352091
 30
0.0
  0
VERTEX
  5
F6C
  8
STAR_WARS
 10
11.88795146944252
 20
20.19093715180346
 30
0.0
  0
VERTEX
  5
F6D
  8
STAR_WARS
 10
11.90552104397507
 20
20.16457536163725
 30
0.0
  0
VERTEX
  5
F6E
  8
STAR_WARS
 10
11.92211007401316
 20
20.1382611130223
 30
0.0
  0
VERTEX
  5
F6F
  8
STAR_WARS
 10
11.93771855955679
 20
20.11199440595858
 30
0.0
  0
VERTEX
  5
F70
  8
STAR_WARS
 10
11.95234650060596
 20
20.08577524044612
 30
0.0
  0
VERTEX
  5
F71
  8
STAR_WARS
 10
11.96599389716066
 20
20.0596036164849
 30
0.0
  0
VERTEX
  5
F72
  8
STAR_WARS
 10
11.97866074922091
 20
20.03347953407492
 30
0.0
  0
VERTEX
  5
F73
  8
STAR_WARS
 10
11.9903470567867
 20
20.0074029932162
 30
0.0
  0
VERTEX
  5
F74
  8
STAR_WARS
 10
12.00105281985804
 20
19.98137399390872
 30
0.0
  0
VERTEX
  5
F75
  8
STAR_WARS
 10
12.0107780384349
 20
19.95539253615249
 30
0.0
  0
VERTEX
  5
F76
  8
STAR_WARS
 10
12.01952271251731
 20
19.9294586199475
 30
0.0
  0
VERTEX
  5
F77
  8
STAR_WARS
 10
12.02728684210526
 20
19.90357224529376
 30
0.0
  0
VERTEX
  5
F78
  8
STAR_WARS
 10
12.03407042719875
 20
19.87773341219127
 30
0.0
  0
VERTEX
  5
F79
  8
STAR_WARS
 10
12.03987346779778
 20
19.85194212064002
 30
0.0
  0
VERTEX
  5
F7A
  8
STAR_WARS
 10
12.04469596390235
 20
19.82619837064002
 30
0.0
  0
VERTEX
  5
F7B
  8
STAR_WARS
 10
12.04853791551247
 20
19.80050216219127
 30
0.0
  0
VERTEX
  5
F7C
  8
STAR_WARS
 10
12.05139932262812
 20
19.77485349529376
 30
0.0
  0
VERTEX
  5
F7D
  8
STAR_WARS
 10
12.05328018524931
 20
19.7492523699475
 30
0.0
  0
VERTEX
  5
F7E
  8
STAR_WARS
 10
12.05418050337604
 20
19.72369878615249
 30
0.0
  0
VERTEX
  5
F7F
  8
STAR_WARS
 10
12.05410027700831
 20
19.69819274390872
 30
0.0
  0
VERTEX
  5
F80
  8
STAR_WARS
 10
12.05307516230956
 20
19.67303137791149
 30
0.0
  0
VERTEX
  5
F81
  8
STAR_WARS
 10
12.05114081544322
 20
19.64851182285609
 30
0.0
  0
VERTEX
  5
F82
  8
STAR_WARS
 10
12.04829723640928
 20
19.62463407874251
 30
0.0
  0
VERTEX
  5
F83
  8
STAR_WARS
 10
12.04454442520776
 20
19.60139814557077
 30
0.0
  0
VERTEX
  5
F84
  8
STAR_WARS
 10
12.03988238183864
 20
19.57880402334085
 30
0.0
  0
VERTEX
  5
F85
  8
STAR_WARS
 10
12.03431110630194
 20
19.55685171205276
 30
0.0
  0
VERTEX
  5
F86
  8
STAR_WARS
 10
12.02783059859765
 20
19.5355412117065
 30
0.0
  0
VERTEX
  5
F87
  8
STAR_WARS
 10
12.02044085872576
 20
19.51487252230207
 30
0.0
  0
VERTEX
  5
F88
  8
STAR_WARS
 10
12.01214188668629
 20
19.49484564383947
 30
0.0
  0
VERTEX
  5
F89
  8
STAR_WARS
 10
12.00293368247923
 20
19.47546057631869
 30
0.0
  0
VERTEX
  5
F8A
  8
STAR_WARS
 10
11.99281624610457
 20
19.45671731973975
 30
0.0
  0
VERTEX
  5
F8B
  8
STAR_WARS
 10
11.98178957756233
 20
19.43861587410262
 30
0.0
  0
VERTEX
  5
F8C
  8
STAR_WARS
 10
11.96985367685249
 20
19.42115623940733
 30
0.0
  0
VERTEX
  5
F8D
  8
STAR_WARS
 10
11.95700854397507
 20
19.40433841565387
 30
0.0
  0
VERTEX
  5
F8E
  8
STAR_WARS
 10
11.94325417893005
 20
19.38816240284223
 30
0.0
  0
VERTEX
  5
F8F
  8
STAR_WARS
 10
11.92859058171745
 20
19.37262820097243
 30
0.0
  0
VERTEX
  5
F90
  8
STAR_WARS
 10
11.91301775233726
 20
19.35773581004445
 30
0.0
  0
VERTEX
  5
F91
  8
STAR_WARS
 10
11.89653569078947
 20
19.3434852300583
 30
0.0
  0
VERTEX
  5
F92
  8
STAR_WARS
 10
11.8791443970741
 20
19.32987646101398
 30
0.0
  0
VERTEX
  5
F93
  8
STAR_WARS
 10
11.86084387119114
 20
19.31690950291149
 30
0.0
  0
VERTEX
  5
F94
  8
STAR_WARS
 10
11.84163411314058
 20
19.30458435575082
 30
0.0
  0
VERTEX
  5
F95
  8
STAR_WARS
 10
11.82151512292244
 20
19.29290101953199
 30
0.0
  0
VERTEX
  5
F96
  8
STAR_WARS
 10
11.8004869005367
 20
19.28185949425498
 30
0.0
  0
VERTEX
  5
F97
  8
STAR_WARS
 10
11.77854944598338
 20
19.27145977991979
 30
0.0
  0
VERTEX
  5
F98
  8
STAR_WARS
 10
11.75570275926247
 20
19.26170187652644
 30
0.0
  0
VERTEX
  5
F99
  8
STAR_WARS
 10
11.73194684037396
 20
19.25258578407492
 30
0.0
  0
VERTEX
  5
F9A
  8
STAR_WARS
 10
11.70728168931787
 20
19.24411150256523
 30
0.0
  0
VERTEX
  5
F9B
  8
STAR_WARS
 10
11.68170730609418
 20
19.23627903199736
 30
0.0
  0
VERTEX
  5
F9C
  8
STAR_WARS
 10
11.65522369070291
 20
19.22908837237132
 30
0.0
  0
VERTEX
  5
F9D
  8
STAR_WARS
 10
11.62783084314404
 20
19.22253952368711
 30
0.0
  0
VERTEX
  5
F9E
  8
STAR_WARS
 10
11.59952876341759
 20
19.21663248594473
 30
0.0
  0
VERTEX
  5
F9F
  8
STAR_WARS
 10
11.57031745152354
 20
19.21136725914418
 30
0.0
  0
VERTEX
  5
FA0
  8
STAR_WARS
 10
9.653442105263156
 20
19.21136725914418
 30
0.0
  0
SEQEND
  5
FE5
  8
STAR_WARS
  0
ENDSEC
  0
EOF
