ISO-10303-21;
HEADER;
/* Generated by software containing ST-Developer
 * from STEP Tools, Inc. (www.steptools.com) 
 */

FILE_DESCRIPTION(
/* description */ (''),
/* implementation_level */ '2;1');

FILE_NAME(
/* name */ 'LeftEye.step',
/* time_stamp */ '2025-09-09T20:17:33+02:00',
/* author */ (''),
/* organization */ (''),
/* preprocessor_version */ 'ST-DEVELOPER v20.1',
/* originating_system */ 'Autodesk Translation Framework v14.10.0.0',
/* authorisation */ '');

FILE_SCHEMA (('AUTOMOTIVE_DESIGN { 1 0 10303 214 3 1 1 }'));
ENDSEC;

DATA;
#10=MECHANICAL_DESIGN_GEOMETRIC_PRESENTATION_REPRESENTATION('',(#106,#107),
#216);
#11=SHAPE_REPRESENTATION_RELATIONSHIP('SRR','None',#223,#12);
#12=ADVANCED_BREP_SHAPE_REPRESENTATION('',(#13),#215);
#13=MANIFOLD_SOLID_BREP('LeftEye',#116);
#14=LINE('',#198,#18);
#15=LINE('',#202,#19);
#16=LINE('',#207,#20);
#17=LINE('',#211,#21);
#18=VECTOR('',#164,1.4);
#19=VECTOR('',#169,2.);
#20=VECTOR('',#176,3.38305084745763);
#21=VECTOR('',#181,3.98305084745763);
#22=CYLINDRICAL_SURFACE('',#136,1.4);
#23=CYLINDRICAL_SURFACE('',#138,2.);
#24=CYLINDRICAL_SURFACE('',#141,3.38305084745763);
#25=CYLINDRICAL_SURFACE('',#143,3.98305084745763);
#26=FACE_BOUND('',#39,.T.);
#27=FACE_BOUND('',#41,.T.);
#28=FACE_BOUND('',#45,.T.);
#29=FACE_BOUND('',#49,.T.);
#30=FACE_OUTER_BOUND('',#38,.T.);
#31=FACE_OUTER_BOUND('',#40,.T.);
#32=FACE_OUTER_BOUND('',#42,.T.);
#33=FACE_OUTER_BOUND('',#43,.T.);
#34=FACE_OUTER_BOUND('',#44,.T.);
#35=FACE_OUTER_BOUND('',#46,.T.);
#36=FACE_OUTER_BOUND('',#47,.T.);
#37=FACE_OUTER_BOUND('',#48,.T.);
#38=EDGE_LOOP('',(#78));
#39=EDGE_LOOP('',(#79));
#40=EDGE_LOOP('',(#80));
#41=EDGE_LOOP('',(#81));
#42=EDGE_LOOP('',(#82,#83,#84,#85));
#43=EDGE_LOOP('',(#86,#87,#88,#89));
#44=EDGE_LOOP('',(#90));
#45=EDGE_LOOP('',(#91));
#46=EDGE_LOOP('',(#92,#93,#94,#95));
#47=EDGE_LOOP('',(#96,#97,#98,#99));
#48=EDGE_LOOP('',(#100));
#49=EDGE_LOOP('',(#101));
#50=CIRCLE('',#131,3.38305084745763);
#51=CIRCLE('',#132,2.);
#52=CIRCLE('',#134,3.98305084745763);
#53=CIRCLE('',#135,1.4);
#54=CIRCLE('',#137,1.4);
#55=CIRCLE('',#139,2.);
#56=CIRCLE('',#142,3.38305084745763);
#57=CIRCLE('',#144,3.98305084745763);
#58=VERTEX_POINT('',#186);
#59=VERTEX_POINT('',#188);
#60=VERTEX_POINT('',#191);
#61=VERTEX_POINT('',#193);
#62=VERTEX_POINT('',#196);
#63=VERTEX_POINT('',#200);
#64=VERTEX_POINT('',#205);
#65=VERTEX_POINT('',#209);
#66=EDGE_CURVE('',#58,#58,#50,.T.);
#67=EDGE_CURVE('',#59,#59,#51,.T.);
#68=EDGE_CURVE('',#60,#60,#52,.T.);
#69=EDGE_CURVE('',#61,#61,#53,.T.);
#70=EDGE_CURVE('',#62,#62,#54,.T.);
#71=EDGE_CURVE('',#62,#61,#14,.T.);
#72=EDGE_CURVE('',#63,#63,#55,.T.);
#73=EDGE_CURVE('',#63,#59,#15,.T.);
#74=EDGE_CURVE('',#64,#64,#56,.T.);
#75=EDGE_CURVE('',#64,#58,#16,.T.);
#76=EDGE_CURVE('',#65,#65,#57,.T.);
#77=EDGE_CURVE('',#65,#60,#17,.T.);
#78=ORIENTED_EDGE('',*,*,#66,.F.);
#79=ORIENTED_EDGE('',*,*,#67,.F.);
#80=ORIENTED_EDGE('',*,*,#68,.T.);
#81=ORIENTED_EDGE('',*,*,#69,.T.);
#82=ORIENTED_EDGE('',*,*,#70,.F.);
#83=ORIENTED_EDGE('',*,*,#71,.T.);
#84=ORIENTED_EDGE('',*,*,#69,.F.);
#85=ORIENTED_EDGE('',*,*,#71,.F.);
#86=ORIENTED_EDGE('',*,*,#72,.F.);
#87=ORIENTED_EDGE('',*,*,#73,.T.);
#88=ORIENTED_EDGE('',*,*,#67,.T.);
#89=ORIENTED_EDGE('',*,*,#73,.F.);
#90=ORIENTED_EDGE('',*,*,#72,.T.);
#91=ORIENTED_EDGE('',*,*,#70,.T.);
#92=ORIENTED_EDGE('',*,*,#74,.F.);
#93=ORIENTED_EDGE('',*,*,#75,.T.);
#94=ORIENTED_EDGE('',*,*,#66,.T.);
#95=ORIENTED_EDGE('',*,*,#75,.F.);
#96=ORIENTED_EDGE('',*,*,#76,.F.);
#97=ORIENTED_EDGE('',*,*,#77,.T.);
#98=ORIENTED_EDGE('',*,*,#68,.F.);
#99=ORIENTED_EDGE('',*,*,#77,.F.);
#100=ORIENTED_EDGE('',*,*,#76,.T.);
#101=ORIENTED_EDGE('',*,*,#74,.T.);
#102=PLANE('',#130);
#103=PLANE('',#133);
#104=PLANE('',#140);
#105=PLANE('',#145);
#106=STYLED_ITEM('',(#235),#108);
#107=STYLED_ITEM('',(#234),#13);
#108=ADVANCED_FACE('',(#30,#26),#102,.T.);
#109=ADVANCED_FACE('',(#31,#27),#103,.F.);
#110=ADVANCED_FACE('',(#32),#22,.F.);
#111=ADVANCED_FACE('',(#33),#23,.T.);
#112=ADVANCED_FACE('',(#34,#28),#104,.T.);
#113=ADVANCED_FACE('',(#35),#24,.F.);
#114=ADVANCED_FACE('',(#36),#25,.T.);
#115=ADVANCED_FACE('',(#37,#29),#105,.T.);
#116=CLOSED_SHELL('',(#108,#109,#110,#111,#112,#113,#114,#115));
#117=DERIVED_UNIT_ELEMENT(#119,1.);
#118=DERIVED_UNIT_ELEMENT(#218,-3.);
#119=(
MASS_UNIT()
NAMED_UNIT(*)
SI_UNIT(.KILO.,.GRAM.)
);
#120=DERIVED_UNIT((#117,#118));
#121=MEASURE_REPRESENTATION_ITEM('density measure',
POSITIVE_RATIO_MEASURE(2700.),#120);
#122=PROPERTY_DEFINITION_REPRESENTATION(#127,#124);
#123=PROPERTY_DEFINITION_REPRESENTATION(#128,#125);
#124=REPRESENTATION('material name',(#126),#215);
#125=REPRESENTATION('density',(#121),#215);
#126=DESCRIPTIVE_REPRESENTATION_ITEM('Aluminum','Aluminum');
#127=PROPERTY_DEFINITION('material property','material name',#225);
#128=PROPERTY_DEFINITION('material property','density of part',#225);
#129=AXIS2_PLACEMENT_3D('',#184,#146,#147);
#130=AXIS2_PLACEMENT_3D('',#185,#148,#149);
#131=AXIS2_PLACEMENT_3D('',#187,#150,#151);
#132=AXIS2_PLACEMENT_3D('',#189,#152,#153);
#133=AXIS2_PLACEMENT_3D('',#190,#154,#155);
#134=AXIS2_PLACEMENT_3D('',#192,#156,#157);
#135=AXIS2_PLACEMENT_3D('',#194,#158,#159);
#136=AXIS2_PLACEMENT_3D('',#195,#160,#161);
#137=AXIS2_PLACEMENT_3D('',#197,#162,#163);
#138=AXIS2_PLACEMENT_3D('',#199,#165,#166);
#139=AXIS2_PLACEMENT_3D('',#201,#167,#168);
#140=AXIS2_PLACEMENT_3D('',#203,#170,#171);
#141=AXIS2_PLACEMENT_3D('',#204,#172,#173);
#142=AXIS2_PLACEMENT_3D('',#206,#174,#175);
#143=AXIS2_PLACEMENT_3D('',#208,#177,#178);
#144=AXIS2_PLACEMENT_3D('',#210,#179,#180);
#145=AXIS2_PLACEMENT_3D('',#212,#182,#183);
#146=DIRECTION('axis',(0.,0.,1.));
#147=DIRECTION('refdir',(1.,0.,0.));
#148=DIRECTION('center_axis',(0.,0.,1.));
#149=DIRECTION('ref_axis',(1.,0.,0.));
#150=DIRECTION('center_axis',(0.,0.,-1.));
#151=DIRECTION('ref_axis',(1.,0.,0.));
#152=DIRECTION('center_axis',(0.,0.,1.));
#153=DIRECTION('ref_axis',(1.,0.,0.));
#154=DIRECTION('center_axis',(0.,0.,1.));
#155=DIRECTION('ref_axis',(1.,0.,0.));
#156=DIRECTION('center_axis',(0.,0.,-1.));
#157=DIRECTION('ref_axis',(1.,0.,0.));
#158=DIRECTION('center_axis',(0.,0.,1.));
#159=DIRECTION('ref_axis',(1.,0.,0.));
#160=DIRECTION('center_axis',(0.,0.,1.));
#161=DIRECTION('ref_axis',(1.,0.,0.));
#162=DIRECTION('center_axis',(0.,0.,-1.));
#163=DIRECTION('ref_axis',(1.,0.,0.));
#164=DIRECTION('',(0.,0.,-1.));
#165=DIRECTION('center_axis',(0.,0.,1.));
#166=DIRECTION('ref_axis',(1.,0.,0.));
#167=DIRECTION('center_axis',(0.,0.,1.));
#168=DIRECTION('ref_axis',(1.,0.,0.));
#169=DIRECTION('',(0.,0.,-1.));
#170=DIRECTION('center_axis',(0.,0.,1.));
#171=DIRECTION('ref_axis',(1.,0.,0.));
#172=DIRECTION('center_axis',(0.,0.,1.));
#173=DIRECTION('ref_axis',(1.,0.,0.));
#174=DIRECTION('center_axis',(0.,0.,-1.));
#175=DIRECTION('ref_axis',(1.,0.,0.));
#176=DIRECTION('',(0.,0.,-1.));
#177=DIRECTION('center_axis',(0.,0.,1.));
#178=DIRECTION('ref_axis',(1.,0.,0.));
#179=DIRECTION('center_axis',(0.,0.,1.));
#180=DIRECTION('ref_axis',(1.,0.,0.));
#181=DIRECTION('',(0.,0.,-1.));
#182=DIRECTION('center_axis',(0.,0.,1.));
#183=DIRECTION('ref_axis',(1.,0.,0.));
#184=CARTESIAN_POINT('',(0.,0.,0.));
#185=CARTESIAN_POINT('Origin',(6.93220338983051,46.4163417959292,15.7627118644068));
#186=CARTESIAN_POINT('',(3.54915254237288,46.4163417959292,15.7627118644068));
#187=CARTESIAN_POINT('Origin',(6.93220338983051,46.4163417959292,15.7627118644068));
#188=CARTESIAN_POINT('',(4.93220338983051,46.4163417959292,15.7627118644068));
#189=CARTESIAN_POINT('Origin',(6.93220338983051,46.4163417959292,15.7627118644068));
#190=CARTESIAN_POINT('Origin',(6.93220338983051,46.4163417959292,14.9152542372881));
#191=CARTESIAN_POINT('',(2.94915254237288,46.4163417959292,14.9152542372881));
#192=CARTESIAN_POINT('Origin',(6.93220338983051,46.4163417959292,14.9152542372881));
#193=CARTESIAN_POINT('',(5.53220338983051,46.4163417959292,14.9152542372881));
#194=CARTESIAN_POINT('Origin',(6.93220338983051,46.4163417959292,14.9152542372881));
#195=CARTESIAN_POINT('Origin',(6.93220338983051,46.4163417959292,15.7627118644068));
#196=CARTESIAN_POINT('',(5.53220338983051,46.4163417959292,16.6101694915254));
#197=CARTESIAN_POINT('Origin',(6.93220338983051,46.4163417959292,16.6101694915254));
#198=CARTESIAN_POINT('',(5.53220338983051,46.4163417959292,15.7627118644068));
#199=CARTESIAN_POINT('Origin',(6.93220338983051,46.4163417959292,15.7627118644068));
#200=CARTESIAN_POINT('',(4.93220338983051,46.4163417959292,16.6101694915254));
#201=CARTESIAN_POINT('Origin',(6.93220338983051,46.4163417959292,16.6101694915254));
#202=CARTESIAN_POINT('',(4.93220338983051,46.4163417959292,15.7627118644068));
#203=CARTESIAN_POINT('Origin',(6.93220338983051,46.4163417959292,16.6101694915254));
#204=CARTESIAN_POINT('Origin',(6.93220338983051,46.4163417959292,15.7627118644068));
#205=CARTESIAN_POINT('',(3.54915254237288,46.4163417959292,16.6101694915254));
#206=CARTESIAN_POINT('Origin',(6.93220338983051,46.4163417959292,16.6101694915254));
#207=CARTESIAN_POINT('',(3.54915254237288,46.4163417959292,15.7627118644068));
#208=CARTESIAN_POINT('Origin',(6.93220338983051,46.4163417959292,15.7627118644068));
#209=CARTESIAN_POINT('',(2.94915254237288,46.4163417959292,16.6101694915254));
#210=CARTESIAN_POINT('Origin',(6.93220338983051,46.4163417959292,16.6101694915254));
#211=CARTESIAN_POINT('',(2.94915254237288,46.4163417959292,15.7627118644068));
#212=CARTESIAN_POINT('Origin',(6.93220338983051,46.4163417959292,16.6101694915254));
#213=UNCERTAINTY_MEASURE_WITH_UNIT(LENGTH_MEASURE(0.01),#217,
'DISTANCE_ACCURACY_VALUE',
'Maximum model space distance between geometric entities at asserted c
onnectivities');
#214=UNCERTAINTY_MEASURE_WITH_UNIT(LENGTH_MEASURE(0.01),#217,
'DISTANCE_ACCURACY_VALUE',
'Maximum model space distance between geometric entities at asserted c
onnectivities');
#215=(
GEOMETRIC_REPRESENTATION_CONTEXT(3)
GLOBAL_UNCERTAINTY_ASSIGNED_CONTEXT((#213))
GLOBAL_UNIT_ASSIGNED_CONTEXT((#217,#219,#220))
REPRESENTATION_CONTEXT('','3D')
);
#216=(
GEOMETRIC_REPRESENTATION_CONTEXT(3)
GLOBAL_UNCERTAINTY_ASSIGNED_CONTEXT((#214))
GLOBAL_UNIT_ASSIGNED_CONTEXT((#217,#219,#220))
REPRESENTATION_CONTEXT('','3D')
);
#217=(
LENGTH_UNIT()
NAMED_UNIT(*)
SI_UNIT(.MILLI.,.METRE.)
);
#218=(
LENGTH_UNIT()
NAMED_UNIT(*)
SI_UNIT($,.METRE.)
);
#219=(
NAMED_UNIT(*)
PLANE_ANGLE_UNIT()
SI_UNIT($,.RADIAN.)
);
#220=(
NAMED_UNIT(*)
SI_UNIT($,.STERADIAN.)
SOLID_ANGLE_UNIT()
);
#221=SHAPE_DEFINITION_REPRESENTATION(#222,#223);
#222=PRODUCT_DEFINITION_SHAPE('',$,#225);
#223=SHAPE_REPRESENTATION('',(#129),#215);
#224=PRODUCT_DEFINITION_CONTEXT('part definition',#229,'design');
#225=PRODUCT_DEFINITION('2025-09-09-20-17-33-706','Head',#226,#224);
#226=PRODUCT_DEFINITION_FORMATION('',$,#231);
#227=PRODUCT_RELATED_PRODUCT_CATEGORY('Head','Head',(#231));
#228=APPLICATION_PROTOCOL_DEFINITION('international standard',
'automotive_design',2009,#229);
#229=APPLICATION_CONTEXT(
'Core Data for Automotive Mechanical Design Process');
#230=PRODUCT_CONTEXT('part definition',#229,'mechanical');
#231=PRODUCT('2025-09-09-20-17-33-706','Head',$,(#230));
#232=PRESENTATION_STYLE_ASSIGNMENT((#236));
#233=PRESENTATION_STYLE_ASSIGNMENT((#237));
#234=PRESENTATION_STYLE_ASSIGNMENT((#238));
#235=PRESENTATION_STYLE_ASSIGNMENT((#239));
#236=SURFACE_STYLE_USAGE(.BOTH.,#240);
#237=SURFACE_STYLE_USAGE(.BOTH.,#241);
#238=SURFACE_STYLE_USAGE(.BOTH.,#242);
#239=SURFACE_STYLE_USAGE(.BOTH.,#243);
#240=SURFACE_SIDE_STYLE('',(#244));
#241=SURFACE_SIDE_STYLE('',(#245));
#242=SURFACE_SIDE_STYLE('',(#246));
#243=SURFACE_SIDE_STYLE('',(#247));
#244=SURFACE_STYLE_FILL_AREA(#248);
#245=SURFACE_STYLE_FILL_AREA(#249);
#246=SURFACE_STYLE_FILL_AREA(#250);
#247=SURFACE_STYLE_FILL_AREA(#251);
#248=FILL_AREA_STYLE('Aluminum - Satin',(#252));
#249=FILL_AREA_STYLE('Polymide (Kapton)',(#253));
#250=FILL_AREA_STYLE('Plastic - Glossy (Black)',(#254));
#251=FILL_AREA_STYLE('Plastic - Matte (Red)',(#255));
#252=FILL_AREA_STYLE_COLOUR('Aluminum - Satin',#256);
#253=FILL_AREA_STYLE_COLOUR('Polymide (Kapton)',#257);
#254=FILL_AREA_STYLE_COLOUR('Plastic - Glossy (Black)',#258);
#255=FILL_AREA_STYLE_COLOUR('Plastic - Matte (Red)',#259);
#256=COLOUR_RGB('Aluminum - Satin',0.96078431372549,0.96078431372549,0.964705882352941);
#257=COLOUR_RGB('Polymide (Kapton)',0.784313725490196,0.556862745098039,
0.0274509803921569);
#258=COLOUR_RGB('Plastic - Glossy (Black)',0.0980392156862745,0.0980392156862745,
0.0980392156862745);
#259=COLOUR_RGB('Plastic - Matte (Red)',0.768627450980392,0.207843137254902,
0.152941176470588);
ENDSEC;
END-ISO-10303-21;
